  0
SECTION
  2
HEADER
  9
$ACADVER
  1
AC1009
  9
$INSBASE
 10
8.9019261657961337
 20
19.10645619177194
 30
0.0
  9
$EXTMIN
 10
1.6029261658
 20
17.992439008443881
 30
0.0
  9
$EXTMAX
 10
16.200926165792271
 20
20.220473375099999
 30
0.0
  9
$LIMMIN
 10
0.0
 20
0.0
  9
$LIMMAX
 10
33.110236220499999
 20
23.3858267717
  9
$ORTHOMODE
 70
     1
  9
$REGENMODE
 70
     1
  9
$FILLMODE
 70
     1
  9
$QTEXTMODE
 70
     0
  9
$MIRRTEXT
 70
     0
  9
$DRAGMODE
 70
     2
  9
$LTSCALE
 40
1.8210629921000001
  9
$OSMODE
 70
    47
  9
$ATTMODE
 70
     1
  9
$TEXTSIZE
 40
0.2
  9
$TRACEWID
 40
0.05
  9
$TEXTSTYLE
  7
STANDARD
  9
$CLAYER
  8
DEFPOINTS
  9
$CELTYPE
  6
BYLAYER
  9
$CECOLOR
 62
   256
  9
$DIMSCALE
 40
1.0
  9
$DIMASZ
 40
0.1875
  9
$DIMEXO
 40
0.0625
  9
$DIMDLI
 40
1.2581889764
  9
$DIMRND
 40
0.0
  9
$DIMDLE
 40
0.0
  9
$DIMEXE
 40
0.125
  9
$DIMTP
 40
0.0
  9
$DIMTM
 40
0.0
  9
$DIMTXT
 40
0.15625
  9
$DIMCEN
 40
0.297992126
  9
$DIMTSZ
 40
0.0
  9
$DIMTOL
 70
     0
  9
$DIMLIM
 70
     0
  9
$DIMTIH
 70
     1
  9
$DIMTOH
 70
     1
  9
$DIMSE1
 70
     0
  9
$DIMSE2
 70
     0
  9
$DIMTAD
 70
     0
  9
$DIMZIN
 70
     0
  9
$DIMBLK
  1

  9
$DIMASO
 70
     1
  9
$DIMSHO
 70
     1
  9
$DIMPOST
  1

  9
$DIMAPOST
  1

  9
$DIMALT
 70
     0
  9
$DIMALTD
 70
     2
  9
$DIMALTF
 40
25.399999999999999
  9
$DIMLFAC
 40
1.0
  9
$DIMTOFL
 70
     0
  9
$DIMTVP
 40
0.0
  9
$DIMTIX
 70
     0
  9
$DIMSOXD
 70
     0
  9
$DIMSAH
 70
     0
  9
$DIMBLK1
  1

  9
$DIMBLK2
  1

  9
$DIMSTYLE
  2
STANDARD
  9
$DIMCLRD
 70
     0
  9
$DIMCLRE
 70
     0
  9
$DIMCLRT
 70
     0
  9
$DIMTFAC
 40
1.0
  9
$DIMGAP
 40
0.09
  9
$LUNITS
 70
     2
  9
$LUPREC
 70
     4
  9
$SKETCHINC
 40
0.1
  9
$FILLETRAD
 40
0.0
  9
$AUNITS
 70
     0
  9
$AUPREC
 70
     0
  9
$MENU
  1
.
  9
$ELEVATION
 40
0.0
  9
$PELEVATION
 40
0.0
  9
$THICKNESS
 40
0.0
  9
$LIMCHECK
 70
     0
  9
$BLIPMODE
 70
     0
  9
$CHAMFERA
 40
0.0
  9
$CHAMFERB
 40
0.0
  9
$SKPOLY
 70
     0
  9
$TDCREATE
 40
2457350.6233507991
  9
$TDUPDATE
 40
2457415.7533413311
  9
$TDINDWG
 40
0.0761321296
  9
$TDUSRTIMER
 40
0.0761321296
  9
$USRTIMER
 70
     1
  9
$ANGBASE
 50
0.0
  9
$ANGDIR
 70
     0
  9
$PDMODE
 70
     0
  9
$PDSIZE
 40
0.3125
  9
$PLINEWID
 40
0.0
  9
$COORDS
 70
     0
  9
$SPLFRAME
 70
     0
  9
$SPLINETYPE
 70
     6
  9
$SPLINESEGS
 70
     8
  9
$ATTDIA
 70
     1
  9
$ATTREQ
 70
     1
  9
$HANDLING
 70
     1
  9
$HANDSEED
  5
EC5
  9
$SURFTAB1
 70
     6
  9
$SURFTAB2
 70
     6
  9
$SURFTYPE
 70
     6
  9
$SURFU
 70
     6
  9
$SURFV
 70
     6
  9
$UCSNAME
  2

  9
$UCSORG
 10
0.0
 20
0.0
 30
0.0
  9
$UCSXDIR
 10
1.0
 20
0.0
 30
0.0
  9
$UCSYDIR
 10
0.0
 20
1.0
 30
0.0
  9
$PUCSNAME
  2

  9
$PUCSORG
 10
0.0
 20
0.0
 30
0.0
  9
$PUCSXDIR
 10
1.0
 20
0.0
 30
0.0
  9
$PUCSYDIR
 10
0.0
 20
1.0
 30
0.0
  9
$USERI1
 70
     0
  9
$USERI2
 70
     0
  9
$USERI3
 70
     0
  9
$USERI4
 70
     0
  9
$USERI5
 70
     0
  9
$USERR1
 40
0.0
  9
$USERR2
 40
0.0
  9
$USERR3
 40
0.0
  9
$USERR4
 40
0.0
  9
$USERR5
 40
0.0
  9
$WORLDVIEW
 70
     1
  9
$SHADEDGE
 70
     3
  9
$SHADEDIF
 70
    70
  9
$TILEMODE
 70
     1
  9
$MAXACTVP
 70
    48
  9
$PLIMCHECK
 70
     0
  9
$PEXTMIN
 10
1.0000000000000000E+020
 20
1.0000000000000000E+020
 30
1.0000000000000000E+020
  9
$PEXTMAX
 10
-1.0000000000000000E+020
 20
-1.0000000000000000E+020
 30
-1.0000000000000000E+020
  9
$PLIMMIN
 10
0.0
 20
0.0
  9
$PLIMMAX
 10
12.0
 20
9.0
  9
$UNITMODE
 70
     0
  9
$VISRETAIN
 70
     1
  9
$PLINEGEN
 70
     0
  9
$PSLTSCALE
 70
     1
  0
ENDSEC
  0
SECTION
  2
TABLES
  0
TABLE
  2
VPORT
 70
     1
  0
VPORT
  2
*ACTIVE
 70
     0
 10
0.0
 20
0.0
 11
1.0
 21
1.0
 12
7.6863225528291279
 22
20.638063545796001
 13
0.0
 23
0.0
 14
1.0
 24
1.0
 15
0.0
 25
0.0
 16
0.0
 26
0.0
 36
1.0
 17
0.0
 27
0.0
 37
0.0
 40
11.682553556078791
 41
2.1244343891402711
 42
50.0
 43
0.0
 44
0.0
 50
0.0
 51
0.0
 71
     0
 72
   100
 73
     1
 74
     1
 75
     0
 76
     0
 77
     0
 78
     0
  0
ENDTAB
  0
TABLE
  2
LTYPE
 70
     1
  0
LTYPE
  2
CONTINUOUS
 70
     0
  3
Solid line
 72
    65
 73
     0
 40
0.0
  0
ENDTAB
  0
TABLE
  2
LAYER
 70
     2
  0
LAYER
  2
0
 70
     0
 62
     7
  6
CONTINUOUS
  0
LAYER
  2
DEFPOINTS
 70
     0
 62
     7
  6
CONTINUOUS
  0
ENDTAB
  0
TABLE
  2
STYLE
 70
     1
  0
STYLE
  2
STANDARD
 70
     0
 40
0.0
 41
0.8
 50
0.0
 71
     0
 42
0.2
  3
txt
  4

  0
ENDTAB
  0
TABLE
  2
VIEW
 70
     0
  0
ENDTAB
  0
TABLE
  2
UCS
 70
     0
  0
ENDTAB
  0
TABLE
  2
APPID
 70
     5
  0
APPID
  2
ACAD
 70
     0
  0
APPID
  2
ACAD_MLEADERVER
 70
     0
  0
APPID
  2
ACAD_NAV_VCDISPLAY
 70
     0
  0
APPID
  2
ACDBATTR
 70
     0
  0
APPID
  2
ACAD_EXEMPT_FROM_CAD_STANDARDS
 70
     0
  0
ENDTAB
  0
TABLE
  2
DIMSTYLE
 70
     1
  0
DIMSTYLE
  2
STANDARD
 70
     0
  3

  4

  5

  6

  7

 40
1.0
 41
0.1875
 42
0.0625
 43
0.38
 44
0.125
 45
0.0
 46
0.0
 47
1.5
 48
1.5
140
0.15625
141
0.09
142
0.0
143
25.399999999999999
144
1.0
145
0.0
146
1.0
147
0.09
 71
     0
 72
     0
 73
     1
 74
     1
 75
     0
 76
     0
 77
     0
 78
     4
170
     0
171
     2
172
     0
173
     0
174
     0
175
     0
176
     0
177
     0
178
     0
  0
ENDTAB
  0
ENDSEC
  0
SECTION
  2
BLOCKS
  0
BLOCK
  8
0
  2
$MODEL_SPACE
 70
     0
 10
0.0
 20
0.0
 30
0.0
  3
$MODEL_SPACE
  1

  0
ENDBLK
  5
21
  8
0
  0
BLOCK
 67
     1
  8
0
  2
$PAPER_SPACE
 70
     0
 10
0.0
 20
0.0
 30
0.0
  3
$PAPER_SPACE
  1

  0
ENDBLK
  5
1D
 67
     1
  8
0
  0
ENDSEC
  0
SECTION
  2
ENTITIES
  0
ARC
  5
4E0
  8
0
 10
4.9019261657999991
 20
19.1064561918
 30
0.0
 40
1.114017183299999
 50
193.7813545569
 51
166.21864544300001
  0
ARC
  5
4E1
  8
0
 10
4.9019261657999991
 20
19.1064561918
 30
0.0
 40
0.8190000000000001
 50
206.79010125639999
 51
153.21184935260001
  0
CIRCLE
  5
4E4
  8
0
 10
4.9019261657999991
 20
19.1064561918
 30
0.0
 40
0.3837557259
  0
CIRCLE
  5
4E8
  8
0
 10
4.9019261657999991
 20
19.1064561918
 30
0.0
 40
0.3073649242
  0
ARC
  5
67A
  8
0
 10
4.9019261657922684
 20
19.106456191743881
 30
0.0
 40
0.475000000007732
 50
209.4368362439009
 51
150.56398322266401
  0
LINE
  5
6B4
  8
0
 10
1.6029261658
 20
19.2080523843
 30
0.0
 11
1.6029261658
 21
19.0048398962
 31
0.0
  0
LINE
  5
6B6
  8
0
 10
1.7522547405
 20
18.866446140200001
 30
0.0
 11
1.7522547405
 21
19.346446140200001
 31
0.0
  0
LINE
  5
6B7
  8
0
 10
1.921838336
 20
19.4903961867
 30
0.0
 11
1.921838336
 21
18.7224960938
 31
0.0
  0
LINE
  5
6B8
  8
0
 10
1.994852877599999
 20
19.519747410400001
 30
0.0
 11
1.994852877599999
 21
18.693144870000001
 31
0.0
  0
LINE
  5
6B9
  8
0
 10
2.2044682621999989
 20
19.529740011200001
 30
0.0
 11
2.2044682621999989
 21
18.683152269200001
 31
0.0
  0
LINE
  5
6BA
  8
0
 10
2.3425729331
 20
19.474857399200001
 30
0.0
 11
2.3425729331
 21
18.738034881299999
 31
0.0
  0
LINE
  5
6BB
  8
0
 10
3.8673875648999991
 20
18.8446603073
 30
0.0
 11
3.8673875648999991
 21
19.3682288541
 31
0.0
  0
LINE
  5
6BC
  8
0
 10
3.9929261657999988
 20
19.366446140200001
 30
0.0
 11
3.9929261657999988
 21
18.846446140200001
 31
0.0
  0
LINE
  5
6BD
  8
0
 10
3.9929261657999988
 20
18.846446140200001
 30
0.0
 11
3.9929261657999988
 21
19.366446140200001
 31
0.0
  0
LINE
  5
6BE
  8
0
 10
1.7303728434000001
 20
18.866446140200001
 30
0.0
 11
1.7522547405
 21
18.866446140200001
 31
0.0
  0
LINE
  5
6BF
  8
0
 10
2.3425729331
 20
19.474857399200001
 30
0.0
 11
3.8673875648999991
 21
19.3682319732
 31
0.0
  0
LINE
  5
6C0
  8
0
 10
2.3425729331
 20
18.738034881299999
 30
0.0
 11
3.8673875648999991
 21
18.8446603073
 31
0.0
  0
LINE
  5
6C1
  8
0
 10
1.7303728434000001
 20
19.346446140200001
 30
0.0
 11
1.7522547405
 21
19.346446140200001
 31
0.0
  0
ARC
  5
6C2
  8
0
 10
2.1198528776000001
 20
18.736446140200002
 30
0.0
 40
0.1
 50
212.2042275037999
 51
327.79577249590011
  0
ARC
  5
6C3
  8
0
 10
2.2698528775999991
 20
18.736446140200002
 30
0.0
 40
0.05
 50
239.99999999999989
 51
339.25390789419993
  0
ARC
  5
6C4
  8
0
 10
1.9698528775999991
 20
18.736446140200002
 30
0.0
 40
0.05
 50
196.20058610169991
 51
300.0
  0
ARC
  5
6C5
  8
0
 10
2.3446656272999991
 20
18.7081079598
 30
0.0
 40
0.03
 50
93.999999999400004
 51
159.2539078949001
  0
ARC
  5
6C6
  8
0
 10
2.2298528775999991
 20
18.6671641079
 30
0.0
 40
0.03
 50
60.000000000100009
 51
147.79577249629989
  0
ARC
  5
6C7
  8
0
 10
2.0098528775999989
 20
18.6671641079
 30
0.0
 40
0.03
 50
32.204227504699922
 51
119.9999999998999
  0
ARC
  5
6C8
  8
0
 10
1.893029611
 20
18.7141260659
 30
0.0
 40
0.03
 50
16.200586101900068
 51
68.862237993099995
  0
ARC
  5
6C9
  8
0
 10
1.6329261658000001
 20
19.0048398962
 30
0.0
 40
0.03
 50
180.0
 51
252.53537689390001
  0
ARC
  5
6CA
  8
0
 10
1.7522547405
 20
18.8364461402
 30
0.0
 40
0.03
 50
26.2722680775999
 51
90.0
  0
ARC
  5
6CB
  8
0
 10
1.7303728434000001
 20
18.896446140199998
 30
0.0
 40
0.03
 50
189.70119473059989
 51
270.0
  0
ARC
  5
6CC
  8
0
 10
2.1198528776000001
 20
19.4764461402
 30
0.0
 40
0.1
 50
32.204227504099961
 51
147.79577249619999
  0
ARC
  5
6CD
  8
0
 10
2.2698528775999991
 20
19.4764461402
 30
0.0
 40
0.05
 50
20.74609210579991
 51
120.0
  0
ARC
  5
6CE
  8
0
 10
1.9698528775999991
 20
19.4764461402
 30
0.0
 40
0.05
 50
59.999999999999993
 51
163.7994138983
  0
ARC
  5
6CF
  8
0
 10
2.3446656272999991
 20
19.504784320700001
 30
0.0
 40
0.03
 50
200.7460921050999
 51
266.00000000059998
  0
ARC
  5
6D0
  8
0
 10
2.2298528775999991
 20
19.545728172499999
 30
0.0
 40
0.03
 50
212.20422750370011
 51
299.99999999990001
  0
ARC
  5
6D1
  8
0
 10
2.0098528775999989
 20
19.545728172499999
 30
0.0
 40
0.03
 50
240.00000000009999
 51
327.7957724952999
  0
ARC
  5
6D2
  8
0
 10
1.893029611
 20
19.4987662146
 30
0.0
 40
0.03
 50
291.1377620069
 51
343.79941389809989
  0
ARC
  5
6D3
  8
0
 10
1.6329261658000001
 20
19.2080523843
 30
0.0
 40
0.03
 50
107.46462310610001
 51
180.0
  0
ARC
  5
6D4
  8
0
 10
1.7522547405
 20
19.376446140199999
 30
0.0
 40
0.03
 50
270.0
 51
333.72773192239993
  0
ARC
  5
6D5
  8
0
 10
1.7303728434000001
 20
19.3164461402
 30
0.0
 40
0.03
 50
90.0
 51
170.29880526940011
  0
ARC
  5
6D6
  8
0
 10
3.942926165799999
 20
18.846446140200001
 30
0.0
 40
0.05
 50
203.35390567059989
 51
0.0
  0
ARC
  5
6D7
  8
0
 10
3.8694802591999999
 20
18.8147333858
 30
0.0
 40
0.03
 50
23.353905670799922
 51
93.999999999999986
  0
ARC
  5
6D8
  8
0
 10
3.942926165799999
 20
19.366446140200001
 30
0.0
 40
0.05
 50
0.0
 51
156.6460943293998
  0
ARC
  5
6D9
  8
0
 10
3.8694802591999999
 20
19.3981588947
 30
0.0
 40
0.03
 50
266.0
 51
336.64609432919991
  0
ARC
  5
6DA
  8
0
 10
1.598098211330546
 20
19.337824060965431
 30
0.0
 40
0.1039926167038533
 50
284.37869036610061
 51
350.96954517476303
  0
ARC
  5
6DB
  8
0
 10
1.9848679335448911
 20
19.250863530599041
 30
0.0
 40
0.2343705853481741
 50
110.22402752269259
 51
151.36875373887329
  0
ARC
  5
6DC
  8
0
 10
1.593311522432511
 20
18.871229443984099
 30
0.0
 40
0.1093647629049401
 50
10.623240402938331
 51
73.745796291899595
  0
ARC
  5
6DD
  8
0
 10
1.9845107932164969
 20
18.961614946154711
 30
0.0
 40
0.2338589117918777
 50
208.58418797385741
 51
249.82303076033941
  0
ARC
  5
6DE
  8
0
 10
4.169502650136355
 20
19.287488906626809
 30
0.0
 40
0.1934256951754812
 50
96.013836169059914
 51
155.90790772113931
  0
ARC
  5
6DF
  8
0
 10
4.1547977853604934
 20
19.452982923377458
 30
0.0
 40
0.027399112680386
 50
19.360412488351091
 51
101.706401486175
  0
ARC
  5
6E0
  8
0
 10
4.4313952304042701
 20
19.57307722218615
 30
0.0
 40
0.2741977725527457
 50
203.80876131780479
 51
265.252896725786
  0
ARC
  5
6E1
  8
0
 10
4.4157243299981941
 20
19.384368244139079
 30
0.0
 40
0.0848392356046915
 50
265.25289672578492
 51
330.28427230292192
  0
ARC
  5
6E4
  8
0
 10
4.1695001251303534
 20
18.92540352932868
 30
0.0
 40
0.1934256951754812
 50
204.09129317347691
 51
263.98536472555628
  0
ARC
  5
6E5
  8
0
 10
4.154792952207556
 20
18.759909717683168
 30
0.0
 40
0.027399112680386
 50
258.29279940844123
 51
340.63878840626512
  0
ARC
  5
6E6
  8
0
 10
4.4313887222668429
 20
18.63981156117606
 30
0.0
 40
0.2741977725527457
 50
94.74630416883025
 51
156.19043957681151
  0
ARC
  5
6E7
  8
0
 10
4.4157204537901853
 20
18.828520757767141
 30
0.0
 40
0.0848392356046915
 50
29.714928591694459
 51
94.746304168831344
  0
ARC
  5
BBC
  8
0
 10
12.90192616579227
 20
19.106456191743881
 30
0.0
 40
1.114017183299999
 50
13.7813545570001
 51
346.2186454431
  0
ARC
  5
BBD
  8
0
 10
12.90192616579227
 20
19.106456191743881
 30
0.0
 40
0.8190000000000001
 50
26.78815064740002
 51
333.20989874359992
  0
CIRCLE
  5
BBE
  8
0
 10
12.90192616579227
 20
19.106456191743881
 30
0.0
 40
0.3837557259
  0
CIRCLE
  5
BBF
  8
0
 10
12.90192616579227
 20
19.106456191743881
 30
0.0
 40
0.3073649242
  0
ARC
  5
BC0
  8
0
 10
12.901926165800001
 20
19.106456191687752
 30
0.0
 40
0.475000000007732
 50
29.436016777336029
 51
330.56316375609907
  0
LINE
  5
BC1
  8
0
 10
16.200926165792271
 20
19.208052384243882
 30
0.0
 11
16.200926165792271
 21
19.004839896143881
 31
0.0
  0
LINE
  5
BC2
  8
0
 10
16.051597591092271
 20
18.866446140143879
 30
0.0
 11
16.051597591092271
 21
19.346446140143879
 31
0.0
  0
LINE
  5
BC3
  8
0
 10
15.882013995592271
 20
19.490396186643881
 30
0.0
 11
15.882013995592271
 21
18.722496093743882
 31
0.0
  0
LINE
  5
BC4
  8
0
 10
15.80899945399227
 20
19.519747410343879
 30
0.0
 11
15.80899945399227
 21
18.693144869943879
 31
0.0
  0
LINE
  5
BC5
  8
0
 10
15.59938406939227
 20
19.529740011143879
 30
0.0
 11
15.59938406939227
 21
18.683152269143878
 31
0.0
  0
LINE
  5
BC6
  8
0
 10
15.46127939849227
 20
19.474857399143879
 30
0.0
 11
15.46127939849227
 21
18.73803488124387
 31
0.0
  0
LINE
  5
BC7
  8
0
 10
13.93646476669227
 20
18.844660307243881
 30
0.0
 11
13.93646476669227
 21
19.368228854043881
 31
0.0
  0
LINE
  5
BC8
  8
0
 10
13.81092616579226
 20
19.366446140143879
 30
0.0
 11
13.81092616579226
 21
18.846446140143879
 31
0.0
  0
LINE
  5
BC9
  8
0
 10
13.81092616579226
 20
18.846446140143879
 30
0.0
 11
13.81092616579226
 21
19.366446140143879
 31
0.0
  0
LINE
  5
BCA
  8
0
 10
16.07347948819227
 20
18.866446140143879
 30
0.0
 11
16.051597591092271
 21
18.866446140143879
 31
0.0
  0
LINE
  5
BCB
  8
0
 10
15.46127939849227
 20
19.474857399143879
 30
0.0
 11
13.93646476669227
 21
19.368231973143882
 31
0.0
  0
LINE
  5
BCC
  8
0
 10
15.46127939849227
 20
18.73803488124387
 30
0.0
 11
13.93646476669227
 21
18.844660307243881
 31
0.0
  0
LINE
  5
BCD
  8
0
 10
16.07347948819227
 20
19.346446140143879
 30
0.0
 11
16.051597591092271
 21
19.346446140143879
 31
0.0
  0
ARC
  5
BCE
  8
0
 10
15.683999453992261
 20
18.73644614014388
 30
0.0
 40
0.1
 50
212.20422750409989
 51
327.79577249620007
  0
ARC
  5
BCF
  8
0
 10
15.533999453992269
 20
18.73644614014388
 30
0.0
 40
0.05
 50
200.7460921058001
 51
300.0
  0
ARC
  5
BD0
  8
0
 10
15.833999453992259
 20
18.73644614014388
 30
0.0
 40
0.05
 50
240.0
 51
343.79941389829997
  0
ARC
  5
BD1
  8
0
 10
15.45918670429227
 20
18.708107959743881
 30
0.0
 40
0.03
 50
20.74609210509988
 51
86.000000000599954
  0
ARC
  5
BD2
  8
0
 10
15.57399945399227
 20
18.667164107843881
 30
0.0
 40
0.03
 50
32.204227503700082
 51
119.9999999998999
  0
ARC
  5
BD3
  8
0
 10
15.793999453992271
 20
18.667164107843881
 30
0.0
 40
0.03
 50
60.000000000100009
 51
147.7957724953001
  0
ARC
  5
BD4
  8
0
 10
15.910822720592259
 20
18.714126065843882
 30
0.0
 40
0.03
 50
111.1377620069
 51
163.79941389809991
  0
ARC
  5
BD5
  8
0
 10
16.17092616579227
 20
19.004839896143881
 30
0.0
 40
0.03
 50
287.46462310610002
 51
0.0
  0
ARC
  5
BD6
  8
0
 10
16.051597591092271
 20
18.836446140143881
 30
0.0
 40
0.03
 50
90.0
 51
153.7277319224001
  0
ARC
  5
BD7
  8
0
 10
16.07347948819227
 20
18.89644614014388
 30
0.0
 40
0.03
 50
270.0
 51
350.29880526940002
  0
ARC
  5
BD8
  8
0
 10
15.683999453992261
 20
19.476446140143882
 30
0.0
 40
0.1
 50
32.204227503799927
 51
147.79577249590011
  0
ARC
  5
BD9
  8
0
 10
15.533999453992269
 20
19.476446140143882
 30
0.0
 40
0.05
 50
60.0
 51
159.2539078942001
  0
ARC
  5
BDA
  8
0
 10
15.833999453992259
 20
19.476446140143882
 30
0.0
 40
0.05
 50
16.200586101699979
 51
120.0000000000001
  0
ARC
  5
BDB
  8
0
 10
15.45918670429227
 20
19.504784320643878
 30
0.0
 40
0.03
 50
273.99999999940002
 51
339.25390789490012
  0
ARC
  5
BDC
  8
0
 10
15.57399945399227
 20
19.54572817244388
 30
0.0
 40
0.03
 50
240.00000000009999
 51
327.79577249629989
  0
ARC
  5
BDD
  8
0
 10
15.793999453992271
 20
19.54572817244388
 30
0.0
 40
0.03
 50
212.2042275047001
 51
299.9999999998999
  0
ARC
  5
BDE
  8
0
 10
15.910822720592259
 20
19.498766214543881
 30
0.0
 40
0.03
 50
196.20058610190009
 51
248.8622379931
  0
ARC
  5
BDF
  8
0
 10
16.17092616579227
 20
19.208052384243882
 30
0.0
 40
0.03
 50
0.0
 51
72.535376893899993
  0
ARC
  5
BE0
  8
0
 10
16.051597591092271
 20
19.37644614014388
 30
0.0
 40
0.03
 50
206.2722680776001
 51
270.0
  0
ARC
  5
BE1
  8
0
 10
16.07347948819227
 20
19.316446140143881
 30
0.0
 40
0.03
 50
9.7011947305999104
 51
90.0
  0
ARC
  5
BE2
  8
0
 10
13.86092616579227
 20
18.846446140143879
 30
0.0
 40
0.05
 50
180.0
 51
336.64609432940011
  0
ARC
  5
BE3
  8
0
 10
13.93437207239227
 20
18.814733385743871
 30
0.0
 40
0.03
 50
86.000000000000028
 51
156.64609432920011
  0
ARC
  5
BE4
  8
0
 10
13.86092616579227
 20
19.366446140143879
 30
0.0
 40
0.05
 50
23.35390567060012
 51
180.0
  0
ARC
  5
BE5
  8
0
 10
13.93437207239227
 20
19.398158894643881
 30
0.0
 40
0.03
 50
203.35390567080009
 51
274.00000000000011
  0
ARC
  5
BE6
  8
0
 10
16.205754120261719
 20
19.337824060909309
 30
0.0
 40
0.1039926167038533
 50
189.03045482523689
 51
255.6213096338995
  0
ARC
  5
BE7
  8
0
 10
15.81898439804738
 20
19.250863530542919
 30
0.0
 40
0.2343705853481741
 50
28.63124626112668
 51
69.77597247730732
  0
ARC
  5
BE8
  8
0
 10
16.210540809159749
 20
18.87122944392798
 30
0.0
 40
0.1093647629049401
 50
106.25420370810041
 51
169.37675959706161
  0
ARC
  5
BE9
  8
0
 10
15.81934153837577
 20
18.961614946098582
 30
0.0
 40
0.2338589117918777
 50
290.17696923966059
 51
331.41581202614248
  0
ARC
  5
BEA
  8
0
 10
13.634349681455911
 20
19.28748890657069
 30
0.0
 40
0.1934256951754812
 50
24.092092278860669
 51
83.986163830940058
  0
ARC
  5
BEB
  8
0
 10
13.649054546231771
 20
19.452982923321329
 30
0.0
 40
0.027399112680386
 50
78.293598513824975
 51
160.6395875116489
  0
ARC
  5
BEC
  8
0
 10
13.372457101187999
 20
19.573077222130031
 30
0.0
 40
0.2741977725527457
 50
274.747103274214
 51
336.19123868219521
  0
ARC
  5
BED
  8
0
 10
13.388128001594071
 20
19.38436824408295
 30
0.0
 40
0.0848392356046915
 50
209.71572769707819
 51
274.74710327421508
  0
ARC
  5
BEE
  8
0
 10
13.63435220646191
 20
18.92540352927255
 30
0.0
 40
0.1934256951754812
 50
276.01463527444372
 51
335.90870682652309
  0
ARC
  5
BEF
  8
0
 10
13.64905937938471
 20
18.75990971762705
 30
0.0
 40
0.027399112680386
 50
199.36121159373491
 51
281.70720059155872
  0
ARC
  5
BF0
  8
0
 10
13.37246360932542
 20
18.639811561119942
 30
0.0
 40
0.2741977725527457
 50
23.809560423188518
 51
85.253695831169793
  0
ARC
  5
BF1
  8
0
 10
13.388131877802079
 20
18.828520757711011
 30
0.0
 40
0.0848392356046915
 50
85.253695831168656
 51
150.2850714083055
  0
ATTDEF
  5
CFD
  8
DEFPOINTS
 10
8.8965442982587177
 20
19.093229600160601
 30
0.0
 40
0.001
  1
METAL
  3

  2
MATERIAL
 70
     0
1001
ACDBATTR
1070
     0
1070
     1
  0
ATTDEF
  5
CFE
  8
DEFPOINTS
 10
8.8965442982587177
 20
19.09489626682727
 30
0.0
 40
0.001
  1
BATHROOM SINK FAUCET HANDLES
  3

  2
PRODUCT
 70
     0
1001
ACDBATTR
1070
     0
1070
     1
  0
ATTDEF
  5
CFF
  8
DEFPOINTS
 10
8.8965442982587177
 20
19.096562933493939
 30
0.0
 40
0.001
  1
ARTIFACTS
  3

  2
TRADENAME
 70
     0
1001
ACDBATTR
1070
     0
1070
     1
  0
ATTDEF
  5
D00
  8
DEFPOINTS
 10
8.8965442982587177
 20
19.0982296001606
 30
0.0
 40
0.001
  1
K-98068-4
  3

  2
MODELNUMBER
 70
     0
1001
ACDBATTR
1070
     0
1070
     1
  0
ENDSEC
  0
EOF
