  0
SECTION
  2
HEADER
  9
$ACADVER
  1
AC1009
  9
$INSBASE
 10
8.9019261658499982
 20
12.8288728487
 30
0.0
  9
$EXTMIN
 10
1.6029261658
 20
12.81874538734828
 30
0.0
  9
$EXTMAX
 10
16.2009261659
 20
16.45589247880115
 30
0.0
  9
$LIMMIN
 10
0.0
 20
0.0
  9
$LIMMAX
 10
33.110236220499999
 20
23.3858267717
  9
$ORTHOMODE
 70
     1
  9
$REGENMODE
 70
     1
  9
$FILLMODE
 70
     1
  9
$QTEXTMODE
 70
     0
  9
$MIRRTEXT
 70
     0
  9
$DRAGMODE
 70
     2
  9
$LTSCALE
 40
1.8210629921000001
  9
$OSMODE
 70
    47
  9
$ATTMODE
 70
     1
  9
$TEXTSIZE
 40
0.2
  9
$TRACEWID
 40
0.05
  9
$TEXTSTYLE
  7
STANDARD
  9
$CLAYER
  8
0
  9
$CELTYPE
  6
BYLAYER
  9
$CECOLOR
 62
   256
  9
$DIMSCALE
 40
1.0
  9
$DIMASZ
 40
0.1875
  9
$DIMEXO
 40
0.0625
  9
$DIMDLI
 40
1.2581889764
  9
$DIMRND
 40
0.0
  9
$DIMDLE
 40
0.0
  9
$DIMEXE
 40
0.125
  9
$DIMTP
 40
0.0
  9
$DIMTM
 40
0.0
  9
$DIMTXT
 40
0.15625
  9
$DIMCEN
 40
0.297992126
  9
$DIMTSZ
 40
0.0
  9
$DIMTOL
 70
     0
  9
$DIMLIM
 70
     0
  9
$DIMTIH
 70
     1
  9
$DIMTOH
 70
     1
  9
$DIMSE1
 70
     0
  9
$DIMSE2
 70
     0
  9
$DIMTAD
 70
     0
  9
$DIMZIN
 70
     0
  9
$DIMBLK
  1

  9
$DIMASO
 70
     1
  9
$DIMSHO
 70
     1
  9
$DIMPOST
  1

  9
$DIMAPOST
  1

  9
$DIMALT
 70
     0
  9
$DIMALTD
 70
     2
  9
$DIMALTF
 40
25.399999999999999
  9
$DIMLFAC
 40
1.0
  9
$DIMTOFL
 70
     0
  9
$DIMTVP
 40
0.0
  9
$DIMTIX
 70
     0
  9
$DIMSOXD
 70
     0
  9
$DIMSAH
 70
     0
  9
$DIMBLK1
  1

  9
$DIMBLK2
  1

  9
$DIMSTYLE
  2
STANDARD
  9
$DIMCLRD
 70
     0
  9
$DIMCLRE
 70
     0
  9
$DIMCLRT
 70
     0
  9
$DIMTFAC
 40
1.0
  9
$DIMGAP
 40
0.09
  9
$LUNITS
 70
     2
  9
$LUPREC
 70
     4
  9
$SKETCHINC
 40
0.1
  9
$FILLETRAD
 40
0.0
  9
$AUNITS
 70
     0
  9
$AUPREC
 70
     0
  9
$MENU
  1
.
  9
$ELEVATION
 40
0.0
  9
$PELEVATION
 40
0.0
  9
$THICKNESS
 40
0.0
  9
$LIMCHECK
 70
     0
  9
$BLIPMODE
 70
     0
  9
$CHAMFERA
 40
0.0
  9
$CHAMFERB
 40
0.0
  9
$SKPOLY
 70
     0
  9
$TDCREATE
 40
2457350.6233507991
  9
$TDUPDATE
 40
2457415.7530252198
  9
$TDINDWG
 40
0.0722740394
  9
$TDUSRTIMER
 40
0.0722740394
  9
$USRTIMER
 70
     1
  9
$ANGBASE
 50
0.0
  9
$ANGDIR
 70
     0
  9
$PDMODE
 70
     0
  9
$PDSIZE
 40
0.3125
  9
$PLINEWID
 40
0.0
  9
$COORDS
 70
     0
  9
$SPLFRAME
 70
     0
  9
$SPLINETYPE
 70
     6
  9
$SPLINESEGS
 70
     8
  9
$ATTDIA
 70
     1
  9
$ATTREQ
 70
     1
  9
$HANDLING
 70
     1
  9
$HANDSEED
  5
114C
  9
$SURFTAB1
 70
     6
  9
$SURFTAB2
 70
     6
  9
$SURFTYPE
 70
     6
  9
$SURFU
 70
     6
  9
$SURFV
 70
     6
  9
$UCSNAME
  2

  9
$UCSORG
 10
0.0
 20
0.0
 30
0.0
  9
$UCSXDIR
 10
1.0
 20
0.0
 30
0.0
  9
$UCSYDIR
 10
0.0
 20
1.0
 30
0.0
  9
$PUCSNAME
  2

  9
$PUCSORG
 10
0.0
 20
0.0
 30
0.0
  9
$PUCSXDIR
 10
1.0
 20
0.0
 30
0.0
  9
$PUCSYDIR
 10
0.0
 20
1.0
 30
0.0
  9
$USERI1
 70
     0
  9
$USERI2
 70
     0
  9
$USERI3
 70
     0
  9
$USERI4
 70
     0
  9
$USERI5
 70
     0
  9
$USERR1
 40
0.0
  9
$USERR2
 40
0.0
  9
$USERR3
 40
0.0
  9
$USERR4
 40
0.0
  9
$USERR5
 40
0.0
  9
$WORLDVIEW
 70
     1
  9
$SHADEDGE
 70
     3
  9
$SHADEDIF
 70
    70
  9
$TILEMODE
 70
     1
  9
$MAXACTVP
 70
    48
  9
$PLIMCHECK
 70
     0
  9
$PEXTMIN
 10
1.0000000000000000E+020
 20
1.0000000000000000E+020
 30
1.0000000000000000E+020
  9
$PEXTMAX
 10
-1.0000000000000000E+020
 20
-1.0000000000000000E+020
 30
-1.0000000000000000E+020
  9
$PLIMMIN
 10
0.0
 20
0.0
  9
$PLIMMAX
 10
12.0
 20
9.0
  9
$UNITMODE
 70
     0
  9
$VISRETAIN
 70
     1
  9
$PLINEGEN
 70
     0
  9
$PSLTSCALE
 70
     1
  0
ENDSEC
  0
SECTION
  2
TABLES
  0
TABLE
  2
VPORT
 70
     1
  0
VPORT
  2
*ACTIVE
 70
     0
 10
0.0
 20
0.0
 11
1.0
 21
1.0
 12
22.537161010301119
 22
16.6738158462862
 13
0.0
 23
0.0
 14
1.0
 24
1.0
 15
0.0
 25
0.0
 16
0.0
 26
0.0
 36
1.0
 17
0.0
 27
0.0
 37
0.0
 40
31.529170606399148
 41
2.1244343891402711
 42
50.0
 43
0.0
 44
0.0
 50
0.0
 51
0.0
 71
     0
 72
   100
 73
     1
 74
     1
 75
     0
 76
     0
 77
     0
 78
     0
  0
ENDTAB
  0
TABLE
  2
LTYPE
 70
     1
  0
LTYPE
  2
CONTINUOUS
 70
     0
  3
Solid line
 72
    65
 73
     0
 40
0.0
  0
ENDTAB
  0
TABLE
  2
LAYER
 70
     2
  0
LAYER
  2
0
 70
     0
 62
     7
  6
CONTINUOUS
  0
LAYER
  2
DEFPOINTS
 70
     0
 62
     7
  6
CONTINUOUS
  0
ENDTAB
  0
TABLE
  2
STYLE
 70
     1
  0
STYLE
  2
STANDARD
 70
     0
 40
0.0
 41
0.8
 50
0.0
 71
     0
 42
0.2
  3
txt
  4

  0
ENDTAB
  0
TABLE
  2
VIEW
 70
     0
  0
ENDTAB
  0
TABLE
  2
UCS
 70
     0
  0
ENDTAB
  0
TABLE
  2
APPID
 70
     5
  0
APPID
  2
ACAD
 70
     0
  0
APPID
  2
ACAD_MLEADERVER
 70
     0
  0
APPID
  2
ACAD_NAV_VCDISPLAY
 70
     0
  0
APPID
  2
ACAD_EXEMPT_FROM_CAD_STANDARDS
 70
     0
  0
APPID
  2
ACDBATTR
 70
     0
  0
ENDTAB
  0
TABLE
  2
DIMSTYLE
 70
     1
  0
DIMSTYLE
  2
STANDARD
 70
     0
  3

  4

  5

  6

  7

 40
1.0
 41
0.1875
 42
0.0625
 43
0.38
 44
0.125
 45
0.0
 46
0.0
 47
1.5
 48
1.5
140
0.15625
141
0.09
142
0.0
143
25.399999999999999
144
1.0
145
0.0
146
1.0
147
0.09
 71
     0
 72
     0
 73
     1
 74
     1
 75
     0
 76
     0
 77
     0
 78
     4
170
     0
171
     2
172
     0
173
     0
174
     0
175
     0
176
     0
177
     0
178
     0
  0
ENDTAB
  0
ENDSEC
  0
SECTION
  2
BLOCKS
  0
BLOCK
  8
0
  2
$MODEL_SPACE
 70
     0
 10
0.0
 20
0.0
 30
0.0
  3
$MODEL_SPACE
  1

  0
ENDBLK
  5
21
  8
0
  0
BLOCK
 67
     1
  8
0
  2
$PAPER_SPACE
 70
     0
 10
0.0
 20
0.0
 30
0.0
  3
$PAPER_SPACE
  1

  0
ENDBLK
  5
1D
 67
     1
  8
0
  0
ENDSEC
  0
SECTION
  2
ENTITIES
  0
LINE
  5
230
  8
0
 10
1.6029261658
 20
15.855991616500001
 30
0.0
 11
1.6029261658
 21
15.652779128400001
 31
0.0
  0
LINE
  5
234
  8
0
 10
1.7522547405
 20
15.5143853724
 30
0.0
 11
1.7522547405
 21
15.9943853724
 31
0.0
  0
LINE
  5
237
  8
0
 10
1.921838336
 20
16.138335418899999
 30
0.0
 11
1.921838336
 21
15.370435326000001
 31
0.0
  0
LINE
  5
238
  8
0
 10
1.994852877599999
 20
16.1676866426
 30
0.0
 11
1.994852877599999
 21
15.3410841022
 31
0.0
  0
LINE
  5
23C
  8
0
 10
2.2044682621999989
 20
16.1776792434
 30
0.0
 11
2.2044682621999989
 21
15.3310915014
 31
0.0
  0
LINE
  5
23F
  8
0
 10
2.3425729331
 20
16.1227966314
 30
0.0
 11
2.3425729331
 21
15.3859741135
 31
0.0
  0
LINE
  5
24C
  8
0
 10
3.8673875648999991
 20
15.4925995395
 30
0.0
 11
3.8673875648999991
 21
16.016168086299999
 31
0.0
  0
LINE
  5
24E
  8
0
 10
3.9929261657999988
 20
16.0143853724
 30
0.0
 11
3.9929261657999988
 21
15.4943853724
 31
0.0
  0
LINE
  5
24F
  8
0
 10
3.9929261657999988
 20
15.4943853724
 30
0.0
 11
3.9929261657999988
 21
16.0143853724
 31
0.0
  0
LINE
  5
251
  8
0
 10
4.3076071485999989
 20
13.17159678
 30
0.0
 11
4.314326756399999
 21
13.1984752109
 31
0.0
  0
LINE
  5
25C
  8
0
 10
4.0829261658
 20
13.2914173766
 30
0.0
 11
4.0829261658
 21
13.228475210899999
 31
0.0
  0
LINE
  5
266
  8
0
 10
4.5229261657999986
 20
13.736493101900001
 30
0.0
 11
4.5229261657999986
 21
13.726248957899999
 31
0.0
  0
LINE
  5
267
  8
0
 10
4.5769261657999989
 20
15.38290186
 30
0.0
 11
4.5769261657999989
 21
15.1579752109
 31
0.0
  0
LINE
  5
268
  8
0
 10
4.6180796001999989
 20
16.341975210899999
 30
0.0
 11
4.6180796001999989
 21
16.343975210899998
 31
0.0
  0
LINE
  5
271
  8
0
 10
4.6519261657999991
 20
14.1406044573
 30
0.0
 11
4.6519261657999991
 21
15.069234014199999
 31
0.0
  0
LINE
  5
276
  8
0
 10
5.1519261657999991
 20
14.1406044573
 30
0.0
 11
5.1519261657999991
 21
15.069234014199999
 31
0.0
  0
LINE
  5
278
  8
0
 10
5.1857727313999993
 20
16.341975210899999
 30
0.0
 11
5.1857727313999993
 21
16.343975210899998
 31
0.0
  0
LINE
  5
279
  8
0
 10
5.2269261658000001
 20
15.38290186
 30
0.0
 11
5.2269261658000001
 21
15.1579752109
 31
0.0
  0
LINE
  5
27A
  8
0
 10
5.2809261657999986
 20
13.736493101900001
 30
0.0
 11
5.2809261657999986
 21
13.726248957899999
 31
0.0
  0
LINE
  5
27D
  8
0
 10
5.7209261657999999
 20
13.2914173766
 30
0.0
 11
5.7209261657999999
 21
13.228475210899999
 31
0.0
  0
LINE
  5
284
  8
0
 10
5.4962451829999992
 20
13.17159678
 30
0.0
 11
5.4895255753000001
 21
13.1984752109
 31
0.0
  0
LINE
  5
2A9
  8
0
 10
3.8172941592999998
 20
12.8288728487
 30
0.0
 11
5.9865581723999988
 21
12.8288728487
 31
0.0
  0
LINE
  5
2AE
  8
0
 10
5.6269261657999996
 20
13.1488728487
 30
0.0
 11
4.1769261657999994
 21
13.1488728487
 31
0.0
  0
LINE
  5
2B1
  8
0
 10
4.1129299858000001
 20
13.1984752109
 30
0.0
 11
5.6909223457999998
 21
13.1984752109
 31
0.0
  0
LINE
  5
2BF
  8
0
 10
4.4816957408000002
 20
13.669260335800001
 30
0.0
 11
5.3221565907999988
 21
13.669260335800001
 31
0.0
  0
LINE
  5
2C6
  8
0
 10
5.2575438128999989
 20
13.7657541126
 30
0.0
 11
4.5463085188000001
 21
13.7657541126
 31
0.0
  0
LINE
  5
2D5
  8
0
 10
4.6032043612999987
 20
14.081673970200001
 30
0.0
 11
5.2006479702999986
 21
14.081673970200001
 31
0.0
  0
LINE
  5
300
  8
0
 10
4.6019261658000001
 20
15.128394812
 30
0.0
 11
5.2019261657999989
 21
15.128394812
 31
0.0
  0
LINE
  5
308
  8
0
 10
1.7303728434000001
 20
15.5143853724
 30
0.0
 11
1.7522547405
 21
15.5143853724
 31
0.0
  0
LINE
  5
309
  8
0
 10
2.3425729331
 20
16.1227966314
 30
0.0
 11
3.8673875648999991
 21
16.016171205399999
 31
0.0
  0
LINE
  5
30B
  8
0
 10
2.3425729331
 20
15.3859741135
 30
0.0
 11
3.8673875648999991
 21
15.4925995395
 31
0.0
  0
LINE
  5
313
  8
0
 10
1.7303728434000001
 20
15.9943853724
 30
0.0
 11
1.7522547405
 21
15.9943853724
 31
0.0
  0
LINE
  5
317
  8
0
 10
5.2601243915999998
 20
16.086234847699998
 30
0.0
 11
4.5437279401000001
 21
16.086234847699998
 31
0.0
  0
LINE
  5
318
  8
0
 10
4.5875203278000001
 20
16.205421615500001
 30
0.0
 11
5.216332003899999
 21
16.205421615500001
 31
0.0
  0
LINE
  5
31F
  8
0
 10
5.2092910899999989
 20
16.3369752109
 30
0.0
 11
4.5945612416000001
 21
16.3369752109
 31
0.0
  0
ARC
  5
451
  8
0
 10
4.5229261657999986
 20
13.869143017100001
 30
0.0
 40
0.106
 50
282.74358522220001
 51
71.861156664299997
  0
ARC
  5
452
  8
0
 10
5.2809261657999986
 20
13.869143017100001
 30
0.0
 40
0.106
 50
108.1388433357
 51
257.25641477779999
  0
ARC
  5
453
  8
0
 10
5.1869261658000001
 20
14.0099752109
 30
0.0
 40
0.073
 50
326.68008062910002
 51
79.165665021700008
  0
ARC
  5
454
  8
0
 10
4.6169261657999989
 20
14.0099752109
 30
0.0
 40
0.073
 50
100.83433497830001
 51
213.31991937090001
  0
ARC
  5
455
  8
0
 10
5.2119261657999987
 20
14.1406044573
 30
0.0
 40
0.06
 50
180.0
 51
259.16566502149999
  0
ARC
  5
456
  8
0
 10
4.5919261657999986
 20
14.1406044573
 30
0.0
 40
0.06
 50
280.83433497850001
 51
360.0
  0
ARC
  5
457
  8
0
 10
5.3409261658
 20
13.726248957899999
 30
0.0
 40
0.06
 50
180.0
 51
251.77036373670001
  0
ARC
  5
458
  8
0
 10
4.462926165799999
 20
13.726248957899999
 30
0.0
 40
0.06
 50
288.22963626329999
 51
360.0
  0
ARC
  5
459
  8
0
 10
5.5253494579999991
 20
13.178872848699999
 30
0.0
 40
0.03
 50
194.03624346800001
 51
270.0
  0
ARC
  5
45A
  8
0
 10
4.278502873599999
 20
13.178872848699999
 30
0.0
 40
0.03
 50
270.0
 51
345.96375653199999
  0
ARC
  5
45B
  8
0
 10
5.2509261658000002
 20
13.736493101900001
 30
0.0
 40
0.03
 50
0.0
 51
77.256414777900005
  0
ARC
  5
45C
  8
0
 10
4.5529261657999989
 20
13.736493101900001
 30
0.0
 40
0.03
 50
102.74358522209999
 51
180.0
  0
ARC
  5
45D
  8
0
 10
5.6909261657999997
 20
13.2914173766
 30
0.0
 40
0.03
 50
0.0
 51
82.316753385300004
  0
ARC
  5
45E
  8
0
 10
4.1129261658000003
 20
13.2914173766
 30
0.0
 40
0.03
 50
97.683246614699996
 51
180.0
  0
ARC
  5
45F
  8
0
 10
4.1129261658000003
 20
13.228475210899999
 30
0.0
 40
0.03
 50
180.0
 51
270.0
  0
ARC
  5
460
  8
0
 10
5.6909261657999997
 20
13.228475210899999
 30
0.0
 40
0.03
 50
270.0
 51
360.0
  0
ARC
  5
461
  8
0
 10
2.1198528776000001
 20
15.384385372400001
 30
0.0
 40
0.1
 50
212.20422750380001
 51
327.7957724959
  0
ARC
  5
462
  8
0
 10
2.2698528775999991
 20
15.384385372400001
 30
0.0
 40
0.05
 50
240.0
 51
339.25390789419998
  0
ARC
  5
463
  8
0
 10
1.9698528775999991
 20
15.384385372400001
 30
0.0
 40
0.05
 50
196.20058610169991
 51
300.0
  0
ARC
  5
464
  8
0
 10
2.3446656272999991
 20
15.356047192
 30
0.0
 40
0.03
 50
93.999999999400004
 51
159.25390789490001
  0
ARC
  5
465
  8
0
 10
2.2298528775999991
 20
15.3151033401
 30
0.0
 40
0.03
 50
60.000000000100002
 51
147.7957724963
  0
ARC
  5
466
  8
0
 10
2.0098528775999989
 20
15.3151033401
 30
0.0
 40
0.03
 50
32.2042275047
 51
119.9999999999
  0
ARC
  5
467
  8
0
 10
1.893029611
 20
15.362065298099999
 30
0.0
 40
0.03
 50
16.200586101900001
 51
68.86223799310001
  0
ARC
  5
468
  8
0
 10
1.6329261658000001
 20
15.652779128400001
 30
0.0
 40
0.03
 50
180.0
 51
252.53537689390001
  0
ARC
  5
469
  8
0
 10
1.7522547405
 20
15.4843853724
 30
0.0
 40
0.03
 50
26.2722680776
 51
90.0
  0
ARC
  5
46A
  8
0
 10
1.7303728434000001
 20
15.544385372400001
 30
0.0
 40
0.03
 50
189.70119473060001
 51
270.0
  0
ARC
  5
46B
  8
0
 10
2.1198528776000001
 20
16.124385372399999
 30
0.0
 40
0.1
 50
32.204227504099997
 51
147.79577249619999
  0
ARC
  5
46C
  8
0
 10
2.2698528775999991
 20
16.124385372399999
 30
0.0
 40
0.05
 50
20.746092105799999
 51
120.0
  0
ARC
  5
46D
  8
0
 10
1.9698528775999991
 20
16.124385372399999
 30
0.0
 40
0.05
 50
60.0
 51
163.7994138983
  0
ARC
  5
46E
  8
0
 10
2.3446656272999991
 20
16.1527235529
 30
0.0
 40
0.03
 50
200.74609210509999
 51
266.00000000059998
  0
ARC
  5
46F
  8
0
 10
2.2298528775999991
 20
16.193667404700001
 30
0.0
 40
0.03
 50
212.2042275037
 51
299.99999999990001
  0
ARC
  5
470
  8
0
 10
2.0098528775999989
 20
16.193667404700001
 30
0.0
 40
0.03
 50
240.00000000009999
 51
327.79577249530001
  0
ARC
  5
471
  8
0
 10
1.893029611
 20
16.146705446799999
 30
0.0
 40
0.03
 50
291.1377620069
 51
343.7994138981
  0
ARC
  5
472
  8
0
 10
1.6329261658000001
 20
15.855991616500001
 30
0.0
 40
0.03
 50
107.46462310610001
 51
180.0
  0
ARC
  5
473
  8
0
 10
1.7522547405
 20
16.024385372400001
 30
0.0
 40
0.03
 50
270.0
 51
333.72773192239998
  0
ARC
  5
474
  8
0
 10
1.7303728434000001
 20
15.964385372400001
 30
0.0
 40
0.03
 50
90.0
 51
170.29880526939999
  0
ARC
  5
476
  8
0
 10
4.5169261658000002
 20
15.38290186
 30
0.0
 40
0.06
 50
0.0
 51
43.976375185199998
  0
ARC
  5
477
  8
0
 10
5.2869261657999989
 20
15.38290186
 30
0.0
 40
0.06
 50
136.0236248148
 51
180.0
  0
ARC
  5
478
  8
0
 10
4.5919261657999986
 20
15.069234014199999
 30
0.0
 40
0.06
 50
0.0
 51
80.405931773099994
  0
ARC
  5
479
  8
0
 10
5.2119261657999987
 20
15.069234014199999
 30
0.0
 40
0.06
 50
99.594068226900006
 51
180.0
  0
ARC
  5
47A
  8
0
 10
3.942926165799999
 20
15.4943853724
 30
0.0
 40
0.05
 50
203.3539056706
 51
360.0
  0
ARC
  5
47B
  8
0
 10
3.8694802591999999
 20
15.462672617999999
 30
0.0
 40
0.03
 50
23.3539056708
 51
94.0
  0
ARC
  5
47C
  8
0
 10
5.196926165799999
 20
15.1579752109
 30
0.0
 40
0.03
 50
279.59406822689999
 51
360.0
  0
ARC
  5
47D
  8
0
 10
4.6069261658
 20
15.1579752109
 30
0.0
 40
0.03
 50
180.0
 51
260.40593177310001
  0
ARC
  5
47E
  8
0
 10
4.9019261657999991
 20
15.7543853724
 30
0.0
 40
0.475
 50
316.02362481479997
 51
28.6105597038
  0
ARC
  5
47F
  8
0
 10
4.9019261657999991
 20
15.7543853724
 30
0.0
 40
0.475
 50
209.4368362475
 51
223.9763751852
  0
ARC
  5
480
  8
0
 10
4.6732654318999991
 20
16.271947946400001
 30
0.0
 40
0.1161467285
 50
156.00856625559999
 51
205.94664403740001
  0
ARC
  5
482
  8
0
 10
3.942926165799999
 20
16.0143853724
 30
0.0
 40
0.05
 50
0.0
 51
156.6460943294
  0
ARC
  5
483
  8
0
 10
3.8694802591999999
 20
16.046098126899999
 30
0.0
 40
0.03
 50
266.0
 51
336.64609432920003
  0
ARC
  5
486
  8
0
 10
4.5945612416000001
 20
16.306975210899999
 30
0.0
 40
0.03
 50
90.0
 51
156.00856625559999
  0
ARC
  5
487
  8
0
 10
4.5958021313000001
 20
16.234255826599998
 30
0.0
 40
0.03
 50
205.94664403740001
 51
253.974799706
  0
ARC
  5
488
  8
0
 10
5.1787727313999987
 20
16.343975210899998
 30
0.0
 40
0.007
 50
0.0
 51
35.87872614030001
  0
ARC
  5
489
  8
0
 10
4.6250796001999994
 20
16.343975210899998
 30
0.0
 40
0.007
 50
144.12127385970001
 51
180.0
  0
ARC
  5
48A
  8
0
 10
5.1807727313999994
 20
16.341975210899999
 30
0.0
 40
0.005
 50
270.0
 51
0.0
  0
ARC
  5
48B
  8
0
 10
4.6230796001999988
 20
16.341975210899999
 30
0.0
 40
0.005
 50
180.0
 51
270.0
  0
ARC
  5
67A
  8
0
 10
1.598098211330546
 20
15.98576329316543
 30
0.0
 40
0.1039926167038533
 50
284.37869036610061
 51
350.96954517476308
  0
ARC
  5
67B
  8
0
 10
1.9848679335448911
 20
15.89880276279904
 30
0.0
 40
0.2343705853481741
 50
110.22402752269269
 51
151.36875373887329
  0
ARC
  5
67C
  8
0
 10
1.593311522432511
 20
15.519168676184099
 30
0.0
 40
0.1093647629049401
 50
10.62324040293832
 51
73.745796291899609
  0
ARC
  5
67D
  8
0
 10
1.9845107932164969
 20
15.609554178354699
 30
0.0
 40
0.2338589117918777
 50
208.58418797385741
 51
249.82303076033941
  0
ARC
  5
67E
  8
0
 10
4.169502650136355
 20
15.93542813882681
 30
0.0
 40
0.1934256951754812
 50
96.013836169059914
 51
155.9079077211394
  0
ARC
  5
67F
  8
0
 10
4.1547977853604934
 20
16.10092215557745
 30
0.0
 40
0.027399112680386
 50
19.36041248835113
 51
101.706401486175
  0
ARC
  5
680
  8
0
 10
4.4313952304042701
 20
16.221016454386149
 30
0.0
 40
0.2741977725527457
 50
203.80876131780479
 51
265.252896725786
  0
ARC
  5
681
  8
0
 10
4.4157243299981941
 20
16.032307476339081
 30
0.0
 40
0.0848392356046915
 50
265.25289672578492
 51
330.28427230292192
  0
ARC
  5
682
  8
0
 10
4.2491721717638402
 20
16.127367752532798
 30
0.0
 40
0.2766101341335056
 50
330.28427230292209
 51
346.5353643660261
  0
ARC
  5
683
  8
0
 10
4.5434273165513588
 20
16.060905150783402
 30
0.0
 40
0.0253314808174426
 50
89.320021398531225
 51
175.3461818790129
  0
ARC
  5
68B
  8
0
 10
4.540592455771634
 20
16.167635395550558
 30
0.0
 40
0.0814609136478673
 50
272.20589728014482
 51
342.5362947194551
  0
ARC
  5
68C
  8
0
 10
4.5673937729817187
 20
16.156740333594161
 30
0.0
 40
0.052677750681374
 50
345.09289676373868
 51
67.538076996248193
  0
ARC
  5
68D
  8
0
 10
4.1695001251303534
 20
15.57334276152868
 30
0.0
 40
0.1934256951754812
 50
204.09129317347691
 51
263.98536472555628
  0
ARC
  5
68E
  8
0
 10
4.154792952207556
 20
15.407848949883171
 30
0.0
 40
0.027399112680386
 50
258.29279940844123
 51
340.63878840626512
  0
ARC
  5
68F
  8
0
 10
4.4313887222668429
 20
15.287750793376061
 30
0.0
 40
0.2741977725527457
 50
94.746304168830278
 51
156.19043957681151
  0
ARC
  5
690
  8
0
 10
4.4157204537901853
 20
15.476459989967131
 30
0.0
 40
0.0848392356046915
 50
29.71492859169442
 51
94.746304168831344
  0
ARC
  5
691
  8
0
 10
4.8274887235761108
 20
16.179883623118648
 30
0.0
 40
0.2675573366933992
 50
102.49552706322361
 51
141.05101354566571
  0
ARC
  5
692
  8
0
 10
4.8999203792110722
 20
15.87430656247934
 30
0.0
 40
0.5815859163218072
 50
88.071822765986155
 51
102.9487339736442
  0
ARC
  5
693
  8
0
 10
4.9178418311328187
 20
15.985828009736871
 30
0.0
 40
0.4697380565462466
 50
71.808245938030737
 51
89.799109950381876
  0
ARC
  5
694
  8
0
 10
4.9854671176095557
 20
16.191611297420341
 30
0.0
 40
0.2531279439917355
 50
38.179831602473762
 51
71.808245938030623
  0
LINE
  5
695
  8
0
 10
5.1857727314999993
 20
16.341975210899999
 30
0.0
 11
5.1857727314999993
 21
16.343975210899998
 31
0.0
  0
ARC
  5
696
  8
0
 10
5.130586899799999
 20
16.271947946400001
 30
0.0
 40
0.1161467285
 50
334.05335596259999
 51
23.99143374440003
  0
ARC
  5
697
  8
0
 10
5.2092910900999989
 20
16.306975210899999
 30
0.0
 40
0.03
 50
23.99143374440003
 51
90.0
  0
ARC
  5
698
  8
0
 10
5.2080502003999989
 20
16.234255826599998
 30
0.0
 40
0.03
 50
286.02520029400011
 51
334.05335596259999
  0
ARC
  5
699
  8
0
 10
5.1787727314999996
 20
16.343975210899998
 30
0.0
 40
0.007
 50
0.000000000000007
 51
35.878726140300039
  0
ARC
  5
69A
  8
0
 10
5.2632598759283651
 20
16.167635395550558
 30
0.0
 40
0.0814609136478673
 50
197.4637052805449
 51
267.79410271985518
  0
ARC
  5
69B
  8
0
 10
5.2364585587182804
 20
16.156740333594161
 30
0.0
 40
0.052677750681374
 50
112.46192300375181
 51
194.90710323626129
  0
ARC
  5
69C
  8
0
 10
5.579994610339063
 20
16.135279410962049
 30
0.0
 40
0.3028202781706492
 50
193.816798612746
 51
210.44416052196269
  0
ARC
  5
69D
  8
0
 10
5.2606886825486399
 20
16.060905150783402
 30
0.0
 40
0.0253314808174426
 50
4.6538181209870562
 51
90.679978601468804
  0
ARC
  5
6A9
  8
0
 10
4.0754084411763918
 20
13.59741682002481
 30
0.0
 40
0.2782932678781443
 50
276.9152551111174
 51
325.95361047075738
  0
ARC
  5
6AA
  8
0
 10
3.1038169789298591
 20
14.20512854061287
 30
0.0
 40
1.424148498465047
 50
327.57993074068708
 51
333.48638261637439
  0
ARC
  5
6AB
  8
0
 10
4.5605120603767446
 20
13.4840085323117
 30
0.0
 40
0.2013212430651748
 50
113.0475731049906
 51
154.91103910436121
  0
ARC
  5
6AC
  8
0
 10
5.7284438904236072
 20
13.59741682002481
 30
0.0
 40
0.2782932678781443
 50
214.0463895292429
 51
263.08474488888288
  0
ARC
  5
6AD
  8
0
 10
6.7000353526701373
 20
14.205128540612881
 30
0.0
 40
1.424148498465047
 50
206.5136173836259
 51
212.42006925931321
  0
ARC
  5
6AE
  8
0
 10
5.2433402712232553
 20
13.4840085323117
 30
0.0
 40
0.2013212430651748
 50
25.088960895638991
 51
66.95242689500968
  0
ARC
  5
6AF
  8
0
 10
4.097636839604994
 20
12.819977899807879
 30
0.0
 40
0.3129046891905986
 50
110.8611109657537
 51
171.74655897936969
  0
ARC
  5
6B0
  8
0
 10
3.8125795851940771
 20
12.85498002625989
 30
0.0
 40
0.0265294539925713
 50
158.05152198394029
 51
280.23645661207621
  0
ARC
  5
6B1
  8
0
 10
4.1773681762456976
 20
12.630089478709341
 30
0.0
 40
0.5187835582900583
 50
90.048816767028583
 51
111.6214932650963
  0
ARC
  5
6B2
  8
0
 10
5.7062154919950041
 20
12.819977899807879
 30
0.0
 40
0.3129046891905986
 50
8.2534410206302962
 51
69.138889034246262
  0
ARC
  5
6B3
  8
0
 10
5.9912727464059223
 20
12.85498002625989
 30
0.0
 40
0.0265294539925713
 50
259.7635433879239
 51
21.948478016059681
  0
ARC
  5
6B4
  8
0
 10
5.6264841553543006
 20
12.630089478709341
 30
0.0
 40
0.5187835582900583
 50
68.378506734903709
 51
89.951183232971417
  0
ATTDEF
  5
8FC
  8
DEFPOINTS
 10
8.8962272802927274
 20
12.823745387348289
 30
0.0
 40
0.001
  1
K-98068-4
  3

  2
MODELNUMBER
 70
     0
1001
ACDBATTR
1070
     0
1070
     1
  0
ATTDEF
  5
8FD
  8
DEFPOINTS
 10
8.8962272802927274
 20
12.82207872068162
 30
0.0
 40
0.001
  1
ARTIFACTS
  3

  2
TRADENAME
 70
     0
1001
ACDBATTR
1070
     0
1070
     1
  0
ATTDEF
  5
8FE
  8
DEFPOINTS
 10
8.8962272802927274
 20
12.820412054014961
 30
0.0
 40
0.001
  1
BATHROOM SINK FAUCET HANDLES
  3

  2
PRODUCT
 70
     0
1001
ACDBATTR
1070
     0
1070
     1
  0
ATTDEF
  5
8FF
  8
DEFPOINTS
 10
8.8962272802927274
 20
12.81874538734829
 30
0.0
 40
0.001
  1
METAL
  3

  2
MATERIAL
 70
     0
1001
ACDBATTR
1070
     0
1070
     1
  0
LINE
  5
F72
  8
0
 10
16.2009261659
 20
15.855991616500001
 30
0.0
 11
16.2009261659
 21
15.652779128400001
 31
0.0
  0
LINE
  5
F73
  8
0
 10
16.0515975912
 20
15.5143853724
 30
0.0
 11
16.0515975912
 21
15.9943853724
 31
0.0
  0
LINE
  5
F74
  8
0
 10
15.882013995699999
 20
16.138335418899999
 30
0.0
 11
15.882013995699999
 21
15.370435326000001
 31
0.0
  0
LINE
  5
F75
  8
0
 10
15.8089994541
 20
16.167686642599989
 30
0.0
 11
15.8089994541
 21
15.3410841022
 31
0.0
  0
LINE
  5
F76
  8
0
 10
15.599384069499999
 20
16.1776792434
 30
0.0
 11
15.599384069499999
 21
15.3310915014
 31
0.0
  0
LINE
  5
F77
  8
0
 10
15.4612793986
 20
16.1227966314
 30
0.0
 11
15.4612793986
 21
15.385974113499991
 31
0.0
  0
LINE
  5
F78
  8
0
 10
13.9364647668
 20
15.4925995395
 30
0.0
 11
13.9364647668
 21
16.016168086299999
 31
0.0
  0
LINE
  5
F79
  8
0
 10
13.8109261659
 20
16.0143853724
 30
0.0
 11
13.8109261659
 21
15.4943853724
 31
0.0
  0
LINE
  5
F7A
  8
0
 10
13.8109261659
 20
15.4943853724
 30
0.0
 11
13.8109261659
 21
16.0143853724
 31
0.0
  0
LINE
  5
F7B
  8
0
 10
13.496245183099999
 20
13.17159678
 30
0.0
 11
13.4895255753
 21
13.1984752109
 31
0.0
  0
LINE
  5
F7C
  8
0
 10
13.7209261659
 20
13.2914173766
 30
0.0
 11
13.7209261659
 21
13.228475210899999
 31
0.0
  0
LINE
  5
F7D
  8
0
 10
13.2809261659
 20
13.736493101900001
 30
0.0
 11
13.2809261659
 21
13.72624895789999
 31
0.0
  0
LINE
  5
F7E
  8
0
 10
13.2269261659
 20
15.38290186
 30
0.0
 11
13.2269261659
 21
15.157975210899989
 31
0.0
  0
LINE
  5
F7F
  8
0
 10
13.1857727315
 20
16.341975210899989
 30
0.0
 11
13.1857727315
 21
16.343975210899998
 31
0.0
  0
LINE
  5
F80
  8
0
 10
13.151926165900001
 20
14.1406044573
 30
0.0
 11
13.151926165900001
 21
15.069234014199999
 31
0.0
  0
LINE
  5
F81
  8
0
 10
12.651926165900001
 20
14.1406044573
 30
0.0
 11
12.651926165900001
 21
15.069234014199999
 31
0.0
  0
LINE
  5
F82
  8
0
 10
12.6180796003
 20
16.341975210899989
 30
0.0
 11
12.6180796003
 21
16.343975210899998
 31
0.0
  0
LINE
  5
F83
  8
0
 10
12.5769261659
 20
15.38290186
 30
0.0
 11
12.5769261659
 21
15.157975210899989
 31
0.0
  0
LINE
  5
F84
  8
0
 10
12.5229261659
 20
13.736493101900001
 30
0.0
 11
12.5229261659
 21
13.72624895789999
 31
0.0
  0
LINE
  5
F85
  8
0
 10
12.0829261659
 20
13.2914173766
 30
0.0
 11
12.0829261659
 21
13.228475210899999
 31
0.0
  0
LINE
  5
F86
  8
0
 10
12.307607148700001
 20
13.17159678
 30
0.0
 11
12.3143267564
 21
13.1984752109
 31
0.0
  0
LINE
  5
F87
  8
0
 10
13.986558172400001
 20
12.8288728487
 30
0.0
 11
11.817294159299999
 21
12.8288728487
 31
0.0
  0
LINE
  5
F88
  8
0
 10
12.176926165899999
 20
13.148872848699989
 30
0.0
 11
13.6269261659
 21
13.148872848699989
 31
0.0
  0
LINE
  5
F89
  8
0
 10
13.690922345900001
 20
13.1984752109
 30
0.0
 11
12.112929985899999
 21
13.1984752109
 31
0.0
  0
LINE
  5
F8A
  8
0
 10
13.322156590900001
 20
13.66926033579999
 30
0.0
 11
12.481695740899999
 21
13.66926033579999
 31
0.0
  0
LINE
  5
F8B
  8
0
 10
12.5463085188
 20
13.7657541126
 30
0.0
 11
13.2575438129
 21
13.7657541126
 31
0.0
  0
LINE
  5
F8C
  8
0
 10
13.2006479704
 20
14.081673970200001
 30
0.0
 11
12.6032043614
 21
14.081673970200001
 31
0.0
  0
LINE
  5
F8D
  8
0
 10
13.2019261659
 20
15.128394812
 30
0.0
 11
12.6019261659
 21
15.128394812
 31
0.0
  0
LINE
  5
F8E
  8
0
 10
16.073479488299999
 20
15.5143853724
 30
0.0
 11
16.0515975912
 21
15.5143853724
 31
0.0
  0
LINE
  5
F8F
  8
0
 10
15.4612793986
 20
16.1227966314
 30
0.0
 11
13.9364647668
 21
16.016171205399999
 31
0.0
  0
LINE
  5
F90
  8
0
 10
15.4612793986
 20
15.385974113499991
 30
0.0
 11
13.9364647668
 21
15.4925995395
 31
0.0
  0
LINE
  5
F91
  8
0
 10
16.073479488299999
 20
15.9943853724
 30
0.0
 11
16.0515975912
 21
15.9943853724
 31
0.0
  0
LINE
  5
F92
  8
0
 10
12.5437279401
 20
16.086234847699998
 30
0.0
 11
13.2601243916
 21
16.086234847699998
 31
0.0
  0
LINE
  5
F93
  8
0
 10
13.2163320039
 20
16.205421615500001
 30
0.0
 11
12.5875203278
 21
16.205421615500001
 31
0.0
  0
LINE
  5
F94
  8
0
 10
12.594561241699999
 20
16.3369752109
 30
0.0
 11
13.209291090100001
 21
16.3369752109
 31
0.0
  0
ARC
  5
F95
  8
0
 10
13.2809261659
 20
13.869143017100001
 30
0.0
 40
0.106
 50
108.1388433356998
 51
257.25641477779988
  0
ARC
  5
F96
  8
0
 10
12.5229261659
 20
13.869143017100001
 30
0.0
 40
0.106
 50
282.74358522220001
 51
71.861156664300125
  0
ARC
  5
F97
  8
0
 10
12.616926165900001
 20
14.0099752109
 30
0.0
 40
0.073
 50
100.83433497829991
 51
213.31991937090001
  0
ARC
  5
F98
  8
0
 10
13.186926165899999
 20
14.0099752109
 30
0.0
 40
0.073
 50
326.68008062910002
 51
79.165665021700036
  0
ARC
  5
F99
  8
0
 10
12.5919261659
 20
14.1406044573
 30
0.0
 40
0.06
 50
280.83433497850018
 51
0.0
  0
ARC
  5
F9A
  8
0
 10
13.2119261659
 20
14.1406044573
 30
0.0
 40
0.06
 50
180.0
 51
259.16566502149999
  0
ARC
  5
F9B
  8
0
 10
12.462926165900001
 20
13.72624895789999
 30
0.0
 40
0.06
 50
288.22963626330011
 51
0.0
  0
ARC
  5
F9C
  8
0
 10
13.340926165899999
 20
13.72624895789999
 30
0.0
 40
0.06
 50
180.0
 51
251.77036373669989
  0
ARC
  5
F9D
  8
0
 10
12.278502873700001
 20
13.178872848699999
 30
0.0
 40
0.03
 50
270.0
 51
345.9637565320001
  0
ARC
  5
F9E
  8
0
 10
13.525349458100001
 20
13.178872848699999
 30
0.0
 40
0.03
 50
194.03624346800009
 51
270.0
  0
ARC
  5
F9F
  8
0
 10
12.552926165900001
 20
13.736493101900001
 30
0.0
 40
0.03
 50
102.7435852220999
 51
180.0
  0
ARC
  5
FA0
  8
0
 10
13.250926165899999
 20
13.736493101900001
 30
0.0
 40
0.03
 50
0.0
 51
77.256414777900019
  0
ARC
  5
FA1
  8
0
 10
12.112926165899999
 20
13.2914173766
 30
0.0
 40
0.03
 50
97.683246614699982
 51
180.0
  0
ARC
  5
FA2
  8
0
 10
13.690926165900001
 20
13.2914173766
 30
0.0
 40
0.03
 50
0.0
 51
82.316753385300032
  0
ARC
  5
FA3
  8
0
 10
13.690926165900001
 20
13.228475210899999
 30
0.0
 40
0.03
 50
270.0
 51
0.0
  0
ARC
  5
FA4
  8
0
 10
12.112926165899999
 20
13.228475210899999
 30
0.0
 40
0.03
 50
180.0
 51
270.0
  0
ARC
  5
FA5
  8
0
 10
15.6839994541
 20
15.384385372400001
 30
0.0
 40
0.1
 50
212.2042275041
 51
327.7957724961999
  0
ARC
  5
FA6
  8
0
 10
15.5339994541
 20
15.384385372400001
 30
0.0
 40
0.05
 50
200.7460921058001
 51
300.00000000000023
  0
ARC
  5
FA7
  8
0
 10
15.833999454100001
 20
15.384385372400001
 30
0.0
 40
0.05
 50
240.0
 51
343.79941389829997
  0
ARC
  5
FA8
  8
0
 10
15.4591867044
 20
15.356047192
 30
0.0
 40
0.03
 50
20.74609210509999
 51
86.000000000600153
  0
ARC
  5
FA9
  8
0
 10
15.573999454100001
 20
15.3151033401
 30
0.0
 40
0.03
 50
32.204227503700061
 51
119.9999999998998
  0
ARC
  5
FAA
  8
0
 10
15.7939994541
 20
15.3151033401
 30
0.0
 40
0.03
 50
60.00000000010013
 51
147.79577249530001
  0
ARC
  5
FAB
  8
0
 10
15.910822720700001
 20
15.362065298099999
 30
0.0
 40
0.03
 50
111.1377620069
 51
163.79941389809991
  0
ARC
  5
FAC
  8
0
 10
16.170926165899999
 20
15.652779128400001
 30
0.0
 40
0.03
 50
287.46462310610008
 51
0.0
  0
ARC
  5
FAD
  8
0
 10
16.0515975912
 20
15.4843853724
 30
0.0
 40
0.03
 50
90.0
 51
153.7277319224001
  0
ARC
  5
FAE
  8
0
 10
16.073479488299999
 20
15.544385372400001
 30
0.0
 40
0.03
 50
270.0
 51
350.29880526940002
  0
ARC
  5
FAF
  8
0
 10
15.6839994541
 20
16.124385372399999
 30
0.0
 40
0.1
 50
32.204227503800048
 51
147.7957724959
  0
ARC
  5
FB0
  8
0
 10
15.5339994541
 20
16.124385372399999
 30
0.0
 40
0.05
 50
60.0
 51
159.25390789420001
  0
ARC
  5
FB1
  8
0
 10
15.833999454100001
 20
16.124385372399999
 30
0.0
 40
0.05
 50
16.200586101699979
 51
120.0
  0
ARC
  5
FB2
  8
0
 10
15.4591867044
 20
16.1527235529
 30
0.0
 40
0.03
 50
273.99999999940007
 51
339.25390789490001
  0
ARC
  5
FB3
  8
0
 10
15.573999454100001
 20
16.193667404700001
 30
0.0
 40
0.03
 50
240.0000000001001
 51
327.79577249629989
  0
ARC
  5
FB4
  8
0
 10
15.7939994541
 20
16.193667404700001
 30
0.0
 40
0.03
 50
212.20422750469999
 51
299.9999999998999
  0
ARC
  5
FB5
  8
0
 10
15.910822720700001
 20
16.146705446799999
 30
0.0
 40
0.03
 50
196.20058610190009
 51
248.8622379931
  0
ARC
  5
FB6
  8
0
 10
16.170926165899999
 20
15.855991616500001
 30
0.0
 40
0.03
 50
0.0
 51
72.535376893900093
  0
ARC
  5
FB7
  8
0
 10
16.0515975912
 20
16.024385372400001
 30
0.0
 40
0.03
 50
206.27226807760019
 51
270.0
  0
ARC
  5
FB8
  8
0
 10
16.073479488299999
 20
15.964385372400001
 30
0.0
 40
0.03
 50
9.7011947305999353
 51
90.0
  0
ARC
  5
FB9
  8
0
 10
13.286926165900001
 20
15.38290186
 30
0.0
 40
0.06
 50
136.0236248148
 51
180.0
  0
ARC
  5
FBA
  8
0
 10
12.516926165899999
 20
15.38290186
 30
0.0
 40
0.06
 50
0.0
 51
43.976375185199949
  0
ARC
  5
FBB
  8
0
 10
13.2119261659
 20
15.069234014199999
 30
0.0
 40
0.06
 50
99.594068226899992
 51
180.0
  0
ARC
  5
FBC
  8
0
 10
12.5919261659
 20
15.069234014199999
 30
0.0
 40
0.06
 50
0.0
 51
80.405931773100036
  0
ARC
  5
FBD
  8
0
 10
13.8609261659
 20
15.4943853724
 30
0.0
 40
0.05
 50
180.0
 51
336.64609432940011
  0
ARC
  5
FBE
  8
0
 10
13.9343720725
 20
15.46267261799999
 30
0.0
 40
0.03
 50
86.000000000000028
 51
156.6460943292
  0
ARC
  5
FBF
  8
0
 10
12.606926165899999
 20
15.157975210899989
 30
0.0
 40
0.03
 50
180.0
 51
260.40593177310001
  0
ARC
  5
FC0
  8
0
 10
13.196926165900001
 20
15.157975210899989
 30
0.0
 40
0.03
 50
279.59406822689999
 51
0.0
  0
ARC
  5
FC1
  8
0
 10
12.901926165900001
 20
15.7543853724
 30
0.0
 40
0.475
 50
151.38944029619989
 51
223.9763751852002
  0
ARC
  5
FC2
  8
0
 10
12.901926165900001
 20
15.7543853724
 30
0.0
 40
0.475
 50
316.02362481480009
 51
330.56316375250009
  0
ARC
  5
FC3
  8
0
 10
13.130586899800001
 20
16.271947946400001
 30
0.0
 40
0.1161467285
 50
334.05335596259999
 51
23.99143374440003
  0
ARC
  5
FC4
  8
0
 10
13.8609261659
 20
16.0143853724
 30
0.0
 40
0.05
 50
23.35390567060016
 51
180.0
  0
ARC
  5
FC5
  8
0
 10
13.9343720725
 20
16.046098126899999
 30
0.0
 40
0.03
 50
203.35390567080009
 51
273.99999999999989
  0
ARC
  5
FC6
  8
0
 10
13.209291090100001
 20
16.306975210899999
 30
0.0
 40
0.03
 50
23.99143374440003
 51
90.0
  0
ARC
  5
FC7
  8
0
 10
13.208050200400001
 20
16.234255826599998
 30
0.0
 40
0.03
 50
286.02520029400017
 51
334.05335596259999
  0
ARC
  5
FC8
  8
0
 10
12.625079600299999
 20
16.343975210899998
 30
0.0
 40
0.007
 50
144.12127385970001
 51
180.0
  0
ARC
  5
FC9
  8
0
 10
13.178772731500001
 20
16.343975210899998
 30
0.0
 40
0.007
 50
0.0
 51
35.878726140300039
  0
ARC
  5
FCA
  8
0
 10
12.623079600300001
 20
16.341975210899989
 30
0.0
 40
0.005
 50
180.0
 51
270.0
  0
ARC
  5
FCB
  8
0
 10
13.180772731499999
 20
16.341975210899989
 30
0.0
 40
0.005
 50
270.0
 51
0.0
  0
ARC
  5
FCC
  8
0
 10
16.205754120369448
 20
15.98576329316543
 30
0.0
 40
0.1039926167038533
 50
189.030454825237
 51
255.62130963389919
  0
ARC
  5
FCD
  8
0
 10
15.818984398155109
 20
15.898802762799029
 30
0.0
 40
0.2343705853481741
 50
28.631246261126691
 51
69.775972477307306
  0
ARC
  5
FCE
  8
0
 10
16.210540809267489
 20
15.519168676184099
 30
0.0
 40
0.1093647629049401
 50
106.2542037081005
 51
169.37675959706161
  0
ARC
  5
FCF
  8
0
 10
15.819341538483499
 20
15.609554178354699
 30
0.0
 40
0.2338589117918777
 50
290.17696923966059
 51
331.41581202614259
  0
ARC
  5
FD0
  8
0
 10
13.63434968156364
 20
15.93542813882681
 30
0.0
 40
0.1934256951754812
 50
24.092092278860591
 51
83.986163830940171
  0
ARC
  5
FD1
  8
0
 10
13.649054546339499
 20
16.10092215557745
 30
0.0
 40
0.027399112680386
 50
78.293598513824875
 51
160.63958751164881
  0
ARC
  5
FD2
  8
0
 10
13.37245710129573
 20
16.221016454386142
 30
0.0
 40
0.2741977725527457
 50
274.747103274214
 51
336.19123868219532
  0
ARC
  5
FD3
  8
0
 10
13.3881280017018
 20
16.032307476339081
 30
0.0
 40
0.0848392356046915
 50
209.71572769707819
 51
274.74710327421519
  0
ARC
  5
FD4
  8
0
 10
13.55468015993616
 20
16.127367752532798
 30
0.0
 40
0.2766101341335056
 50
193.4646356339739
 51
209.71572769707791
  0
ARC
  5
FD5
  8
0
 10
13.260425015148639
 20
16.060905150783402
 30
0.0
 40
0.0253314808174426
 50
4.6538181209870686
 51
90.67997860146869
  0
ARC
  5
FD6
  8
0
 10
13.263259875928361
 20
16.167635395550558
 30
0.0
 40
0.0814609136478673
 50
197.46370528054501
 51
267.7941027198554
  0
ARC
  5
FD7
  8
0
 10
13.236458558718279
 20
16.156740333594161
 30
0.0
 40
0.052677750681374
 50
112.46192300375171
 51
194.90710323626129
  0
ARC
  5
FD8
  8
0
 10
13.634352206569639
 20
15.57334276152867
 30
0.0
 40
0.1934256951754812
 50
276.01463527444349
 51
335.90870682652297
  0
ARC
  5
FD9
  8
0
 10
13.64905937949244
 20
15.407848949883171
 30
0.0
 40
0.027399112680386
 50
199.36121159373491
 51
281.70720059155889
  0
ARC
  5
FDA
  8
0
 10
13.372463609433151
 20
15.287750793376061
 30
0.0
 40
0.2741977725527457
 50
23.809560423188429
 51
85.253695831169594
  0
ARC
  5
FDB
  8
0
 10
13.38813187790981
 20
15.476459989967131
 30
0.0
 40
0.0848392356046915
 50
85.253695831168756
 51
150.28507140830541
  0
ARC
  5
FDC
  8
0
 10
12.97636360812389
 20
16.179883623118648
 30
0.0
 40
0.2675573366933992
 50
38.948986454334282
 51
77.504472936776409
  0
ARC
  5
FDD
  8
0
 10
12.90393195248893
 20
15.87430656247934
 30
0.0
 40
0.5815859163218072
 50
77.051266026355862
 51
91.92817723401383
  0
ARC
  5
FDE
  8
0
 10
12.886010500567179
 20
15.985828009736871
 30
0.0
 40
0.4697380565462466
 50
90.200890049617982
 51
108.19175406196911
  0
ARC
  5
FDF
  8
0
 10
12.818385214090441
 20
16.191611297420341
 30
0.0
 40
0.2531279439917355
 50
108.19175406196931
 51
141.82016839752629
  0
LINE
  5
FE0
  8
0
 10
12.6180796002
 20
16.341975210899989
 30
0.0
 11
12.6180796002
 21
16.343975210899998
 31
0.0
  0
ARC
  5
FE1
  8
0
 10
12.673265431900001
 20
16.271947946400001
 30
0.0
 40
0.1161467285
 50
156.0085662555999
 51
205.94664403739989
  0
ARC
  5
FE2
  8
0
 10
12.594561241599999
 20
16.306975210899999
 30
0.0
 40
0.03
 50
90.0
 51
156.0085662555999
  0
ARC
  5
FE3
  8
0
 10
12.595802131299999
 20
16.234255826599998
 30
0.0
 40
0.03
 50
205.94664403739989
 51
253.974799706
  0
ARC
  5
FE4
  8
0
 10
12.625079600199999
 20
16.343975210899998
 30
0.0
 40
0.007
 50
144.12127385970001
 51
180.0
  0
ARC
  5
FE5
  8
0
 10
12.54059245577163
 20
16.167635395550558
 30
0.0
 40
0.0814609136478673
 50
272.20589728014482
 51
342.5362947194551
  0
ARC
  5
FE6
  8
0
 10
12.56739377298172
 20
16.156740333594161
 30
0.0
 40
0.052677750681374
 50
345.09289676373868
 51
67.53807699624825
  0
ARC
  5
FE7
  8
0
 10
12.22385772136094
 20
16.135279410962049
 30
0.0
 40
0.3028202781706492
 50
329.55583947803729
 51
346.18320138725392
  0
ARC
  5
FE8
  8
0
 10
12.54316364915136
 20
16.060905150783402
 30
0.0
 40
0.0253314808174426
 50
89.320021398531296
 51
175.3461818790129
  0
ARC
  5
FE9
  8
0
 10
13.7284438905236
 20
13.59741682002481
 30
0.0
 40
0.2782932678781443
 50
214.04638952924259
 51
263.08474488888271
  0
ARC
  5
FEA
  8
0
 10
14.70003535277014
 20
14.20512854061287
 30
0.0
 40
1.424148498465047
 50
206.5136173836259
 51
212.42006925931281
  0
ARC
  5
FEB
  8
0
 10
13.24334027132325
 20
13.4840085323117
 30
0.0
 40
0.2013212430651748
 50
25.088960895638881
 51
66.952426895009452
  0
ARC
  5
FEC
  8
0
 10
12.075408441276389
 20
13.59741682002481
 30
0.0
 40
0.2782932678781443
 50
276.91525511111712
 51
325.95361047075698
  0
ARC
  5
FED
  8
0
 10
11.10381697902986
 20
14.205128540612881
 30
0.0
 40
1.424148498465047
 50
327.57993074068679
 51
333.48638261637399
  0
ARC
  5
FEE
  8
0
 10
12.560512060476739
 20
13.4840085323117
 30
0.0
 40
0.2013212430651748
 50
113.04757310499031
 51
154.91103910436101
  0
ARC
  5
FEF
  8
0
 10
13.706215492095
 20
12.819977899807879
 30
0.0
 40
0.3129046891905986
 50
8.2534410206301612
 51
69.138889034246276
  0
ARC
  5
FF0
  8
0
 10
13.991272746505921
 20
12.85498002625989
 30
0.0
 40
0.0265294539925713
 50
259.76354338792368
 51
21.948478016059632
  0
ARC
  5
FF1
  8
0
 10
13.6264841554543
 20
12.630089478709341
 30
0.0
 40
0.5187835582900583
 50
68.378506734903709
 51
89.951183232971417
  0
ARC
  5
FF2
  8
0
 10
12.09763683970499
 20
12.819977899807879
 30
0.0
 40
0.3129046891905986
 50
110.8611109657537
 51
171.74655897936981
  0
ARC
  5
FF3
  8
0
 10
11.812579585294079
 20
12.85498002625989
 30
0.0
 40
0.0265294539925713
 50
158.05152198394029
 51
280.23645661207632
  0
ARC
  5
FF4
  8
0
 10
12.1773681763457
 20
12.630089478709341
 30
0.0
 40
0.5187835582900583
 50
90.048816767028583
 51
111.6214932650963
  0
ENDSEC
  0
EOF
