  0
SECTION
  2
HEADER
  9
$ACADVER
  1
AC1009
  9
$INSBASE
 10
46.9451151922129668
 20
-0.6238033876707929
 30
0.0
  9
$EXTMIN
 10
45.4450661065996186
 20
-0.623803387670793
 30
0.0
  9
$EXTMAX
 10
48.4451642778263221
 20
2.958309613011616
 30
0.0
  9
$LIMMIN
 10
0.0
 20
0.0
  9
$LIMMAX
 10
11.6929133858000007
 20
8.2677165353999982
  9
$ORTHOMODE
 70
     0
  9
$REGENMODE
 70
     1
  9
$FILLMODE
 70
     1
  9
$QTEXTMODE
 70
     0
  9
$MIRRTEXT
 70
     0
  9
$DRAGMODE
 70
     2
  9
$LTSCALE
 40
0.6431102362
  9
$OSMODE
 70
    19
  9
$ATTMODE
 70
     1
  9
$TEXTSIZE
 40
0.2
  9
$TRACEWID
 40
0.05
  9
$TEXTSTYLE
  7
STANDARD
  9
$CLAYER
  8
0
  9
$CELTYPE
  6
BYLAYER
  9
$CECOLOR
 62
   256
  9
$DIMSCALE
 40
1.0
  9
$DIMASZ
 40
0.1875
  9
$DIMEXO
 40
0.0625
  9
$DIMDLI
 40
0.4443307087
  9
$DIMRND
 40
0.0
  9
$DIMDLE
 40
0.0
  9
$DIMEXE
 40
0.125
  9
$DIMTP
 40
0.01
  9
$DIMTM
 40
0.01
  9
$DIMTXT
 40
1.0
  9
$DIMCEN
 40
0.1052362205
  9
$DIMTSZ
 40
0.0
  9
$DIMTOL
 70
     1
  9
$DIMLIM
 70
     0
  9
$DIMTIH
 70
     1
  9
$DIMTOH
 70
     1
  9
$DIMSE1
 70
     0
  9
$DIMSE2
 70
     0
  9
$DIMTAD
 70
     0
  9
$DIMZIN
 70
     0
  9
$DIMBLK
  1

  9
$DIMASO
 70
     1
  9
$DIMSHO
 70
     1
  9
$DIMPOST
  1
\X
  9
$DIMAPOST
  1

  9
$DIMALT
 70
     1
  9
$DIMALTD
 70
     2
  9
$DIMALTF
 40
25.3999999999999986
  9
$DIMLFAC
 40
1.0
  9
$DIMTOFL
 70
     0
  9
$DIMTVP
 40
0.0
  9
$DIMTIX
 70
     0
  9
$DIMSOXD
 70
     0
  9
$DIMSAH
 70
     0
  9
$DIMBLK1
  1

  9
$DIMBLK2
  1

  9
$DIMSTYLE
  2
STANDARD
  9
$DIMCLRD
 70
     0
  9
$DIMCLRE
 70
     0
  9
$DIMCLRT
 70
     0
  9
$DIMTFAC
 40
1.0
  9
$DIMGAP
 40
0.09
  9
$LUNITS
 70
     2
  9
$LUPREC
 70
     4
  9
$SKETCHINC
 40
0.1
  9
$FILLETRAD
 40
0.0
  9
$AUNITS
 70
     0
  9
$AUPREC
 70
     0
  9
$MENU
  1
.
  9
$ELEVATION
 40
0.0
  9
$PELEVATION
 40
0.0
  9
$THICKNESS
 40
0.0
  9
$LIMCHECK
 70
     0
  9
$BLIPMODE
 70
     0
  9
$CHAMFERA
 40
0.0
  9
$CHAMFERB
 40
0.0
  9
$SKPOLY
 70
     0
  9
$TDCREATE
 40
2458171.3976967590861022
  9
$TDUPDATE
 40
2459695.4746180549263954
  9
$TDINDWG
 40
0.0929245602
  9
$TDUSRTIMER
 40
0.0929245602
  9
$USRTIMER
 70
     1
  9
$ANGBASE
 50
0.0
  9
$ANGDIR
 70
     0
  9
$PDMODE
 70
     0
  9
$PDSIZE
 40
0.3125
  9
$PLINEWID
 40
0.0
  9
$COORDS
 70
     1
  9
$SPLFRAME
 70
     0
  9
$SPLINETYPE
 70
     6
  9
$SPLINESEGS
 70
     8
  9
$ATTDIA
 70
     1
  9
$ATTREQ
 70
     1
  9
$HANDLING
 70
     1
  9
$HANDSEED
  5
1927
  9
$SURFTAB1
 70
     6
  9
$SURFTAB2
 70
     6
  9
$SURFTYPE
 70
     6
  9
$SURFU
 70
     6
  9
$SURFV
 70
     6
  9
$UCSNAME
  2

  9
$UCSORG
 10
0.0
 20
0.0
 30
0.0
  9
$UCSXDIR
 10
1.0
 20
0.0
 30
0.0
  9
$UCSYDIR
 10
0.0
 20
1.0
 30
0.0
  9
$PUCSNAME
  2

  9
$PUCSORG
 10
0.0
 20
0.0
 30
0.0
  9
$PUCSXDIR
 10
1.0
 20
0.0
 30
0.0
  9
$PUCSYDIR
 10
0.0
 20
1.0
 30
0.0
  9
$USERI1
 70
     0
  9
$USERI2
 70
     0
  9
$USERI3
 70
     0
  9
$USERI4
 70
     0
  9
$USERI5
 70
     0
  9
$USERR1
 40
0.0
  9
$USERR2
 40
0.0
  9
$USERR3
 40
0.0
  9
$USERR4
 40
0.0
  9
$USERR5
 40
0.0
  9
$WORLDVIEW
 70
     1
  9
$SHADEDGE
 70
     3
  9
$SHADEDIF
 70
    70
  9
$TILEMODE
 70
     1
  9
$MAXACTVP
 70
    64
  9
$PLIMCHECK
 70
     0
  9
$PEXTMIN
 10
1.0000000000000000E+20
 20
1.0000000000000000E+20
 30
1.0000000000000000E+20
  9
$PEXTMAX
 10
-1.0000000000000000E+20
 20
-1.0000000000000000E+20
 30
-1.0000000000000000E+20
  9
$PLIMMIN
 10
0.0
 20
0.0
  9
$PLIMMAX
 10
12.0
 20
9.0
  9
$UNITMODE
 70
     0
  9
$VISRETAIN
 70
     1
  9
$PLINEGEN
 70
     0
  9
$PSLTSCALE
 70
     1
  0
ENDSEC
  0
SECTION
  2
TABLES
  0
TABLE
  2
VPORT
 70
     1
  0
VPORT
  2
*ACTIVE
 70
     0
 10
0.0
 20
0.0
 11
1.0
 21
1.0
 12
3.1121297108345658
 22
-1.7750998057512231
 13
0.0
 23
0.0
 14
1.0
 24
1.0
 15
0.0
 25
0.0
 16
-0.0000000000000142
 26
0.0
 36
57.6924941899995076
 17
43.8337781647884484
 27
3.576312605267407
 37
0.0
 40
4.8775084113875407
 41
1.689655172413792
 42
50.0
 43
0.0
 44
0.0
 50
0.0
 51
0.0
 71
     0
 72
   100
 73
     1
 74
     1
 75
     0
 76
     0
 77
     0
 78
     0
  0
ENDTAB
  0
TABLE
  2
LTYPE
 70
     2
  0
LTYPE
  2
CONTINUOUS
 70
     0
  3
Solid line
 72
    65
 73
     0
 40
0.0
  0
LTYPE
  2
PHANTOM2
 70
     0
  3
___ _ _ ___ _ _ ___ _ _ ___ _ _
 72
    65
 73
     6
 40
1.25
 49
0.625
 49
-0.125
 49
0.125
 49
-0.125
 49
0.125
 49
-0.125
  0
ENDTAB
  0
TABLE
  2
LAYER
 70
     2
  0
LAYER
  2
0
 70
     0
 62
   255
  6
CONTINUOUS
  0
LAYER
  2
DEFPOINTS
 70
     0
 62
     7
  6
CONTINUOUS
  0
ENDTAB
  0
TABLE
  2
STYLE
 70
     1
  0
STYLE
  2
STANDARD
 70
     0
 40
0.0
 41
0.8
 50
0.0
 71
     0
 42
0.2
  3
txt
  4

  0
ENDTAB
  0
TABLE
  2
VIEW
 70
     0
  0
ENDTAB
  0
TABLE
  2
UCS
 70
     0
  0
ENDTAB
  0
TABLE
  2
APPID
 70
    10
  0
APPID
  2
ACAD
 70
     0
  0
APPID
  2
ACAD_MLEADERVER
 70
     0
  0
APPID
  2
ACAD_EXEMPT_FROM_CAD_STANDARDS
 70
     0
  0
APPID
  2
ACAD_DSTYLE_DIMJAG
 70
     0
  0
APPID
  2
ACAD_DSTYLE_DIMTALN
 70
     0
  0
APPID
  2
ACAD_NAV_VCDISPLAY
 70
     0
  0
APPID
  2
ACAECLAYERSTANDARD
 70
     0
  0
APPID
  2
ACCMTRANSPARENCY
 70
     0
  0
APPID
  2
DCO15
 70
     0
  0
APPID
  2
ACDBATTR
 70
     0
  0
ENDTAB
  0
TABLE
  2
DIMSTYLE
 70
     1
  0
DIMSTYLE
  2
STANDARD
 70
     0
  3

  4

  5

  6

  7

 40
1.0
 41
0.1875
 42
0.0625
 43
0.38
 44
0.125
 45
0.0
 46
0.0
 47
0.01
 48
0.01
140
0.15625
141
0.09
142
0.0
143
25.3999999999999986
144
1.0
145
0.0
146
1.0
147
0.09
 71
     1
 72
     0
 73
     1
 74
     1
 75
     0
 76
     0
 77
     0
 78
     4
170
     0
171
     2
172
     0
173
     0
174
     0
175
     0
176
     0
177
     0
178
     0
  0
ENDTAB
  0
ENDSEC
  0
SECTION
  2
BLOCKS
  0
BLOCK
  8
0
  2
$MODEL_SPACE
 70
     0
 10
0.0
 20
0.0
 30
0.0
  3
$MODEL_SPACE
  1

  0
ENDBLK
  5
21
  8
0
  0
BLOCK
 67
     1
  8
0
  2
$PAPER_SPACE
 70
     0
 10
0.0
 20
0.0
 30
0.0
  3
$PAPER_SPACE
  1

  0
ENDBLK
  5
1D
 67
     1
  8
0
  0
ENDSEC
  0
SECTION
  2
ENTITIES
  0
ATTDEF
  5
710
  8
DEFPOINTS
 10
46.9452488513736128
 20
-0.6203636765642946
 30
0.0
 40
0.001
  1
K-98068-3
  3

  2
MODELNUMBER
 70
     0
1001
ACDBATTR
1070
     0
1070
     1
  0
ATTDEF
  5
711
  8
DEFPOINTS
 10
46.9452488513736128
 20
-0.6220303432309598
 30
0.0
 40
0.001
  1
ARTIFACTS
  3

  2
TRADENAME
 70
     0
1001
ACDBATTR
1070
     0
1070
     1
  0
ATTDEF
  5
712
  8
DEFPOINTS
 10
46.9452488513736128
 20
-0.6236970098976249
 30
0.0
 40
0.001
  1
BATHROOM SINK FAUCET HANDLES
  3

  2
PRODUCT
 70
     0
1001
ACDBATTR
1070
     0
1070
     1
  0
LINE
  5
176C
  8
0
 10
46.4390120708141296
 20
2.6704134916291649
 30
0.0
 11
47.4512183136136301
 21
2.6704134916291649
 31
0.0
  0
LINE
  5
176D
  8
0
 10
46.5667423290134721
 20
2.8369645189851709
 30
0.0
 11
47.323488055412021
 21
2.8369645189851709
 31
0.0
  0
ARC
  5
176E
  8
0
 10
46.5639946059697323
 20
2.8607788038415989
 30
0.0
 40
0.023972278680816
 50
276.5817569529534126
 51
331.6985690356997907
  0
ARC
  5
176F
  8
0
 10
46.6186507311050775
 20
2.627307989708203
 30
0.0
 40
0.2159869034824611
 50
103.9060917117974014
 51
157.497420568441612
  0
ARC
  5
1770
  8
0
 10
46.4446736615724731
 20
2.6985126862597211
 30
0.0
 40
0.0286638857939981
 50
182.066072701369194
 51
258.6082311106372913
  0
ARC
  5
1771
  8
0
 10
46.4571672872063175
 20
2.6939617536322831
 30
0.0
 40
0.0412889858866701
 50
157.1853926460275943
 51
175.1128616399008138
  0
ARC
  5
1772
  8
0
 10
46.4527760779375569
 20
2.4932311344199891
 30
0.0
 40
0.1772615315396778
 50
60.9293530858522487
 51
88.271388189884334
  0
ARC
  5
1773
  8
0
 10
46.5140227054704667
 20
2.6006155993124942
 30
0.0
 40
0.0536633305522446
 50
356.2396228142769132
 51
62.3752293402268378
  0
ARC
  5
1774
  8
0
 10
46.5360838535386918
 20
2.5946418343204072
 30
0.0
 40
0.0315821581371206
 50
284.8678143504782838
 51
4.457071023095267
  0
ARC
  5
1775
  8
0
 10
46.5677972390496109
 20
2.4753438593646879
 30
0.0
 40
0.0918591081656502
 50
104.8933739151671034
 51
180.1566970259106881
  0
ARC
  5
1776
  8
0
 10
46.7491203183023174
 20
2.7323140899043952
 30
0.0
 40
0.2015302475595199
 50
113.8696129891927029
 51
144.4755504385989866
  0
ARC
  5
1777
  8
0
 10
46.833374621910167
 20
2.5419108859819799
 30
0.0
 40
0.4097420813738026
 50
99.3375469827341817
 51
113.8696129891927029
  0
ARC
  5
1778
  8
0
 10
46.9018839517049528
 20
2.1252615835868651
 30
0.0
 40
0.8319862873201824
 50
92.9844783391308454
 51
99.3375469827341817
  0
ARC
  5
1779
  8
0
 10
46.946929942469211
 20
1.175435442267303
 30
0.0
 40
1.782875094342202
 50
90.0583201531463544
 51
92.8408846943333685
  0
LINE
  5
177A
  8
0
 10
46.4759384744167221
 20
2.4750926361291929
 30
0.0
 11
47.4142724386166776
 21
2.4750926361291929
 31
0.0
  0
LINE
  5
177B
  8
0
 10
47.2996892524235193
 20
1.9829177821291799
 30
0.0
 11
46.5905411320024214
 21
1.9829177821291799
 31
0.0
  0
LINE
  5
177C
  8
0
 10
46.4759384744167221
 20
2.4750926361291929
 30
0.0
 11
46.3325829550100607
 21
2.4654556824229021
 31
0.0
  0
ARC
  5
177D
  8
0
 10
46.5903532787953409
 20
-1.021786851224004
 30
0.0
 40
3.496756501145295
 50
94.2275065054562759
 51
99.521581370336591
  0
ARC
  5
177E
  8
0
 10
46.3253676388150382
 20
0.6068238563882913
 30
0.0
 40
1.846766510955778
 50
99.7718998644582769
 51
107.5697649141553001
  0
ARC
  5
177F
  8
0
 10
45.9832342562573686
 20
1.6541231515295629
 30
0.0
 40
0.7451123840475475
 50
106.7986370926183071
 51
123.7074784069018989
  0
ARC
  5
1780
  8
0
 10
45.7506996353969626
 20
2.0081888169912809
 30
0.0
 40
0.3215403016291653
 50
124.2507059074354032
 51
151.9927911929609081
  0
ARC
  5
1781
  8
0
 10
45.6671416646110231
 20
2.0633300417564322
 30
0.0
 40
0.2220755580114054
 50
154.430653535405213
 51
180.3100656748322876
  0
ARC
  5
1782
  8
0
 10
45.7078466243243966
 20
2.06491135046649
 30
0.0
 40
0.2627920035147452
 50
180.6068029684822989
 51
270.3282419096423155
  0
ARC
  5
1783
  8
0
 10
45.7076755122817815
 20
2.0674383294044838
 30
0.0
 40
0.2653199674977899
 50
270.3620666600077129
 51
337.9679052278299878
  0
ARC
  5
1784
  8
0
 10
46.0079366560659366
 20
1.948789042870958
 30
0.0
 40
0.0575837401924693
 50
89.3718022912303667
 51
160.6065263025141121
  0
LINE
  5
1785
  8
0
 10
46.2275613581092912
 20
1.802123659398591
 30
0.0
 11
46.4281361955587784
 21
1.802123659398591
 31
0.0
  0
ARC
  5
1786
  8
0
 10
46.4196180689161011
 20
1.943946466027699
 30
0.0
 40
0.1420783831611546
 50
273.4371559496611894
 51
307.3566184830340831
  0
ARC
  5
1787
  8
0
 10
46.6610521065223622
 20
1.9652218344917169
 30
0.0
 40
0.0726976209401335
 50
145.7854880879808945
 51
171.2671287927747983
  0
LINE
  5
1788
  8
0
 10
46.5891972731605293
 20
1.9762593619729349
 30
0.0
 11
46.5775097997604135
 21
1.9368612502728859
 31
0.0
  0
ARC
  5
1789
  8
0
 10
46.3347177920688083
 20
2.0240859945100902
 30
0.0
 40
0.2579847185510369
 50
311.5486270301130958
 51
340.2388158194892753
  0
ARC
  5
178A
  8
0
 10
46.4570017694287927
 20
1.926483370509362
 30
0.0
 40
0.127665810232807
 50
193.5638878920923958
 51
256.9322754923650223
  0
ARC
  5
178B
  8
0
 10
46.7995579786080924
 20
2.0625029292314019
 30
0.0
 40
0.4952936512337761
 50
180.0433544752420119
 51
199.5771518229149137
  0
ARC
  5
178C
  8
0
 10
46.6369851549663395
 20
2.0838582580151939
 30
0.0
 40
0.3334295312307347
 50
111.6955629878232941
 51
183.7367009418121029
  0
ARC
  5
178D
  8
0
 10
46.9703570336584235
 20
0.7093878689782001
 30
0.0
 40
1.7450824701313341
 50
90.8287868585049125
 51
105.1690630133654025
  0
ARC
  5
178E
  8
0
 10
46.3279739130140698
 20
2.479709211323569
 30
0.0
 40
0.0586056507468143
 50
300.4949609193242281
 51
315.9439679046989795
  0
ARC
  5
178F
  8
0
 10
46.3666409230596912
 20
2.4432102547418029
 30
0.0
 40
0.0054768176705116
 50
309.0519918922233842
 51
53.2908915609008034
  0
ARC
  5
1790
  8
0
 10
46.3386552259850433
 20
2.3694536508347031
 30
0.0
 40
0.0841673908008223
 50
68.1982276810150836
 51
90.8878059616786089
  0
ARC
  5
1791
  8
0
 10
46.3090832431436468
 20
1.3936766969547021
 30
0.0
 40
1.060311117439235
 50
88.4723159253610874
 51
93.6880660735004653
  0
LINE
  5
1792
  8
0
 10
46.240879308709431
 20
2.4517919501729919
 30
0.0
 11
46.1927212623577574
 21
2.4522878180664618
 31
0.0
  0
ARC
  5
1793
  8
0
 10
46.2293867425584395
 20
1.922131364961603
 30
0.0
 40
0.120021587320214
 50
234.8255645343392075
 51
269.1285662886177192
  0
ARC
  5
1794
  8
0
 10
46.2885760364589771
 20
1.9908452186876839
 30
0.0
 40
0.2104694182968056
 50
200.3221258694372864
 51
232.4299037089919011
  0
ARC
  5
1795
  8
0
 10
46.4648456223291433
 20
2.0596850716260802
 30
0.0
 40
0.3996889437610304
 50
179.6548707283455997
 51
200.8004744764760972
  0
ARC
  5
1796
  8
0
 10
46.3953586113808925
 20
2.066212636591688
 30
0.0
 40
0.3302203842024646
 50
151.702259220637302
 51
180.7148696421276099
  0
ARC
  5
1797
  8
0
 10
46.4831262700637708
 20
2.0030059051385529
 30
0.0
 40
0.4376882907128376
 50
116.8630421272467004
 51
149.8631523490329016
  0
ARC
  5
1798
  8
0
 10
48.1082974262587086
 20
-1.205509158701443
 30
0.0
 40
4.034318686210085
 50
115.7167772938622932
 51
116.8630421272467004
  0
ARC
  5
1799
  8
0
 10
47.0002885373543506
 20
6.8371805024505523
 30
0.0
 40
4.835330312403328
 50
266.7278250822502059
 51
269.3462145881995866
  0
ARC
  5
179A
  8
0
 10
46.6839099753780431
 20
1.2850680781624979
 30
0.0
 40
0.7257896353923536
 50
86.8105020310167532
 51
96.5645670671282943
  0
LINE
  5
179B
  8
0
 10
46.0085679983605189
 20
2.0063693219729992
 30
0.0
 11
46.068728616126613
 21
2.0063693219729992
 31
0.0
  0
LINE
  5
179C
  8
0
 10
45.8550010908569519
 20
-0.6238033876707929
 30
0.0
 11
48.0352292935689889
 21
-0.6238033876707929
 31
0.0
  0
LINE
  5
179D
  8
0
 10
46.3887980620306024
 20
0.4585179966290865
 30
0.0
 11
47.5014323223971715
 21
0.4585179966290865
 31
0.0
  0
LINE
  5
179E
  8
0
 10
46.4604685703633677
 20
0.5528319505470334
 30
0.0
 11
47.4297618140630277
 21
0.5528319505470334
 31
0.0
  0
LINE
  5
179F
  8
0
 10
46.5847698596866522
 20
1.5416066849291381
 30
0.0
 11
47.3054605247411075
 21
1.5416066849291381
 31
0.0
  0
LINE
  5
17A0
  8
0
 10
46.6047779950135066
 20
1.3832260949292161
 30
0.0
 11
47.2854523894133365
 21
1.383226094929102
 31
0.0
  0
LINE
  5
17A1
  8
0
 10
47.6900989891645679
 20
-0.2541876766708926
 30
0.0
 11
46.2001313953645933
 21
-0.2541876766708926
 31
0.0
  0
LINE
  5
17A2
  8
0
 10
46.1954155789634626
 20
-0.1506008369707787
 30
0.0
 11
47.6948148054642971
 21
-0.1506008369708924
 31
0.0
  0
LINE
  5
17A3
  8
0
 10
46.4262402072999194
 20
0.2159812022292327
 30
0.0
 11
47.4639901771278474
 21
0.2159812022292327
 31
0.0
  0
LINE
  5
17A4
  8
0
 10
46.2201151562134385
 20
-0.3038107055708421
 30
0.0
 11
47.6701152282138665
 21
-0.3038107055708421
 31
0.0
  0
ARC
  5
17A5
  8
0
 10
46.4121431262646311
 20
0.3561431905637162
 30
0.0
 40
0.1050028234908213
 50
102.8458025671867944
 51
254.9899892845079137
  0
ARC
  5
17A6
  8
0
 10
46.5270111495973779
 20
1.5393130759180329
 30
0.0
 40
0.0578042319682059
 50
317.9858841028830057
 51
2.2740311494335521
  0
ARC
  5
17A7
  8
0
 10
46.0038080286070965
 20
1.5512069245012181
 30
0.0
 40
0.5810411463659979
 50
359.0532886646342945
 51
29.2786784477070192
  0
ARC
  5
17A8
  8
0
 10
46.5804964000411985
 20
1.384413867205085
 30
0.0
 40
0.0243106284866596
 50
357.1995194106864915
 51
71.2873579549077903
  0
LINE
  5
17A9
  8
0
 10
46.6047779950135066
 20
1.383226094929102
 30
0.0
 11
46.6128018896141896
 21
1.291526076729115
 31
0.0
  0
ARC
  5
17AA
  8
0
 10
46.6388499532139704
 20
1.2900965755534219
 30
0.0
 40
0.0260872591684042
 50
176.8587950079536029
 51
276.141204968191289
  0
ARC
  5
17AB
  8
0
 10
46.5257526934500802
 20
-2.249091465266968
 30
0.0
 40
3.5151613110324029
 50
87.6677869722499139
 51
88.110726906840938
  0
ARC
  5
17AC
  8
0
 10
46.668651884887737
 20
1.2364900681655391
 30
0.0
 40
0.0266684740798022
 50
353.1752868820619256
 51
89.6879916036702554
  0
LINE
  5
17AD
  8
0
 10
46.6951313953640366
 20
1.2333209934291061
 30
0.0
 11
46.695102794313172
 21
0.7430311064291173
 31
0.0
  0
ARC
  5
17AE
  8
0
 10
46.4621153285483288
 20
0.502858903603328
 30
0.0
 40
0.0500001723331234
 50
91.8873806888074967
 51
179.9999201003838891
  0
LINE
  5
17AF
  8
0
 10
46.4121151562134528
 20
0.502858973329114
 30
0.0
 11
46.4121111840135327
 21
0.4877678467291445
 31
0.0
  0
ARC
  5
17B0
  8
0
 10
46.3870926890289468
 20
0.4837928359881572
 30
0.0
 40
0.0253323074688194
 50
273.8600759343884192
 51
9.0278579231979812
  0
ARC
  5
17B1
  8
0
 10
46.3693838353864578
 20
0.1967583495796132
 30
0.0
 40
0.0600180397142631
 50
18.6801359524830595
 51
74.9693321507663626
  0
ARC
  5
17B2
  8
0
 10
46.1743769751791717
 20
0.1224750643940409
 30
0.0
 40
0.2686605395427942
 50
304.8215859753933046
 51
20.3678261419795099
  0
ARC
  5
17B3
  8
0
 10
46.1482085220199281
 20
0.1614424715541416
 30
0.0
 40
0.3155939362861535
 50
278.6026824734908018
 51
304.6820281681481219
  0
ARC
  5
17B4
  8
0
 10
46.1985775264805909
 20
-0.1789173695985484
 30
0.0
 40
0.0284925241449818
 50
96.3715021432645074
 51
182.6362225258401963
  0
LINE
  5
17B5
  8
0
 10
46.1701151562132566
 20
-0.1802278698708735
 30
0.0
 11
46.1701151562132566
 21
-0.2242083433709014
 31
0.0
  0
ARC
  5
17B6
  8
0
 10
46.1988132283731119
 20
-0.2254912045151629
 30
0.0
 40
0.0287267310773942
 50
177.4404681883169985
 51
272.6300219858907781
  0
ARC
  5
17B7
  8
0
 10
46.614917582626191
 20
1.4610746636684999
 30
0.0
 40
0.0598787031633924
 50
138.6627912869959118
 51
243.6025417101486994
  0
ARC
  5
17B8
  8
0
 10
46.6676141172679735
 20
0.7408537783757217
 30
0.0
 40
0.027574773310385
 50
273.6706220069905271
 51
4.5288389422671047
  0
ARC
  5
17B9
  8
0
 10
46.7812944209294201
 20
-0.0757247680487891
 30
0.0
 40
0.7969574500144033
 50
98.072599615178973
 51
107.1563971008719989
  0
LINE
  5
17BA
  8
0
 10
46.3575747721822324
 20
-0.2541876766708926
 30
0.0
 11
46.3509660471949303
 21
-0.2811288959662219
 31
0.0
  0
ARC
  5
17BB
  8
0
 10
46.3220452325198622
 20
-0.274034573006932
 30
0.0
 40
0.0297782292918661
 50
269.3200737699417004
 51
346.2173969840022778
  0
ARC
  5
17BC
  8
0
 10
46.2201151562134385
 20
-0.8407213185158211
 30
0.0
 40
0.5369106129450393
 50
90.0
 51
110.533650148244007
  0
ARC
  5
17BD
  8
0
 10
46.1393414710163725
 20
-0.6250684748491464
 30
0.0
 40
0.3066270112668834
 50
110.533650148244007
 51
156.8890278691960987
  0
ARC
  5
17BE
  8
0
 10
46.2661036037879185
 20
-0.6791641892819511
 30
0.0
 40
0.4444493049033065
 50
156.8892188632119087
 51
168.7844276255935938
  0
LINE
  5
17BF
  8
0
 10
47.2214332751131423
 20
1.2631581468291291
 30
0.0
 11
46.6687971093132603
 21
1.2631581468291291
 31
0.0
  0
ARC
  5
17C0
  8
0
 10
45.8668247349788274
 20
-0.5972193761231886
 30
0.0
 40
0.0369575977614144
 50
173.0046798417999128
 51
196.2820448342336874
  0
ARC
  5
17C1
  8
0
 10
45.8531667894587471
 20
-0.5999885036013977
 30
0.0
 40
0.0231007663358606
 50
199.1880549224194112
 51
247.4227456089600992
  0
ARC
  5
17C2
  8
0
 10
45.8577421191349615
 20
-0.5876973372182155
 30
0.0
 40
0.0362099449779328
 50
248.2048226625256859
 51
265.6586587489604767
  0
ARC
  5
17C3
  8
0
 10
46.5551217932309882
 20
0.6571187381712705
 30
0.0
 40
0.0300066396161838
 50
107.2828906373132014
 51
179.9906661807590069
  0
LINE
  5
17C4
  8
0
 10
46.5251151540129797
 20
0.6571236264294074
 30
0.0
 11
46.5251151540129797
 21
0.5837292197832183
 31
0.0
  0
LINE
  5
17C5
  8
0
 10
46.4604685703633677
 20
0.5528319505470334
 30
0.0
 11
46.4961621387129682
 21
0.5540857153292073
 31
0.0
  0
ARC
  5
17C6
  8
0
 10
46.4951087183810188
 20
0.5840756553515183
 30
0.0
 40
0.0300084354296854
 50
272.011732412003596
 51
359.3385280974761145
  0
ARC
  5
17C7
  8
0
 10
46.5548954079819666
 20
0.6461118118614273
 30
0.0
 40
0.0298081527046271
 50
108.2106929087427005
 51
177.5208874820876019
  0
ARC
  5
17C8
  8
0
 10
46.6626011348129666
 20
0.0764844929948172
 30
0.0
 40
0.6092857880716022
 50
78.9268082470727279
 51
101.0731917529273005
  0
ARC
  5
17C9
  8
0
 10
46.9451151922129668
 20
-0.5271302052406571
 30
0.0
 40
1.212900486307076
 50
82.1578758662799942
 51
97.8421241337199916
  0
LINE
  5
17CA
  8
0
 10
46.7796222731129703
 20
0.6744269858292081
 30
0.0
 11
46.7796222731129703
 21
0.5528319505470334
 31
0.0
  0
LINE
  5
17CB
  8
0
 10
46.6693794715126415
 20
0.7133355726291635
 30
0.0
 11
47.2208509129137468
 21
0.7133355726291635
 31
0.0
  0
ARC
  5
17CC
  8
0
 10
47.4780872581613167
 20
0.3561431905637162
 30
0.0
 40
0.1050028234908213
 50
285.0100107154921147
 51
77.1541974328131914
  0
ARC
  5
17CD
  8
0
 10
47.3632192348285699
 20
1.5393130759180329
 30
0.0
 40
0.0578042319682059
 50
177.725968850566403
 51
222.0141158971169091
  0
ARC
  5
17CE
  8
0
 10
47.8864223558188371
 20
1.5512069245012181
 30
0.0
 40
0.5810411463659979
 50
150.7213215523250085
 51
180.9467113353655918
  0
ARC
  5
17CF
  8
0
 10
47.3097339843847422
 20
1.384413867205085
 30
0.0
 40
0.0243106284866596
 50
108.7126420450921955
 51
182.8004805893135085
  0
LINE
  5
17D0
  8
0
 10
47.2854523894124412
 20
1.383226094929102
 30
0.0
 11
47.2774284948117582
 21
1.291526076729115
 31
0.0
  0
ARC
  5
17D1
  8
0
 10
47.2513804312119774
 20
1.2900965755534219
 30
0.0
 40
0.0260872591684042
 50
263.858795031808711
 51
3.1412049920463461
  0
ARC
  5
17D2
  8
0
 10
47.3644776909758676
 20
-2.249091465266968
 30
0.0
 40
3.5151613110324029
 50
91.8892730931590478
 51
92.3322130277501145
  0
ARC
  5
17D3
  8
0
 10
47.2215784995382108
 20
1.2364900681655391
 30
0.0
 40
0.0266684740798022
 50
90.3120083963297446
 51
186.8247131179381029
  0
LINE
  5
17D4
  8
0
 10
47.1950989890619113
 20
1.2333209934291061
 30
0.0
 11
47.19512759011279
 21
0.7430311064291173
 31
0.0
  0
ARC
  5
17D5
  8
0
 10
47.428115055877619
 20
0.502858903603328
 30
0.0
 40
0.0500001723331234
 50
0.0000798996161075
 51
88.1126193111924891
  0
LINE
  5
17D6
  8
0
 10
47.4781152282125021
 20
0.502858973329114
 30
0.0
 11
47.4781192004124222
 21
0.4877678467291445
 31
0.0
  0
ARC
  5
17D7
  8
0
 10
47.503137695397001
 20
0.4837928359881572
 30
0.0
 40
0.0253323074688194
 50
170.9721420768019868
 51
266.1399240656115808
  0
ARC
  5
17D8
  8
0
 10
47.5208465490394829
 20
0.1967583495796132
 30
0.0
 40
0.0600180397142631
 50
105.0306678492335948
 51
161.3198640475168872
  0
ARC
  5
17D9
  8
0
 10
47.715853409246769
 20
0.1224750643940409
 30
0.0
 40
0.2686605395427942
 50
159.6321738580205079
 51
235.1784140246066954
  0
ARC
  5
17DA
  8
0
 10
47.7420218624060197
 20
0.1614424715541416
 30
0.0
 40
0.3155939362861535
 50
235.3179718318519065
 51
261.3973175265091982
  0
ARC
  5
17DB
  8
0
 10
47.6916528579453498
 20
-0.1789173695985484
 30
0.0
 40
0.0284925241449818
 50
357.3637774741595763
 51
83.6284978567354926
  0
LINE
  5
17DC
  8
0
 10
47.720115228212677
 20
-0.1802278698708735
 30
0.0
 11
47.720115228212677
 21
-0.2242083433709014
 31
0.0
  0
ARC
  5
17DD
  8
0
 10
47.6914171560528501
 20
-0.2254912045151629
 30
0.0
 40
0.0287267310773942
 50
267.3699780141092219
 51
2.5595318116829699
  0
ARC
  5
17DE
  8
0
 10
47.2753128017997568
 20
1.4610746636684999
 30
0.0
 40
0.0598787031633924
 50
296.3974582898512153
 51
41.3372087130041379
  0
ARC
  5
17DF
  8
0
 10
47.2226162671579672
 20
0.7408537783757217
 30
0.0
 40
0.027574773310385
 50
175.4711610577328997
 51
266.329377993009075
  0
ARC
  5
17E0
  8
0
 10
47.1089359634965135
 20
-0.0757247680487891
 30
0.0
 40
0.7969574500144033
 50
72.8436028991279727
 51
81.927400384821027
  0
LINE
  5
17E1
  8
0
 10
47.5326556122437083
 20
-0.2541876766708926
 30
0.0
 11
47.5392643372310104
 21
-0.2811288959662219
 31
0.0
  0
ARC
  5
17E2
  8
0
 10
47.5681851519060928
 20
-0.274034573006932
 30
0.0
 40
0.0297782292918661
 50
193.7826030159976085
 51
270.6799262300584132
  0
ARC
  5
17E3
  8
0
 10
47.6701152282125094
 20
-0.8407213185158211
 30
0.0
 40
0.5369106129450393
 50
69.4663498517560072
 51
90.0
  0
ARC
  5
17E4
  8
0
 10
47.7508889134095824
 20
-0.6250684748491464
 30
0.0
 40
0.3066270112668834
 50
23.1109721308038516
 51
69.4663498517560072
  0
ARC
  5
17E5
  8
0
 10
47.6241267806380293
 20
-0.6791641892819511
 30
0.0
 40
0.4444493049033065
 50
11.2155723744063494
 51
23.1107811367881091
  0
ARC
  5
17E6
  8
0
 10
48.0234056494471133
 20
-0.5972193761231886
 30
0.0
 40
0.0369575977614144
 50
343.7179551657662842
 51
6.995320158200081
  0
ARC
  5
17E7
  8
0
 10
48.0370635949671865
 20
-0.5999885036013977
 30
0.0
 40
0.0231007663358606
 50
292.5772543910397872
 51
340.8119450775806172
  0
ARC
  5
17E8
  8
0
 10
48.0324882652909935
 20
-0.5876973372182155
 30
0.0
 40
0.0362099449779328
 50
274.3413412510391254
 51
291.795177337474172
  0
ARC
  5
17E9
  8
0
 10
47.3351085911949525
 20
0.6571187381712705
 30
0.0
 40
0.0300066396161838
 50
0.0093338192409606
 51
72.7171093626867133
  0
LINE
  5
17EA
  8
0
 10
47.3651152304129681
 20
0.6571236264294074
 30
0.0
 11
47.3651152304129681
 21
0.5837292197832183
 31
0.0
  0
LINE
  5
17EB
  8
0
 10
47.4297618140625801
 20
0.5528319505470334
 30
0.0
 11
47.3940682457129725
 21
0.5540857153292073
 31
0.0
  0
ARC
  5
17EC
  8
0
 10
47.395121666044929
 20
0.5840756553515183
 30
0.0
 40
0.0300084354296854
 50
180.6614719025238003
 51
267.988267587996404
  0
ARC
  5
17ED
  8
0
 10
47.3353349764439812
 20
0.6461118118614273
 30
0.0
 40
0.0298081527046271
 50
2.4791125179123319
 51
71.7893070912573137
  0
ARC
  5
17EE
  8
0
 10
47.227629249612967
 20
0.0764844929948172
 30
0.0
 40
0.6092857880716022
 50
78.9268082470727279
 51
101.0731917529273005
  0
LINE
  5
17EF
  8
0
 10
47.1106081113129704
 20
0.6744269858292081
 30
0.0
 11
47.1106081113129704
 21
0.5528319505470334
 31
0.0
  0
ARC
  5
17F0
  8
0
 10
47.3262357784562226
 20
2.8607788038415989
 30
0.0
 40
0.023972278680816
 50
208.3014309643000956
 51
263.4182430470465874
  0
ARC
  5
17F1
  8
0
 10
47.2715796533208703
 20
2.627307989708203
 30
0.0
 40
0.2159869034824611
 50
22.5025794315583596
 51
76.0939082882025843
  0
ARC
  5
17F2
  8
0
 10
47.4455567228534818
 20
2.6985126862597211
 30
0.0
 40
0.0286638857939981
 50
281.391768889362595
 51
357.933927298630806
  0
ARC
  5
17F3
  8
0
 10
47.4330630972196303
 20
2.6939617536322831
 30
0.0
 40
0.0412889858866701
 50
4.8871383600991756
 51
22.8146073539723702
  0
ARC
  5
17F4
  8
0
 10
47.4374543064883767
 20
2.4932311344199891
 30
0.0
 40
0.1772615315396778
 50
91.728611810115666
 51
119.0706469141477015
  0
ARC
  5
17F5
  8
0
 10
47.3762076789554811
 20
2.6006155993124942
 30
0.0
 40
0.0536633305522446
 50
117.6247706597731053
 51
183.7603771857230868
  0
ARC
  5
17F6
  8
0
 10
47.3541465308872418
 20
2.5946418343204072
 30
0.0
 40
0.0315821581371206
 50
175.5429289769047045
 51
255.1321856495216878
  0
ARC
  5
17F7
  8
0
 10
47.3224331453763298
 20
2.4753438593646879
 30
0.0
 40
0.0918591081656502
 50
359.8433029740892266
 51
75.1066260848329108
  0
ARC
  5
17F8
  8
0
 10
47.1411100661236304
 20
2.7323140899043952
 30
0.0
 40
0.2015302475595199
 50
35.5244495614009992
 51
66.1303870108072687
  0
ARC
  5
17F9
  8
0
 10
47.0568557625157666
 20
2.5419108859819799
 30
0.0
 40
0.4097420813738026
 50
66.1303870108072687
 51
80.6624530172658467
  0
ARC
  5
17FA
  8
0
 10
46.9883464327210021
 20
2.1252615835868651
 30
0.0
 40
0.8319862873201824
 50
80.6624530172658467
 51
87.0155216608691546
  0
ARC
  5
17FB
  8
0
 10
46.9433004419567297
 20
1.175435442267303
 30
0.0
 40
1.782875094342202
 50
87.1591153056666172
 51
89.9416798468536314
  0
LINE
  5
17FC
  8
0
 10
47.4142919100092186
 20
2.4750926361291929
 30
0.0
 11
47.5576474294158871
 21
2.4654556824229021
 31
0.0
  0
ARC
  5
17FD
  8
0
 10
47.2998771056306069
 20
-1.021786851224004
 30
0.0
 40
3.496756501145295
 50
80.478418629663409
 51
85.7724934945437383
  0
ARC
  5
17FE
  8
0
 10
47.5648627456109026
 20
0.6068238563882913
 30
0.0
 40
1.846766510955778
 50
72.4302350858447284
 51
80.2281001355417658
  0
ARC
  5
17FF
  8
0
 10
47.9069961281685792
 20
1.6541231515295629
 30
0.0
 40
0.7451123840475475
 50
56.2925215930980727
 51
73.2013629073816787
  0
ARC
  5
1800
  8
0
 10
48.1395307490289923
 20
2.0081888169912809
 30
0.0
 40
0.3215403016291653
 50
28.0072088070390102
 51
55.7492940925645826
  0
ARC
  5
1801
  8
0
 10
48.2230887198149176
 20
2.0633300417564322
 30
0.0
 40
0.2220755580114054
 50
359.6899343251675987
 51
25.5693464645947302
  0
ARC
  5
1802
  8
0
 10
48.1823837601015583
 20
2.06491135046649
 30
0.0
 40
0.2627920035147452
 50
269.6717580903576845
 51
359.3931970315176159
  0
ARC
  5
1803
  8
0
 10
48.1825548721441592
 20
2.0674383294044838
 30
0.0
 40
0.2653199674977899
 50
202.0320947721698985
 51
269.6379333399921734
  0
ARC
  5
1804
  8
0
 10
47.8822937283600112
 20
1.948789042870958
 30
0.0
 40
0.0575837401924693
 50
19.3934736974859412
 51
90.6281977087696617
  0
LINE
  5
1805
  8
0
 10
47.6626690263166566
 20
1.802123659398591
 30
0.0
 11
47.4620941888671624
 21
1.802123659398591
 31
0.0
  0
ARC
  5
1806
  8
0
 10
47.4706123155098467
 20
1.943946466027699
 30
0.0
 40
0.1420783831611546
 50
232.6433815169658033
 51
266.5628440503386969
  0
ARC
  5
1807
  8
0
 10
47.2291782779035785
 20
1.9652218344917169
 30
0.0
 40
0.0726976209401335
 50
8.7328712072251644
 51
34.2145119120190628
  0
LINE
  5
1808
  8
0
 10
47.3010331112654185
 20
1.9762593619729349
 30
0.0
 11
47.3127205846655272
 21
1.9368612502728859
 31
0.0
  0
ARC
  5
1809
  8
0
 10
47.5555125923571467
 20
2.0240859945100902
 30
0.0
 40
0.2579847185510369
 50
199.761184180510611
 51
228.4513729698867905
  0
ARC
  5
180A
  8
0
 10
47.4332286149971623
 20
1.926483370509362
 30
0.0
 40
0.127665810232807
 50
283.0677245076349777
 51
346.4361121079074906
  0
ARC
  5
180B
  8
0
 10
47.0906724058178696
 20
2.0625029292314019
 30
0.0
 40
0.4952936512337761
 50
340.4228481770850863
 51
359.9566455247579029
  0
ARC
  5
180C
  8
0
 10
47.2532452294596013
 20
2.0838582580151939
 30
0.0
 40
0.3334295312307347
 50
356.2632990581877266
 51
68.3044370121766633
  0
ARC
  5
180D
  8
0
 10
46.9198733507675314
 20
0.7093878689782001
 30
0.0
 40
1.7450824701313341
 50
74.8309369866346259
 51
89.1712131414950875
  0
ARC
  5
180E
  8
0
 10
47.5622564714118781
 20
2.479709211323569
 30
0.0
 40
0.0586056507468143
 50
224.0560320953009921
 51
239.5050390806758003
  0
ARC
  5
180F
  8
0
 10
47.5235894613662566
 20
2.4432102547418029
 30
0.0
 40
0.0054768176705116
 50
126.7091084390991966
 51
230.9480081077765874
  0
ARC
  5
1810
  8
0
 10
47.5515751584409117
 20
2.3694536508347031
 30
0.0
 40
0.0841673908008223
 50
89.1121940383214053
 51
111.8017723189849022
  0
ARC
  5
1811
  8
0
 10
47.581147141282301
 20
1.3936766969547021
 30
0.0
 40
1.060311117439235
 50
86.3119339264995347
 51
91.5276840746389269
  0
LINE
  5
1812
  8
0
 10
47.6493510757165168
 20
2.4517919501729919
 30
0.0
 11
47.6975091220681833
 21
2.4522878180664618
 31
0.0
  0
ARC
  5
1813
  8
0
 10
47.6608436418675225
 20
1.922131364961603
 30
0.0
 40
0.120021587320214
 50
270.8714337113822808
 51
305.1744354656606788
  0
ARC
  5
1814
  8
0
 10
47.6016543479669707
 20
1.9908452186876839
 30
0.0
 40
0.2104694182968056
 50
307.5700962910079852
 51
339.6778741305625999
  0
ARC
  5
1815
  8
0
 10
47.4253847620968116
 20
2.0596850716260802
 30
0.0
 40
0.3996889437610304
 50
339.1995255235239028
 51
0.3451292716543549
  0
ARC
  5
1816
  8
0
 10
47.4948717730450625
 20
2.066212636591688
 30
0.0
 40
0.3302203842024646
 50
359.2851303578723901
 51
28.2977407793628011
  0
ARC
  5
1817
  8
0
 10
47.407104114362177
 20
2.0030059051385529
 30
0.0
 40
0.4376882907128376
 50
30.1368476509670202
 51
63.1369578727532499
  0
ARC
  5
1818
  8
0
 10
45.7819329581672392
 20
-1.205509158701443
 30
0.0
 40
4.034318686210085
 50
63.1369578727532499
 51
64.2832227061376784
  0
ARC
  5
1819
  8
0
 10
46.8899418470715901
 20
6.8371805024505523
 30
0.0
 40
4.835330312403328
 50
270.6537854118004134
 51
273.2721749177497941
  0
ARC
  5
181A
  8
0
 10
47.2063204090478976
 20
1.2850680781624979
 30
0.0
 40
0.7257896353923536
 50
83.4354329328717057
 51
93.189497968983261
  0
LINE
  5
181B
  8
0
 10
47.8816623860654218
 20
2.0063693219729992
 30
0.0
 11
47.821501768299342
 21
2.0063693219729992
 31
0.0
  0
ENDSEC
  0
EOF
