  0
SECTION
  2
HEADER
  9
$ACADVER
  1
AC1009
  9
$INSBASE
 10
21.47944814601356
 20
10.735519786808631
 30
0.0
  9
$EXTMIN
 10
19.979305830240119
 20
10.724921787300779
 30
0.0
  9
$EXTMAX
 10
22.97931233385988
 20
14.31890017015634
 30
0.0
  9
$LIMMIN
 10
0.0
 20
0.0
  9
$LIMMAX
 10
22.0
 20
17.0
  9
$ORTHOMODE
 70
     0
  9
$REGENMODE
 70
     1
  9
$FILLMODE
 70
     1
  9
$QTEXTMODE
 70
     0
  9
$MIRRTEXT
 70
     0
  9
$DRAGMODE
 70
     2
  9
$LTSCALE
 40
1.2099999999999991
  9
$OSMODE
 70
    47
  9
$ATTMODE
 70
     1
  9
$TEXTSIZE
 40
0.2
  9
$TRACEWID
 40
0.05
  9
$TEXTSTYLE
  7
STANDARD
  9
$CLAYER
  8
0
  9
$CELTYPE
  6
BYLAYER
  9
$CECOLOR
 62
   256
  9
$DIMSCALE
 40
1.0
  9
$DIMASZ
 40
0.1875
  9
$DIMEXO
 40
0.0625
  9
$DIMDLI
 40
0.8359999999999999
  9
$DIMRND
 40
0.0
  9
$DIMDLE
 40
0.0
  9
$DIMEXE
 40
0.125
  9
$DIMTP
 40
0.0
  9
$DIMTM
 40
0.0
  9
$DIMTXT
 40
0.15625
  9
$DIMCEN
 40
0.198
  9
$DIMTSZ
 40
0.0
  9
$DIMTOL
 70
     0
  9
$DIMLIM
 70
     0
  9
$DIMTIH
 70
     1
  9
$DIMTOH
 70
     1
  9
$DIMSE1
 70
     0
  9
$DIMSE2
 70
     0
  9
$DIMTAD
 70
     0
  9
$DIMZIN
 70
     0
  9
$DIMBLK
  1

  9
$DIMASO
 70
     1
  9
$DIMSHO
 70
     1
  9
$DIMPOST
  1

  9
$DIMAPOST
  1

  9
$DIMALT
 70
     0
  9
$DIMALTD
 70
     2
  9
$DIMALTF
 40
25.399999999999999
  9
$DIMLFAC
 40
1.0
  9
$DIMTOFL
 70
     0
  9
$DIMTVP
 40
0.0
  9
$DIMTIX
 70
     0
  9
$DIMSOXD
 70
     0
  9
$DIMSAH
 70
     0
  9
$DIMBLK1
  1

  9
$DIMBLK2
  1

  9
$DIMSTYLE
  2
STANDARD
  9
$DIMCLRD
 70
     0
  9
$DIMCLRE
 70
     0
  9
$DIMCLRT
 70
     0
  9
$DIMTFAC
 40
1.0
  9
$DIMGAP
 40
0.09
  9
$LUNITS
 70
     2
  9
$LUPREC
 70
     4
  9
$SKETCHINC
 40
0.1
  9
$FILLETRAD
 40
0.0
  9
$AUNITS
 70
     0
  9
$AUPREC
 70
     0
  9
$MENU
  1
.
  9
$ELEVATION
 40
0.0
  9
$PELEVATION
 40
0.0
  9
$THICKNESS
 40
0.0
  9
$LIMCHECK
 70
     0
  9
$BLIPMODE
 70
     0
  9
$CHAMFERA
 40
0.0
  9
$CHAMFERB
 40
0.0
  9
$SKPOLY
 70
     0
  9
$TDCREATE
 40
2457327.7368691438
  9
$TDUPDATE
 40
2457415.7382073728
  9
$TDINDWG
 40
1.8262014005
  9
$TDUSRTIMER
 40
1.8262014005
  9
$USRTIMER
 70
     1
  9
$ANGBASE
 50
0.0
  9
$ANGDIR
 70
     0
  9
$PDMODE
 70
     0
  9
$PDSIZE
 40
0.3125
  9
$PLINEWID
 40
0.0
  9
$COORDS
 70
     0
  9
$SPLFRAME
 70
     0
  9
$SPLINETYPE
 70
     6
  9
$SPLINESEGS
 70
     8
  9
$ATTDIA
 70
     1
  9
$ATTREQ
 70
     1
  9
$HANDLING
 70
     1
  9
$HANDSEED
  5
E77
  9
$SURFTAB1
 70
     6
  9
$SURFTAB2
 70
     6
  9
$SURFTYPE
 70
     6
  9
$SURFU
 70
     6
  9
$SURFV
 70
     6
  9
$UCSNAME
  2

  9
$UCSORG
 10
0.0
 20
0.0
 30
0.0
  9
$UCSXDIR
 10
1.0
 20
0.0
 30
0.0
  9
$UCSYDIR
 10
0.0
 20
1.0
 30
0.0
  9
$PUCSNAME
  2

  9
$PUCSORG
 10
0.0
 20
0.0
 30
0.0
  9
$PUCSXDIR
 10
1.0
 20
0.0
 30
0.0
  9
$PUCSYDIR
 10
0.0
 20
1.0
 30
0.0
  9
$USERI1
 70
     0
  9
$USERI2
 70
     0
  9
$USERI3
 70
     0
  9
$USERI4
 70
     0
  9
$USERI5
 70
     0
  9
$USERR1
 40
0.0
  9
$USERR2
 40
0.0
  9
$USERR3
 40
0.0
  9
$USERR4
 40
0.0
  9
$USERR5
 40
0.0
  9
$WORLDVIEW
 70
     1
  9
$SHADEDGE
 70
     3
  9
$SHADEDIF
 70
    70
  9
$TILEMODE
 70
     1
  9
$MAXACTVP
 70
    48
  9
$PLIMCHECK
 70
     0
  9
$PEXTMIN
 10
1.0000000000000000E+020
 20
1.0000000000000000E+020
 30
1.0000000000000000E+020
  9
$PEXTMAX
 10
-1.0000000000000000E+020
 20
-1.0000000000000000E+020
 30
-1.0000000000000000E+020
  9
$PLIMMIN
 10
0.0
 20
0.0
  9
$PLIMMAX
 10
12.0
 20
9.0
  9
$UNITMODE
 70
     0
  9
$VISRETAIN
 70
     1
  9
$PLINEGEN
 70
     0
  9
$PSLTSCALE
 70
     1
  0
ENDSEC
  0
SECTION
  2
TABLES
  0
TABLE
  2
VPORT
 70
     1
  0
VPORT
  2
*ACTIVE
 70
     0
 10
0.0
 20
0.0
 11
1.0
 21
1.0
 12
29.233217931551671
 22
9.3369307072088041
 13
0.0
 23
0.0
 14
1.0
 24
1.0
 15
0.0
 25
0.0
 16
0.0
 26
0.0
 36
1.0
 17
0.0
 27
0.0
 37
0.0
 40
28.244967229960061
 41
2.1244343891402711
 42
50.0
 43
0.0
 44
0.0
 50
0.0
 51
0.0
 71
     0
 72
   100
 73
     1
 74
     1
 75
     0
 76
     0
 77
     0
 78
     0
  0
ENDTAB
  0
TABLE
  2
LTYPE
 70
     1
  0
LTYPE
  2
CONTINUOUS
 70
     0
  3
Solid line
 72
    65
 73
     0
 40
0.0
  0
ENDTAB
  0
TABLE
  2
LAYER
 70
     2
  0
LAYER
  2
0
 70
     0
 62
     7
  6
CONTINUOUS
  0
LAYER
  2
DEFPOINTS
 70
     0
 62
     7
  6
CONTINUOUS
  0
ENDTAB
  0
TABLE
  2
STYLE
 70
     1
  0
STYLE
  2
STANDARD
 70
     0
 40
0.0
 41
0.8
 50
0.0
 71
     0
 42
0.2
  3
txt
  4

  0
ENDTAB
  0
TABLE
  2
VIEW
 70
     2
  0
ENDTAB
  0
TABLE
  2
UCS
 70
     0
  0
ENDTAB
  0
TABLE
  2
APPID
 70
     5
  0
APPID
  2
ACAD
 70
     0
  0
APPID
  2
ACAD_MLEADERVER
 70
     0
  0
APPID
  2
ACAD_NAV_VCDISPLAY
 70
     0
  0
APPID
  2
ACAD_EXEMPT_FROM_CAD_STANDARDS
 70
     0
  0
APPID
  2
ACDBATTR
 70
     0
  0
ENDTAB
  0
TABLE
  2
DIMSTYLE
 70
     1
  0
DIMSTYLE
  2
STANDARD
 70
     0
  3

  4

  5

  6

  7

 40
1.0
 41
0.1875
 42
0.0625
 43
0.38
 44
0.125
 45
0.0
 46
0.0
 47
1.5
 48
1.5
140
0.15625
141
0.09
142
0.0
143
25.399999999999999
144
1.0
145
0.0
146
1.0
147
0.09
 71
     0
 72
     0
 73
     1
 74
     1
 75
     0
 76
     0
 77
     0
 78
     4
170
     0
171
     2
172
     0
173
     0
174
     0
175
     0
176
     0
177
     0
178
     0
  0
ENDTAB
  0
ENDSEC
  0
SECTION
  2
BLOCKS
  0
BLOCK
  8
0
  2
$MODEL_SPACE
 70
     0
 10
0.0
 20
0.0
 30
0.0
  3
$MODEL_SPACE
  1

  0
ENDBLK
  5
21
  8
0
  0
BLOCK
 67
     1
  8
0
  2
$PAPER_SPACE
 70
     0
 10
0.0
 20
0.0
 30
0.0
  3
$PAPER_SPACE
  1

  0
ENDBLK
  5
1D
 67
     1
  8
0
  0
ENDSEC
  0
SECTION
  2
ENTITIES
  0
ARC
  5
7F4
  8
0
 10
21.05908618626356
 20
12.89942313040863
 30
0.0
 40
0.06
 50
318.84055955630009
 51
1.4974862934999831
  0
ARC
  5
7F5
  8
0
 10
21.446412965322491
 20
13.523776075514769
 30
0.0
 40
0.7951240946415754
 50
87.620006522332886
 51
104.9414642275167
  0
ARC
  5
7F6
  8
0
 10
21.296349948189778
 20
14.07931109535204
 30
0.0
 40
0.2196878039416587
 50
104.483850540709
 51
143.65069015018759
  0
ARC
  5
7F7
  8
0
 10
21.09828728109466
 20
14.22092923765913
 30
0.0
 40
0.0240097638078714
 50
276.50374763639792
 51
331.6946295716258
  0
ARC
  5
7F8
  8
0
 10
21.152944315288369
 20
13.987395215505741
 30
0.0
 40
0.2160169386741886
 50
103.9194530194446
 51
157.47340157810279
  0
ARC
  5
7F9
  8
0
 10
20.976039138524449
 20
14.056724353351481
 30
0.0
 40
0.0263148936705303
 50
149.31336334744961
 51
262.63187450911818
  0
ARC
  5
7FA
  8
0
 10
20.986904130991281
 20
13.85193800627669
 30
0.0
 40
0.178315427874941
 50
61.054131158591623
 51
91.939457224368155
  0
ARC
  5
7FB
  8
0
 10
21.048323217071601
 20
13.96043191557518
 30
0.0
 40
0.0536633305522446
 50
356.23962281427572
 51
62.375229340214233
  0
ARC
  5
7FC
  8
0
 10
21.070428937291581
 20
13.954445828922371
 30
0.0
 40
0.0315386822535713
 50
284.73059695908819
 51
4.4856804981407157
  0
ARC
  5
7FD
  8
0
 10
21.102405169291011
 20
13.834897166133389
 30
0.0
 40
0.0922635062600787
 50
104.0134813436002
 51
179.82368125907411
  0
ARC
  5
7FF
  8
0
 10
20.553992134432139
 20
12.90259879079959
 30
0.0
 40
0.5650758471498552
 50
359.83698982432378
 51
30.66156846842933
  0
ARC
  5
800
  8
0
 10
21.114798898805009
 20
12.74373821234315
 30
0.0
 40
0.0243222496073809
 50
357.19654822077842
 51
71.249211425513039
  0
LINE
  5
801
  8
0
 10
21.139095907363561
 20
12.74254687030863
 30
0.0
 11
21.147139263122209
 21
12.65084661370863
 31
0.0
  0
ARC
  5
802
  8
0
 10
21.173235056907789
 20
12.649469468949841
 30
0.0
 40
0.0261321063251027
 50
176.97915086656479
 51
275.9799174653088
  0
ARC
  5
803
  8
0
 10
21.164936006995159
 20
12.066136890998861
 30
0.0
 40
0.5574516349105571
 50
85.477140950878237
 51
88.867119703788063
  0
ARC
  5
804
  8
0
 10
21.203761431773241
 20
12.596418612942889
 30
0.0
 40
0.025946862025441
 50
351.62971683273838
 51
78.589066266823636
  0
LINE
  5
805
  8
0
 10
21.229431906963558
 20
12.592641530408629
 30
0.0
 11
21.229431906963558
 21
12.10235149000863
 31
0.0
  0
ARC
  5
806
  8
0
 10
21.203600748400358
 20
12.09873853781315
 30
0.0
 40
0.0260826029430291
 50
270.20972814381707
 51
7.9621919712341667
  0
ARC
  5
807
  8
0
 10
21.337729408850659
 20
11.18498884784718
 30
0.0
 40
0.8977293928219078
 50
98.586503973619728
 51
106.6489349777444
  0
ARC
  5
808
  8
0
 10
21.089431916458821
 20
12.01643688518387
 30
0.0
 40
0.0300000094952854
 50
107.2735648025326
 51
180.00007577410449
  0
LINE
  5
809
  8
0
 10
21.05943190696356
 20
12.016436845508631
 30
0.0
 11
21.05943190696356
 21
11.942395712708629
 31
0.0
  0
ARC
  5
80A
  8
0
 10
21.0294371510406
 20
11.94339133346838
 30
0.0
 40
0.0300112752740551
 50
271.94986552016718
 51
358.09886997900912
  0
ARC
  5
80B
  8
0
 10
20.996412553651162
 20
11.862194586353221
 30
0.0
 40
0.0499806489613454
 50
91.978573812159638
 51
180.01728256351291
  0
LINE
  5
80C
  8
0
 10
20.946431906963561
 20
11.86217951030863
 30
0.0
 11
20.946431906963561
 21
11.84712841304845
 31
0.0
  0
ARC
  5
80D
  8
0
 10
20.921103530276319
 20
11.843361748718049
 30
0.0
 40
0.0256010684641619
 50
274.46948438749439
 51
8.3701039986497499
  0
ARC
  5
80E
  8
0
 10
20.946343614468049
 20
11.71547000519336
 30
0.0
 40
0.1049830281742599
 50
102.8284452866702
 51
255.04360308027319
  0
ARC
  5
80F
  8
0
 10
20.903716204039618
 20
11.556089018120449
 30
0.0
 40
0.0599999996521204
 50
18.675747436208621
 51
74.265370792851755
  0
ARC
  5
810
  8
0
 10
20.707946479486111
 20
11.483146611851611
 30
0.0
 40
0.268895186522181
 50
304.84528143108059
 51
20.042534963860881
  0
ARC
  5
811
  8
0
 10
20.68684734707929
 20
11.50239098320824
 30
0.0
 40
0.2968115559942613
 50
278.30096856757842
 51
306.06546847428478
  0
ARC
  5
812
  8
0
 10
20.730215930764661
 20
11.182663976370369
 30
0.0
 40
0.0260301773566478
 50
91.138124819708594
 51
187.88578549047361
  0
LINE
  5
813
  8
0
 10
20.70443190696356
 20
11.179092667108639
 30
0.0
 11
20.704479747586209
 21
11.135112193608631
 31
0.0
  0
ARC
  5
814
  8
0
 10
20.730380613422671
 20
11.131019558137361
 30
0.0
 40
0.0262222141738507
 50
171.0208444506755
 51
278.88771379931188
  0
ARC
  5
815
  8
0
 10
20.732093575379469
 20
10.64753437141645
 30
0.0
 40
0.4079932734412252
 50
89.676342638030974
 51
134.287816164394
  0
ARC
  5
816
  8
0
 10
20.713887406892979
 20
10.70600259619482
 30
0.0
 40
0.3545177674003536
 50
138.7843036229379
 51
169.3479764146592
  0
ARC
  5
817
  8
0
 10
20.39081196985466
 20
10.76225849882468
 30
0.0
 40
0.0270443117545709
 50
159.90054602555719
 51
278.47970763790659
  0
ARC
  5
819
  8
0
 10
21.899777627563559
 20
12.89942313040863
 30
0.0
 40
0.06
 50
178.5025137065
 51
221.15944044369999
  0
ARC
  5
81A
  8
0
 10
21.512450848504621
 20
13.523776075514769
 30
0.0
 40
0.7951240946415754
 50
75.058535772483296
 51
92.379993477667114
  0
ARC
  5
81B
  8
0
 10
21.66251386563734
 20
14.07931109535204
 30
0.0
 40
0.2196878039416587
 50
36.349309849812563
 51
75.516149459290943
  0
ARC
  5
81C
  8
0
 10
21.860738599194882
 20
14.221075691826959
 30
0.0
 40
0.0242219527591579
 50
208.4286006770885
 51
262.87481531939801
  0
ARC
  5
81D
  8
0
 10
21.806163950231259
 20
13.98757226712709
 30
0.0
 40
0.2157233188813618
 50
22.508035625838531
 51
76.169097140903503
  0
ARC
  5
81E
  8
0
 10
21.982195705648628
 20
14.056698464465811
 30
0.0
 40
0.026870662280314
 50
261.0352723032741
 51
30.049655680841092
  0
ARC
  5
81F
  8
0
 10
21.971987758795869
 20
13.85186314703811
 30
0.0
 40
0.1783945241701102
 50
88.065908765885425
 51
118.9421233138267
  0
ARC
  5
820
  8
0
 10
21.91054059675551
 20
13.96043191557518
 30
0.0
 40
0.0536633305522446
 50
117.6247706597857
 51
183.76037718572431
  0
ARC
  5
821
  8
0
 10
21.888479446041089
 20
13.9544581498524
 30
0.0
 40
0.0315821555562823
 50
175.5429272822492
 51
255.13219815507671
  0
ARC
  5
822
  8
0
 10
21.856976032624129
 20
13.83547548581657
 30
0.0
 40
0.0915005051682595
 50
359.81565624643127
 51
75.182941374425823
  0
ARC
  5
824
  8
0
 10
22.40754065069854
 20
12.902285603768171
 30
0.0
 40
0.5677440072367314
 50
149.461244798801
 51
180.13063767660651
  0
ARC
  5
825
  8
0
 10
21.844064915022109
 20
12.74373821234315
 30
0.0
 40
0.0243222496073809
 50
108.75078857448671
 51
182.80345177922149
  0
LINE
  5
826
  8
0
 10
21.819767906463561
 20
12.74254687030863
 30
0.0
 11
21.811724550704909
 21
12.65084661370863
 31
0.0
  0
ARC
  5
827
  8
0
 10
21.785628756919319
 20
12.649469468949841
 30
0.0
 40
0.0261321063251027
 50
264.02008253469108
 51
3.020849133435207
  0
ARC
  5
828
  8
0
 10
21.79392780683196
 20
12.066136890998861
 30
0.0
 40
0.5574516349105571
 50
91.132880296211937
 51
94.522859049121763
  0
ARC
  5
829
  8
0
 10
21.75510238205387
 20
12.596418612942889
 30
0.0
 40
0.025946862025441
 50
101.41093373317609
 51
188.37028316726159
  0
LINE
  5
82A
  8
0
 10
21.72943190686356
 20
12.592641530408629
 30
0.0
 11
21.72943190686356
 21
12.10235149000863
 31
0.0
  0
ARC
  5
82B
  8
0
 10
21.75526306542675
 20
12.09873853781315
 30
0.0
 40
0.0260826029430291
 50
172.0378080287658
 51
269.79027185618293
  0
ARC
  5
82C
  8
0
 10
21.621134404976459
 20
11.18498884784718
 30
0.0
 40
0.8977293928219078
 50
73.351065022255355
 51
81.413496026380287
  0
ARC
  5
82D
  8
0
 10
21.869431897368301
 20
12.01643688518387
 30
0.0
 40
0.0300000094952854
 50
359.99992422589548
 51
72.726435197467325
  0
LINE
  5
82E
  8
0
 10
21.899431906863558
 20
12.016436845508631
 30
0.0
 11
21.899431906863558
 21
11.942395712708629
 31
0.0
  0
ARC
  5
82F
  8
0
 10
21.929448958200439
 20
11.94341441286147
 30
0.0
 40
0.0300343323708473
 50
181.94372278926991
 51
267.96964760629118
  0
ARC
  5
831
  8
0
 10
21.96245004611065
 20
11.862194092012651
 30
0.0
 40
0.0499818628799369
 50
359.98328453438751
 51
88.008915274392137
  0
LINE
  5
832
  8
0
 10
22.012431906863561
 20
11.86217951030863
 30
0.0
 11
22.012431906863561
 21
11.84712841304845
 31
0.0
  0
ARC
  5
833
  8
0
 10
22.037760283550799
 20
11.843361748718049
 30
0.0
 40
0.0256010684641619
 50
171.6298960013502
 51
265.53051561250572
  0
ARC
  5
834
  8
0
 10
22.012526279477751
 20
11.715465731639661
 30
0.0
 40
0.1049773303255991
 50
284.95379283498562
 51
77.21041531339398
  0
ARC
  5
835
  8
0
 10
22.0551476097875
 20
11.556089018120449
 30
0.0
 40
0.0599999996521204
 50
105.7346292071482
 51
161.32425256379139
  0
ARC
  5
836
  8
0
 10
22.250917334341011
 20
11.483146611851611
 30
0.0
 40
0.268895186522181
 50
159.9574650361391
 51
235.15471856891949
  0
ARC
  5
837
  8
0
 10
22.271782753329809
 20
11.50197150257998
 30
0.0
 40
0.2963348874164084
 50
233.9233113233096
 51
261.72789130899878
  0
ARC
  5
838
  8
0
 10
22.228600336689532
 20
11.182650071820319
 30
0.0
 40
0.0260753743201978
 50
352.1588120026716
 51
88.797131575241451
  0
LINE
  5
839
  8
0
 10
22.254431906863559
 20
11.179092667108639
 30
0.0
 11
22.25438406624091
 21
11.135112193608631
 31
0.0
  0
ARC
  5
83A
  8
0
 10
22.22848320040444
 20
11.131019558137361
 30
0.0
 40
0.0262222141738507
 50
261.112286200688
 51
8.9791555493244317
  0
LINE
  5
83B
  8
0
 10
22.224420694863522
 20
11.05549852745863
 30
0.0
 11
20.73439827086354
 21
11.05552113535863
 31
0.0
  0
ARC
  5
83C
  8
0
 10
22.226857257193899
 20
10.647671343320971
 30
0.0
 40
0.4078344626899976
 50
45.70749845161226
 51
90.342309395917056
  0
ARC
  5
83D
  8
0
 10
22.244976406934139
 20
10.70600259619482
 30
0.0
 40
0.3545177674003536
 50
10.652023585340761
 51
41.215696377062073
  0
ARC
  5
83E
  8
0
 10
22.568051843972459
 20
10.76225849882468
 30
0.0
 40
0.0270443117545709
 50
261.52029236209341
 51
20.09945397444282
  0
LINE
  5
83F
  8
0
 10
22.067031316363561
 20
11.10511219360863
 30
0.0
 11
22.073750924059208
 21
11.078233762657501
 31
0.0
  0
ARC
  5
840
  8
0
 10
22.102855199063558
 20
11.085509831408631
 30
0.0
 40
0.029999999999996
 50
194.03624346799359
 51
270.00000000000512
  0
LINE
  5
841
  8
0
 10
20.923132859697692
 20
11.81788198881765
 30
0.0
 11
22.035765240196881
 21
11.817838533628199
 31
0.0
  0
LINE
  5
842
  8
0
 10
20.994696667132931
 20
11.912145778108631
 30
0.0
 11
21.964176881798679
 21
11.912145778108631
 31
0.0
  0
ARC
  5
844
  8
0
 10
21.47943190664796
 20
10.860528850323041
 30
0.0
 40
1.184826053105156
 50
81.970847317094311
 51
98.02915279399528
  0
ARC
  5
845
  8
0
 10
21.196917887040019
 20
11.413185001738279
 30
0.0
 40
0.6314924439586001
 50
79.32086049949811
 51
100.6791395903187
  0
ARC
  5
849
  8
0
 10
21.761945923553061
 20
11.413184629275751
 30
0.0
 40
0.63149281020619
 50
79.320866460505812
 51
100.6791331946493
  0
ARC
  5
84B
  8
0
 10
21.089168415659859
 20
12.00548594027666
 30
0.0
 40
0.0297366315008241
 50
108.1673010745465
 51
179.83533583971601
  0
ARC
  5
84C
  8
0
 10
21.867887804027362
 20
12.00417270712785
 30
0.0
 40
0.0315750973179304
 50
2.5388848428465378
 51
69.458506809158393
  0
LINE
  5
84D
  8
0
 10
21.313939026063561
 20
12.03374020490863
 30
0.0
 11
21.317888617563561
 21
12.005571405487871
 31
0.0
  0
LINE
  5
84E
  8
0
 10
21.317888617563561
 20
12.005571405487871
 30
0.0
 11
21.318242407063561
 21
11.91241705010863
 31
0.0
  0
LINE
  5
84F
  8
0
 10
21.640625651185172
 20
11.91213890489114
 30
0.0
 11
21.640975196263561
 21
12.005571401208631
 31
0.0
  0
LINE
  5
850
  8
0
 10
21.640975196263561
 20
12.005571401208631
 30
0.0
 11
21.644924787763561
 21
12.03374020490863
 31
0.0
  0
LINE
  5
851
  8
0
 10
20.394799900363552
 20
10.735509831408629
 30
0.0
 11
22.564096391663561
 21
10.73552974220863
 31
0.0
  0
LINE
  5
853
  8
0
 10
20.972664414063551
 20
14.030626750708629
 30
0.0
 11
20.980869321663558
 21
14.03015128550863
 31
0.0
  0
LINE
  5
854
  8
0
 10
20.980869321663558
 20
14.03015128550863
 30
0.0
 11
21.97799449216356
 21
14.03015128550863
 31
0.0
  0
LINE
  5
855
  8
0
 10
21.08417429596356
 20
13.924778714358631
 30
0.0
 11
21.880375786043029
 21
13.9239333514136
 31
0.0
  0
LINE
  5
856
  8
0
 10
21.147139263122209
 20
12.65084661370863
 30
0.0
 11
21.811724564958681
 21
12.650846343584361
 31
0.0
  0
ARC
  5
857
  8
0
 10
21.899777627583688
 20
12.899423130408611
 30
0.0
 40
0.0600000000201219
 50
178.50251370699809
 51
221.15944046294931
  0
ARC
  5
858
  8
0
 10
21.809431907165131
 20
12.820444330962671
 30
0.0
 40
0.059999999812673
 50
296.54556226525301
 51
41.15944053154081
  0
ARC
  5
859
  8
0
 10
21.05908618624343
 20
12.899423130408611
 30
0.0
 40
0.0600000000201219
 50
318.84055953705069
 51
1.4974862930019159
  0
ARC
  5
85A
  8
0
 10
21.149431906661981
 20
12.820444330962671
 30
0.0
 40
0.059999999812673
 50
138.84055946845919
 51
243.45443773474699
  0
LINE
  5
85B
  8
0
 10
21.11906569458209
 20
12.900991116973151
 30
0.0
 11
21.839797237614651
 21
12.90099111590863
 31
0.0
  0
LINE
  5
85C
  8
0
 10
21.139095907363561
 20
12.74254687030863
 30
0.0
 11
21.819767906463561
 21
12.74254687030863
 31
0.0
  0
LINE
  5
85D
  8
0
 10
20.891832497463561
 20
11.10511219360863
 30
0.0
 11
20.88511288976791
 21
11.078233762657501
 31
0.0
  0
ARC
  5
85E
  8
0
 10
20.85600861476356
 20
11.085509831408631
 30
0.0
 40
0.0299999999999986
 50
269.99999999999818
 51
345.96375653200062
  0
LINE
  5
85F
  8
0
 10
20.734431906963561
 20
11.10511219360863
 30
0.0
 11
20.891832497463561
 21
11.10511219360863
 31
0.0
  0
LINE
  5
860
  8
0
 10
22.224431906963559
 20
11.10511219360863
 30
0.0
 11
22.067031316363561
 21
11.10511219360863
 31
0.0
  0
LINE
  5
861
  8
0
 10
20.729698900663561
 20
11.208689018408631
 30
0.0
 11
22.229147723263559
 21
11.208719700008629
 31
0.0
  0
LINE
  5
86A
  8
0
 10
21.010142099900001
 20
13.835181092099999
 30
0.0
 11
21.948476064200001
 21
13.835181092099999
 31
0.0
  0
LINE
  5
86B
  8
0
 10
21.948476064200001
 20
13.835181092099999
 30
0.0
 11
22.09179548545
 21
13.82521195645
 31
0.0
  0
ARC
  5
86C
  8
0
 10
21.834025161663099
 20
10.33796942280301
 30
0.0
 40
3.496756501145295
 50
80.478418629674735
 51
85.772493494542147
  0
ARC
  5
86D
  8
0
 10
22.09901080164374
 20
11.966580130415361
 30
0.0
 40
1.8467665109557789
 50
72.430235085831683
 51
80.228100135545304
  0
ARC
  5
86E
  8
0
 10
22.441144184201331
 20
13.01387942555669
 30
0.0
 40
0.7451123840475475
 50
56.292521593107701
 51
73.20136290737409
  0
ARC
  5
86F
  8
0
 10
22.673678805062451
 20
13.367945091018409
 30
0.0
 40
0.3215403016291653
 50
28.007208807032569
 51
55.749294092576818
  0
ARC
  5
870
  8
0
 10
22.757236775848469
 20
13.423086315783481
 30
0.0
 40
0.2220755580114054
 50
359.68993432516697
 51
25.56934646459138
  0
ARC
  5
871
  8
0
 10
22.719215869364199
 20
13.421923132637939
 30
0.0
 40
0.260093215501558
 50
268.82591601570522
 51
359.99149463919991
  0
ARC
  5
872
  8
0
 10
22.713043403771831
 20
13.421703341065649
 30
0.0
 40
0.259894357577426
 50
201.21252002395451
 51
271.38145247512227
  0
ARC
  5
873
  8
0
 10
22.41644178439444
 20
13.308545316898019
 30
0.0
 40
0.0575837401924693
 50
19.393473697490052
 51
90.628197708780732
  0
LINE
  5
874
  8
0
 10
22.415823349999609
 20
13.366124423473339
 30
0.0
 11
22.331186916484061
 21
13.371121899860251
 31
0.0
  0
ARC
  5
875
  8
0
 10
21.931066849222301
 20
13.414275710020039
 30
0.0
 40
0.4024404546723185
 50
333.91086752902009
 51
1.0833217725887201
  0
ARC
  5
876
  8
0
 10
22.181343087085281
 20
13.279924933768379
 30
0.0
 40
0.119053994414161
 50
277.49338577412681
 51
339.01811581527812
  0
LINE
  5
877
  8
0
 10
22.196869125524231
 20
13.16188766966776
 30
0.0
 11
21.996278658308348
 21
13.16188453059876
 31
0.0
  0
ARC
  5
878
  8
0
 10
22.00473413018074
 20
13.30365515848092
 30
0.0
 40
0.1420246394368459
 50
232.64014902808279
 51
266.57214718911263
  0
ARC
  5
879
  8
0
 10
21.424044102425441
 20
18.197938551407859
 30
0.0
 40
4.8363330683731824
 50
270.65473551091731
 51
273.27203921704893
  0
ARC
  5
87A
  8
0
 10
21.740468465081602
 20
12.64482435218954
 30
0.0
 40
0.7257896353923535
 50
83.435432932873226
 51
93.189497968975431
  0
ARC
  5
88A
  8
0
 10
21.763326333938171
 20
13.32497810851878
 30
0.0
 40
0.0726976209401335
 50
8.7328712072256902
 51
34.214511912029728
  0
LINE
  5
88B
  8
0
 10
21.835171507980121
 20
13.336078336319931
 30
0.0
 11
21.846868640699999
 21
13.2966175243
 31
0.0
  0
ARC
  5
88C
  8
0
 10
22.089660648391
 20
13.383842268537119
 30
0.0
 40
0.2579847185510369
 50
199.7611841805174
 51
228.4513729699006
  0
ARC
  5
88D
  8
0
 10
21.967390532973809
 20
13.286231831908919
 30
0.0
 40
0.1276505026948318
 50
283.06293202625
 51
346.43806176872022
  0
ARC
  5
88E
  8
0
 10
21.624820461852689
 20
13.422259203258481
 30
0.0
 40
0.4952936512337761
 50
340.42284817707957
 51
359.95664552475711
  0
ARC
  5
88F
  8
0
 10
21.787393288792099
 20
13.44361453601373
 30
0.0
 40
0.3334295263214633
 50
356.26331534273078
 51
68.304437286450153
  0
ARC
  5
890
  8
0
 10
21.537064011281782
 20
12.660059747801609
 30
0.0
 40
1.1554286633088211
 50
71.135307679118696
 51
92.865164555434248
  0
ARC
  5
891
  8
0
 10
21.979495869845849
 20
13.42822306030088
 30
0.0
 40
0.3539962553993958
 50
358.97400839663038
 51
57.238404936598151
  0
ARC
  5
892
  8
0
 10
19.81899535776833
 20
9.9499035212192233
 30
0.0
 40
4.4486425694030496
 50
58.08133185323814
 51
59.652165045875449
  0
ARC
  5
893
  8
0
 10
22.096404527445639
 20
13.839465485350621
 30
0.0
 40
0.0586056507468143
 50
224.0560320953081
 51
239.50503908066409
  0
ARC
  5
894
  8
0
 10
22.057737517399548
 20
13.80296652876884
 30
0.0
 40
0.0054768176705116
 50
126.70910843909169
 51
230.9480081077877
  0
ARC
  5
895
  8
0
 10
22.085723214474339
 20
13.729209924861779
 30
0.0
 40
0.0841673908008223
 50
89.112194038326535
 51
111.80177231897871
  0
ARC
  5
896
  8
0
 10
22.115828388521692
 20
12.61697761753743
 30
0.0
 40
1.196736211845469
 50
86.758419150745311
 51
91.379031913906658
  0
LINE
  5
897
  8
0
 10
22.183499131749631
 20
13.811548224199999
 30
0.0
 11
22.230705667950001
 21
13.8120342947
 31
0.0
  0
LINE
  5
8A1
  8
0
 10
21.1232408666
 20
13.335254455099999
 30
0.0
 11
21.835174434700001
 21
13.335254455099999
 31
0.0
  0
LINE
  5
8CB
  8
0
 10
21.010142099900001
 20
13.835181092099999
 30
0.0
 11
20.866822678649999
 21
13.82521195645
 31
0.0
  0
ARC
  5
8CC
  8
0
 10
21.1245930024369
 20
10.33796942280301
 30
0.0
 40
3.496756501145295
 50
94.227506505457882
 51
99.521581370325436
  0
ARC
  5
8CD
  8
0
 10
20.859607362456259
 20
11.966580130415361
 30
0.0
 40
1.8467665109557789
 50
99.771899864454539
 51
107.5697649141685
  0
ARC
  5
8CE
  8
0
 10
20.517473979898671
 20
13.01387942555669
 30
0.0
 40
0.7451123840475475
 50
106.798637092626
 51
123.70747840689209
  0
ARC
  5
8CF
  8
0
 10
20.284939359037551
 20
13.367945091018409
 30
0.0
 40
0.3215403016291653
 50
124.2507059074231
 51
151.9927911929673
  0
ARC
  5
8D0
  8
0
 10
20.20138138825153
 20
13.423086315783481
 30
0.0
 40
0.2220755580114054
 50
154.43065353540851
 51
180.310065674833
  0
ARC
  5
8D1
  8
0
 10
20.239402294735811
 20
13.421923132637939
 30
0.0
 40
0.260093215501558
 50
180.00850536080009
 51
271.1740839842949
  0
ARC
  5
8D2
  8
0
 10
20.245574760328161
 20
13.42170334106566
 30
0.0
 40
0.2598943575774373
 50
268.61854752488011
 51
338.7874799760441
  0
ARC
  5
8D3
  8
0
 10
20.54217637970557
 20
13.308545316898019
 30
0.0
 40
0.0575837401924693
 50
89.371802291219367
 51
160.60652630250991
  0
LINE
  5
8D4
  8
0
 10
20.54279481410039
 20
13.366124423473339
 30
0.0
 11
20.627431247615949
 21
13.371121899860251
 31
0.0
  0
ARC
  5
8D6
  8
0
 10
20.777275077014728
 20
13.279924933768379
 30
0.0
 40
0.119053994414161
 50
200.98188418472199
 51
262.50661422587308
  0
LINE
  5
8D7
  8
0
 10
20.761749038575768
 20
13.16188766966776
 30
0.0
 11
20.96233950579165
 21
13.16188453059876
 31
0.0
  0
ARC
  5
8D8
  8
0
 10
20.95388403391927
 20
13.30365515848092
 30
0.0
 40
0.1420246394368459
 50
273.42785281088749
 51
307.35985097191713
  0
ARC
  5
8D9
  8
0
 10
21.534574061674562
 20
18.197938551407859
 30
0.0
 40
4.8363330683731824
 50
266.72796078295107
 51
269.34526448908281
  0
ARC
  5
8DA
  8
0
 10
21.218149699018412
 20
12.64482435218954
 30
0.0
 40
0.7257896353923535
 50
86.810502031024512
 51
96.564567067126674
  0
ARC
  5
8DB
  8
0
 10
21.195291830161828
 20
13.32497810851878
 30
0.0
 40
0.0726976209401335
 50
145.78548808797041
 51
171.2671287927742
  0
LINE
  5
8DC
  8
0
 10
21.123446656119881
 20
13.336078336319931
 30
0.0
 11
21.1117495234
 21
13.2966175243
 31
0.0
  0
ARC
  5
8DD
  8
0
 10
20.868957515708999
 20
13.383842268537119
 30
0.0
 40
0.2579847185510369
 50
311.54862703009951
 51
340.23881581948262
  0
ARC
  5
8DE
  8
0
 10
20.9912276311262
 20
13.286231831908919
 30
0.0
 40
0.1276505026948318
 50
193.56193823127981
 51
256.93706797374978
  0
ARC
  5
8DF
  8
0
 10
21.33379770224731
 20
13.422259203258481
 30
0.0
 40
0.4952936512337761
 50
180.04335447524289
 51
199.5771518229204
  0
ARC
  5
8E0
  8
0
 10
21.17122487530791
 20
13.44361453601373
 30
0.0
 40
0.3334295263214633
 50
111.6955627135499
 51
183.73668465726919
  0
ARC
  5
8E1
  8
0
 10
21.421554152818221
 20
12.660059747801609
 30
0.0
 40
1.1554286633088211
 50
87.134835444565837
 51
108.8646923208814
  0
ARC
  5
8E2
  8
0
 10
20.97912229425415
 20
13.42822306030088
 30
0.0
 40
0.3539962553993958
 50
122.7615950634018
 51
181.02599160336959
  0
ARC
  5
8E3
  8
0
 10
23.139622806331669
 20
9.9499035212192233
 30
0.0
 40
4.4486425694030496
 50
120.34783495412471
 51
121.9186681467619
  0
ARC
  5
8E4
  8
0
 10
20.86221363665436
 20
13.839465485350621
 30
0.0
 40
0.0586056507468143
 50
300.49496091933599
 51
315.94396790469199
  0
ARC
  5
8E5
  8
0
 10
20.90088064670045
 20
13.80296652876884
 30
0.0
 40
0.0054768176705116
 50
309.0519918922123
 51
53.290891560908342
  0
ARC
  5
8E6
  8
0
 10
20.87289494962566
 20
13.729209924861779
 30
0.0
 40
0.0841673908008223
 50
68.198227681021223
 51
90.887805961673322
  0
ARC
  5
8E7
  8
0
 10
20.842789775578311
 20
12.61697761753743
 30
0.0
 40
1.196736211845469
 50
88.620968086093455
 51
93.241580849254618
  0
LINE
  5
8E8
  8
0
 10
20.775119032350371
 20
13.811548224199999
 30
0.0
 11
20.727912496150012
 21
13.8120342947
 31
0.0
  0
ARC
  5
8E9
  8
0
 10
21.026887133350321
 20
13.414152681438869
 30
0.0
 40
0.4017773495971949
 50
178.9077020285535
 51
206.22602872568859
  0
LINE
  5
8EA
  8
0
 10
20.96056906616851
 20
11.5752685421
 30
0.0
 11
21.99794946891657
 21
11.574316126479021
 31
0.0
  0
LINE
  5
93D
  8
0
 10
21.1008725879
 20
14.1970356047
 30
0.0
 11
21.857734165099998
 21
14.197040792799999
 31
0.0
  0
ATTDEF
  5
94E
  8
DEFPOINTS
 10
21.474436141458138
 20
10.72992178730078
 30
0.0
 40
0.001
  1
K-98068-3M
  3

  2
MODELNUMBER
 70
     0
1001
ACDBATTR
1070
     0
1070
     1
  0
ATTDEF
  5
94F
  8
DEFPOINTS
 10
21.474436141458138
 20
10.72825512063412
 30
0.0
 40
0.001
  1
ARTIFACTS
  3

  2
TRADENAME
 70
     0
1001
ACDBATTR
1070
     0
1070
     1
  0
ATTDEF
  5
950
  8
DEFPOINTS
 10
21.474436141458138
 20
10.72658845396745
 30
0.0
 40
0.001
  1
BATHROOM SINK FAUCET HANDLES
  3

  2
PRODUCT
 70
     0
1001
ACDBATTR
1070
     0
1070
     1
  0
ATTDEF
  5
951
  8
DEFPOINTS
 10
21.474436141458138
 20
10.724921787300779
 30
0.0
 40
0.001
  1
METAL
  3

  2
MATERIAL
 70
     0
1001
ACDBATTR
1070
     0
1070
     1
  0
LINE
  5
BCE
  8
0
 10
20.994696667132938
 20
11.912145778108631
 30
0.0
 11
21.030458284824221
 21
11.913397435266059
 31
0.0
  0
LINE
  5
BCF
  8
0
 10
21.92839448674248
 20
11.91339566228176
 30
0.0
 11
21.964186615463561
 21
11.912145778108631
 31
0.0
  0
ENDSEC
  0
EOF
