  0
SECTION
  2
HEADER
  9
$ACADVER
  1
AC1009
  9
$INSBASE
 10
10.96046545784999
 20
10.735486589700001
 30
0.0
  9
$EXTMIN
 10
5.5981579354652826
 20
10.72693410839519
 30
0.0
  9
$EXTMAX
 10
16.322740502034708
 20
14.31886697304771
 30
0.0
  9
$LIMMIN
 10
0.0
 20
0.0
  9
$LIMMAX
 10
22.0
 20
17.0
  9
$ORTHOMODE
 70
     1
  9
$REGENMODE
 70
     1
  9
$FILLMODE
 70
     1
  9
$QTEXTMODE
 70
     0
  9
$MIRRTEXT
 70
     0
  9
$DRAGMODE
 70
     2
  9
$LTSCALE
 40
1.2099999999999991
  9
$OSMODE
 70
    47
  9
$ATTMODE
 70
     1
  9
$TEXTSIZE
 40
0.001
  9
$TRACEWID
 40
0.05
  9
$TEXTSTYLE
  7
STANDARD
  9
$CLAYER
  8
0
  9
$CELTYPE
  6
BYLAYER
  9
$CECOLOR
 62
   256
  9
$DIMSCALE
 40
1.0
  9
$DIMASZ
 40
0.1875
  9
$DIMEXO
 40
0.0625
  9
$DIMDLI
 40
0.8359999999999999
  9
$DIMRND
 40
0.0
  9
$DIMDLE
 40
0.0
  9
$DIMEXE
 40
0.125
  9
$DIMTP
 40
0.0
  9
$DIMTM
 40
0.0
  9
$DIMTXT
 40
0.15625
  9
$DIMCEN
 40
0.198
  9
$DIMTSZ
 40
0.0
  9
$DIMTOL
 70
     0
  9
$DIMLIM
 70
     0
  9
$DIMTIH
 70
     1
  9
$DIMTOH
 70
     1
  9
$DIMSE1
 70
     0
  9
$DIMSE2
 70
     0
  9
$DIMTAD
 70
     0
  9
$DIMZIN
 70
     0
  9
$DIMBLK
  1

  9
$DIMASO
 70
     1
  9
$DIMSHO
 70
     1
  9
$DIMPOST
  1

  9
$DIMAPOST
  1

  9
$DIMALT
 70
     0
  9
$DIMALTD
 70
     2
  9
$DIMALTF
 40
25.399999999999999
  9
$DIMLFAC
 40
1.0
  9
$DIMTOFL
 70
     0
  9
$DIMTVP
 40
0.0
  9
$DIMTIX
 70
     0
  9
$DIMSOXD
 70
     0
  9
$DIMSAH
 70
     0
  9
$DIMBLK1
  1

  9
$DIMBLK2
  1

  9
$DIMSTYLE
  2
STANDARD
  9
$DIMCLRD
 70
     0
  9
$DIMCLRE
 70
     0
  9
$DIMCLRT
 70
     0
  9
$DIMTFAC
 40
1.0
  9
$DIMGAP
 40
0.09
  9
$LUNITS
 70
     2
  9
$LUPREC
 70
     4
  9
$SKETCHINC
 40
0.1
  9
$FILLETRAD
 40
0.0
  9
$AUNITS
 70
     0
  9
$AUPREC
 70
     0
  9
$MENU
  1
.
  9
$ELEVATION
 40
0.0
  9
$PELEVATION
 40
0.0
  9
$THICKNESS
 40
0.0
  9
$LIMCHECK
 70
     0
  9
$BLIPMODE
 70
     0
  9
$CHAMFERA
 40
0.0
  9
$CHAMFERB
 40
0.0
  9
$SKPOLY
 70
     0
  9
$TDCREATE
 40
2457327.7368691438
  9
$TDUPDATE
 40
2457415.7386493292
  9
$TDINDWG
 40
1.8179058217999999
  9
$TDUSRTIMER
 40
1.8179058217999999
  9
$USRTIMER
 70
     1
  9
$ANGBASE
 50
0.0
  9
$ANGDIR
 70
     0
  9
$PDMODE
 70
     0
  9
$PDSIZE
 40
0.3125
  9
$PLINEWID
 40
0.0
  9
$COORDS
 70
     0
  9
$SPLFRAME
 70
     0
  9
$SPLINETYPE
 70
     6
  9
$SPLINESEGS
 70
     8
  9
$ATTDIA
 70
     1
  9
$ATTREQ
 70
     1
  9
$HANDLING
 70
     1
  9
$HANDSEED
  5
1956
  9
$SURFTAB1
 70
     6
  9
$SURFTAB2
 70
     6
  9
$SURFTYPE
 70
     6
  9
$SURFU
 70
     6
  9
$SURFV
 70
     6
  9
$UCSNAME
  2

  9
$UCSORG
 10
0.0
 20
0.0
 30
0.0
  9
$UCSXDIR
 10
1.0
 20
0.0
 30
0.0
  9
$UCSYDIR
 10
0.0
 20
1.0
 30
0.0
  9
$PUCSNAME
  2

  9
$PUCSORG
 10
0.0
 20
0.0
 30
0.0
  9
$PUCSXDIR
 10
1.0
 20
0.0
 30
0.0
  9
$PUCSYDIR
 10
0.0
 20
1.0
 30
0.0
  9
$USERI1
 70
     0
  9
$USERI2
 70
     0
  9
$USERI3
 70
     0
  9
$USERI4
 70
     0
  9
$USERI5
 70
     0
  9
$USERR1
 40
0.0
  9
$USERR2
 40
0.0
  9
$USERR3
 40
0.0
  9
$USERR4
 40
0.0
  9
$USERR5
 40
0.0
  9
$WORLDVIEW
 70
     1
  9
$SHADEDGE
 70
     3
  9
$SHADEDIF
 70
    70
  9
$TILEMODE
 70
     1
  9
$MAXACTVP
 70
    48
  9
$PLIMCHECK
 70
     0
  9
$PEXTMIN
 10
1.0000000000000000E+020
 20
1.0000000000000000E+020
 30
1.0000000000000000E+020
  9
$PEXTMAX
 10
-1.0000000000000000E+020
 20
-1.0000000000000000E+020
 30
-1.0000000000000000E+020
  9
$PLIMMIN
 10
0.0
 20
0.0
  9
$PLIMMAX
 10
12.0
 20
9.0
  9
$UNITMODE
 70
     0
  9
$VISRETAIN
 70
     1
  9
$PLINEGEN
 70
     0
  9
$PSLTSCALE
 70
     1
  0
ENDSEC
  0
SECTION
  2
TABLES
  0
TABLE
  2
VPORT
 70
     1
  0
VPORT
  2
*ACTIVE
 70
     0
 10
0.0
 20
0.0
 11
1.0
 21
1.0
 12
28.771403582502071
 22
5.079346164240448
 13
0.0
 23
0.0
 14
1.0
 24
1.0
 15
0.0
 25
0.0
 16
0.0
 26
0.0
 36
1.0
 17
0.0
 27
0.0
 37
0.0
 40
48.369142511531678
 41
2.1244343891402711
 42
50.0
 43
0.0
 44
0.0
 50
0.0
 51
0.0
 71
     0
 72
   100
 73
     1
 74
     1
 75
     0
 76
     0
 77
     0
 78
     0
  0
ENDTAB
  0
TABLE
  2
LTYPE
 70
     1
  0
LTYPE
  2
CONTINUOUS
 70
     0
  3
Solid line
 72
    65
 73
     0
 40
0.0
  0
ENDTAB
  0
TABLE
  2
LAYER
 70
     2
  0
LAYER
  2
0
 70
     0
 62
     7
  6
CONTINUOUS
  0
LAYER
  2
DEFPOINTS
 70
     0
 62
     7
  6
CONTINUOUS
  0
ENDTAB
  0
TABLE
  2
STYLE
 70
     1
  0
STYLE
  2
STANDARD
 70
     0
 40
0.0
 41
0.8
 50
0.0
 71
     0
 42
0.001
  3
txt
  4

  0
ENDTAB
  0
TABLE
  2
VIEW
 70
     2
  0
ENDTAB
  0
TABLE
  2
UCS
 70
     0
  0
ENDTAB
  0
TABLE
  2
APPID
 70
     5
  0
APPID
  2
ACAD
 70
     0
  0
APPID
  2
ACAD_MLEADERVER
 70
     0
  0
APPID
  2
ACAD_NAV_VCDISPLAY
 70
     0
  0
APPID
  2
ACAD_EXEMPT_FROM_CAD_STANDARDS
 70
     0
  0
APPID
  2
ACDBATTR
 70
     0
  0
ENDTAB
  0
TABLE
  2
DIMSTYLE
 70
     1
  0
DIMSTYLE
  2
STANDARD
 70
     0
  3

  4

  5

  6

  7

 40
1.0
 41
0.1875
 42
0.0625
 43
0.38
 44
0.125
 45
0.0
 46
0.0
 47
1.5
 48
1.5
140
0.15625
141
0.09
142
0.0
143
25.399999999999999
144
1.0
145
0.0
146
1.0
147
0.09
 71
     0
 72
     0
 73
     1
 74
     1
 75
     0
 76
     0
 77
     0
 78
     4
170
     0
171
     2
172
     0
173
     0
174
     0
175
     0
176
     0
177
     0
178
     0
  0
ENDTAB
  0
ENDSEC
  0
SECTION
  2
BLOCKS
  0
BLOCK
  8
0
  2
$MODEL_SPACE
 70
     2
 10
0.0
 20
0.0
 30
0.0
  3
$MODEL_SPACE
  1

  0
ENDBLK
  5
21
  8
0
  0
BLOCK
 67
     1
  8
0
  2
$PAPER_SPACE
 70
     0
 10
0.0
 20
0.0
 30
0.0
  3
$PAPER_SPACE
  1

  0
ENDBLK
  5
1D
 67
     1
  8
0
  0
ENDSEC
  0
SECTION
  2
ENTITIES
  0
ARC
  5
4EF
  8
0
 10
6.5401034980999988
 20
12.8993899333
 30
0.0
 40
0.06
 50
318.84055955630009
 51
1.4974862934999991
  0
ARC
  5
72E
  8
0
 10
6.9274302771589333
 20
13.52374287840613
 30
0.0
 40
0.7951240946415754
 50
87.620006522332815
 51
104.9414642275167
  0
ARC
  5
72F
  8
0
 10
6.77736726002622
 20
14.07927789824341
 30
0.0
 40
0.2196878039416587
 50
104.483850540709
 51
143.65069015018759
  0
ARC
  5
730
  8
0
 10
6.579304592931102
 20
14.2208960405505
 30
0.0
 40
0.0240097638078714
 50
276.50374763639797
 51
331.69462957162591
  0
ARC
  5
738
  8
0
 10
6.6339616271248119
 20
13.987362018397111
 30
0.0
 40
0.2160169386741886
 50
103.9194530194446
 51
157.47340157810279
  0
ARC
  5
73B
  8
0
 10
6.456938149579325
 20
14.05663352706353
 30
0.0
 40
0.0262427992630517
 50
149.07334570123419
 51
262.87189215534022
  0
ARC
  5
73C
  8
0
 10
6.4773129465510664
 20
13.876086829605571
 30
0.0
 40
0.1526487563811989
 50
59.745795016352311
 51
85.614306818141927
  0
ARC
  5
73D
  8
0
 10
6.5293405289080484
 20
13.96039871846655
 30
0.0
 40
0.0536633305522446
 50
356.23962281427572
 51
62.375229340214247
  0
ARC
  5
73E
  8
0
 10
6.5514462491280172
 20
13.95441263181374
 30
0.0
 40
0.0315386822535713
 50
284.7305969590883
 51
4.4856804981407619
  0
ARC
  5
73F
  8
0
 10
6.5832555938416162
 20
13.83512140232674
 30
0.0
 40
0.0919733766106448
 50
103.9514450621548
 51
179.96281562715151
  0
ARC
  5
740
  8
0
 10
6.4888464624985476
 20
12.132061043902929
 30
0.0
 40
1.7031217900019591
 50
89.918056580418323
 51
114.1452027723229
  0
ARC
  5
741
  8
0
 10
5.9023887223861777
 20
13.40226201492206
 30
0.0
 40
0.3045560739985359
 50
111.2141506118996
 51
176.3058818545108
  0
ARC
  5
742
  8
0
 10
5.846147998997778
 20
13.409544366032261
 30
0.0
 40
0.2479900635324953
 50
177.14774370536659
 51
267.04286935451472
  0
LINE
  5
743
  8
0
 10
5.833143031108027
 20
13.16190677855263
 30
0.0
 11
5.9562223940000001
 21
13.162002259199999
 31
0.0
  0
ARC
  5
744
  8
0
 10
5.9404959954794858
 20
13.407368832715299
 30
0.0
 40
0.2458700368264994
 50
273.66726992498741
 51
341.4464179460237
  0
ARC
  5
745
  8
0
 10
6.2162607882506586
 20
13.321747870303851
 30
0.0
 40
0.0432296668775165
 50
96.928344015367898
 51
170.10453379640271
  0
ARC
  5
746
  8
0
 10
6.2358301620161773
 20
13.44394321840128
 30
0.0
 40
0.0830649359151444
 50
252.64027622852561
 51
267.1964638569869
  0
LINE
  5
748
  8
0
 10
6.2317673386000001
 20
13.3609777012
 30
0.0
 11
6.2692627720200234
 21
13.36091999623434
 31
0.0
  0
ARC
  5
749
  8
0
 10
6.2990533548999963
 20
13.364458522999991
 30
0.0
 40
0.029999999999996
 50
186.7738574563908
 51
256.7724348495322
  0
ARC
  5
74B
  8
0
 10
6.2182979057876073
 20
12.967920187433981
 30
0.0
 40
0.3746923072657701
 50
31.185446023708991
 51
78.626488224544616
  0
ARC
  5
74C
  8
0
 10
6.0053651779804227
 20
12.89908702486143
 30
0.0
 40
0.5947207712369699
 50
0.1802434113936613
 51
26.230044381484301
  0
ARC
  5
752
  8
0
 10
6.5958162106414511
 20
12.743705015234511
 30
0.0
 40
0.0243222496073809
 50
357.19654822077842
 51
71.249211425513124
  0
LINE
  5
753
  8
0
 10
6.6201132191999994
 20
12.7425136732
 30
0.0
 11
6.6281565749586502
 21
12.6508134166
 31
0.0
  0
ARC
  5
754
  8
0
 10
6.6542523687442348
 20
12.6494362718412
 30
0.0
 40
0.0261321063251027
 50
176.97915086656479
 51
275.9799174653088
  0
ARC
  5
756
  8
0
 10
6.6459533188316007
 20
12.066103693890231
 30
0.0
 40
0.5574516349105571
 50
85.47714095087828
 51
88.867119703788106
  0
ARC
  5
757
  8
0
 10
6.6847787436096819
 20
12.596385415834259
 30
0.0
 40
0.025946862025441
 50
351.62971683273838
 51
78.589066266823693
  0
LINE
  5
758
  8
0
 10
6.7104492188
 20
12.592608333299999
 30
0.0
 11
6.7104492188
 21
12.1023182929
 31
0.0
  0
ARC
  5
75B
  8
0
 10
6.6846180602368053
 20
12.09870534070452
 30
0.0
 40
0.0260826029430291
 50
270.20972814381719
 51
7.9621919712341507
  0
ARC
  5
75C
  8
0
 10
6.818746720687102
 20
11.18495565073855
 30
0.0
 40
0.8977293928219078
 50
98.58650397361977
 51
106.6489349777445
  0
ARC
  5
766
  8
0
 10
6.57044922829526
 20
12.01640368807524
 30
0.0
 40
0.0300000094952854
 50
107.2735648025327
 51
180.00007577410449
  0
LINE
  5
767
  8
0
 10
6.5404492188000001
 20
12.016403648400001
 30
0.0
 11
6.5404492188000001
 21
11.942362515599999
 31
0.0
  0
ARC
  5
768
  8
0
 10
6.5104544628770409
 20
11.94335813635975
 30
0.0
 40
0.0300112752740551
 50
271.94986552016712
 51
358.09886997900912
  0
ARC
  5
76A
  8
0
 10
6.4774492187999977
 20
11.8621463132
 30
0.0
 40
0.0499999999999941
 50
91.999999999998167
 51
180.00000000000611
  0
LINE
  5
76B
  8
0
 10
6.4274492187999988
 20
11.8621463132
 30
0.0
 11
6.4274492187999988
 21
11.84709521593982
 31
0.0
  0
ARC
  5
76C
  8
0
 10
6.40212084211276
 20
11.843328551609421
 30
0.0
 40
0.0256010684641619
 50
274.46948438749428
 51
8.3701039986497694
  0
ARC
  5
76E
  8
0
 10
6.4273609263044937
 20
11.71543680808473
 30
0.0
 40
0.1049830281742599
 50
102.8284452866702
 51
255.04360308027319
  0
ARC
  5
76F
  8
0
 10
6.3847335158760581
 20
11.556055821011819
 30
0.0
 40
0.0599999996521204
 50
18.67574743620856
 51
74.265370792851741
  0
ARC
  5
770
  8
0
 10
6.1889637913225464
 20
11.483113414742981
 30
0.0
 40
0.268895186522181
 50
304.84528143108059
 51
20.042534963860842
  0
ARC
  5
771
  8
0
 10
6.1678646589157289
 20
11.5023577860996
 30
0.0
 40
0.2968115559942613
 50
278.30096856757848
 51
306.0654684742849
  0
ARC
  5
772
  8
0
 10
6.2112332426010983
 20
11.182630779261739
 30
0.0
 40
0.0260301773566478
 50
91.138124819708551
 51
187.88578549047361
  0
LINE
  5
773
  8
0
 10
6.1854492187999988
 20
11.179059470000009
 30
0.0
 11
6.185497059422647
 21
11.135078996500001
 31
0.0
  0
ARC
  5
774
  8
0
 10
6.2113979252591127
 20
11.130986361028731
 30
0.0
 40
0.0262222141738507
 50
171.02084445067561
 51
278.887713799312
  0
ARC
  5
777
  8
0
 10
6.2131108872159126
 20
10.647501174307809
 30
0.0
 40
0.4079932734412306
 50
89.676342638029993
 51
134.28781616439301
  0
ARC
  5
778
  8
0
 10
6.1949047187294184
 20
10.705969399086189
 30
0.0
 40
0.3545177674003536
 50
138.78430362293781
 51
169.3479764146592
  0
ARC
  5
779
  8
0
 10
5.871829281691098
 20
10.76222530171605
 30
0.0
 40
0.0270443117545709
 50
159.90054602555711
 51
278.47970763790659
  0
ARC
  5
77A
  8
0
 10
7.4934492187000004
 20
11.715430752
 30
0.0
 40
0.105
 50
285.0037965544999
 51
77.160411593099965
  0
ARC
  5
77B
  8
0
 10
7.3807949394000003
 20
12.8993899333
 30
0.0
 40
0.06
 50
178.5025137065
 51
221.15944044369999
  0
ARC
  5
77C
  8
0
 10
6.9934681603410658
 20
13.52374287840613
 30
0.0
 40
0.7951240946415754
 50
75.058535772483282
 51
92.379993477667199
  0
ARC
  5
77D
  8
0
 10
7.1435311774737791
 20
14.07927789824341
 30
0.0
 40
0.2196878039416587
 50
36.34930984981245
 51
75.516149459290943
  0
ARC
  5
77E
  8
0
 10
7.3415938445688971
 20
14.2208960405505
 30
0.0
 40
0.0240097638078714
 50
208.3053704283742
 51
263.49625236360203
  0
ARC
  5
77F
  8
0
 10
7.2869368103751873
 20
13.987362018397111
 30
0.0
 40
0.2160169386741886
 50
22.526598421897202
 51
76.080546980555425
  0
ARC
  5
780
  8
0
 10
7.463213017485069
 20
14.05666526735717
 30
0.0
 40
0.026870662280314
 50
261.03527230327398
 51
30.049655680841109
  0
ARC
  5
781
  8
0
 10
7.4530050706323072
 20
13.851829949929479
 30
0.0
 40
0.1783945241701102
 50
88.065908765885354
 51
118.9421233138268
  0
ARC
  5
782
  8
0
 10
7.3915579085919507
 20
13.96039871846655
 30
0.0
 40
0.0536633305522446
 50
117.6247706597858
 51
183.76037718572431
  0
ARC
  5
783
  8
0
 10
7.369496757877533
 20
13.95442495274377
 30
0.0
 40
0.0315821555562823
 50
175.5429272822492
 51
255.13219815507671
  0
ARC
  5
784
  8
0
 10
7.337820486359548
 20
13.83518270846292
 30
0.0
 40
0.0917957145546845
 50
359.9989911209463
 51
75.120071156452198
  0
ARC
  5
785
  8
0
 10
7.4320519750014506
 20
12.132061043902929
 30
0.0
 40
1.7031217900019591
 50
65.854797227677054
 51
90.081943419581634
  0
ARC
  5
786
  8
0
 10
8.0185097151138223
 20
13.40226201492206
 30
0.0
 40
0.3045560739985359
 50
3.6941181454891359
 51
68.785849388100345
  0
ARC
  5
787
  8
0
 10
8.0747504385022211
 20
13.409544366032261
 30
0.0
 40
0.2479900635324953
 50
272.95713064548528
 51
2.852256294633404
  0
LINE
  5
788
  8
0
 10
8.0877554063919739
 20
13.16190677855263
 30
0.0
 11
7.964676043499999
 21
13.162002259199999
 31
0.0
  0
ARC
  5
789
  8
0
 10
7.9804024420205133
 20
13.407368832715299
 30
0.0
 40
0.2458700368264994
 50
198.5535820539763
 51
266.33273007501259
  0
ARC
  5
78A
  8
0
 10
7.7046376492493396
 20
13.321747870303851
 30
0.0
 40
0.0432296668775165
 50
9.8954662035973371
 51
83.071655984632073
  0
LINE
  5
78B
  8
0
 10
7.689131098899999
 20
13.3609777012
 30
0.0
 11
7.6516356654799758
 21
13.36091999623434
 31
0.0
  0
ARC
  5
78C
  8
0
 10
7.6218450826000028
 20
13.364458522999991
 30
0.0
 40
0.029999999999996
 50
283.22756515046791
 51
353.22614254360911
  0
ARC
  5
78D
  8
0
 10
7.7026005317123918
 20
12.967920187433981
 30
0.0
 40
0.3746923072657701
 50
101.3735117754553
 51
148.81455397629099
  0
ARC
  5
78E
  8
0
 10
7.9155332595195764
 20
12.89908702486143
 30
0.0
 40
0.5947207712369699
 50
153.7699556185157
 51
179.81975658860631
  0
ARC
  5
791
  8
0
 10
7.325082226858548
 20
12.743705015234511
 30
0.0
 40
0.0243222496073809
 50
108.7507885744868
 51
182.80345177922149
  0
LINE
  5
792
  8
0
 10
7.3007852182999997
 20
12.7425136732
 30
0.0
 11
7.2927418625413489
 21
12.6508134166
 31
0.0
  0
ARC
  5
793
  8
0
 10
7.2666460687557644
 20
12.6494362718412
 30
0.0
 40
0.0261321063251027
 50
264.0200825346912
 51
3.0208491334351821
  0
ARC
  5
794
  8
0
 10
7.2749451186683984
 20
12.066103693890231
 30
0.0
 40
0.5574516349105571
 50
91.132880296211937
 51
94.522859049121763
  0
ARC
  5
795
  8
0
 10
7.2361196938903172
 20
12.596385415834259
 30
0.0
 40
0.025946862025441
 50
101.41093373317619
 51
188.37028316726159
  0
LINE
  5
796
  8
0
 10
7.2104492186999991
 20
12.592608333299999
 30
0.0
 11
7.2104492186999991
 21
12.1023182929
 31
0.0
  0
ARC
  5
797
  8
0
 10
7.2362803772631938
 20
12.09870534070452
 30
0.0
 40
0.0260826029430291
 50
172.0378080287658
 51
269.7902718561827
  0
ARC
  5
798
  8
0
 10
7.1021517168128971
 20
11.18495565073855
 30
0.0
 40
0.8977293928219078
 50
73.351065022255469
 51
81.413496026380287
  0
ARC
  5
799
  8
0
 10
7.3504492092047391
 20
12.01640368807524
 30
0.0
 40
0.0300000094952854
 50
359.99992422589548
 51
72.72643519746731
  0
LINE
  5
79A
  8
0
 10
7.380449218699999
 20
12.016403648400001
 30
0.0
 11
7.380449218699999
 21
11.942362515599999
 31
0.0
  0
ARC
  5
79B
  8
0
 10
7.4104662700368831
 20
11.94338121575284
 30
0.0
 40
0.0300343323708473
 50
181.94372278927
 51
267.96964760629129
  0
LINE
  5
79C
  8
0
 10
7.409402186129781
 20
11.91336573897166
 30
0.0
 11
7.445194193599999
 21
11.9121158546
 31
0.0
  0
ARC
  5
79D
  8
0
 10
7.4434492187000014
 20
11.8621463132
 30
0.0
 40
0.0499999999999941
 50
359.99999999999392
 51
88.000000000001847
  0
LINE
  5
79E
  8
0
 10
7.4934492187000004
 20
11.8621463132
 30
0.0
 11
7.4934492187000004
 21
11.84709521593982
 31
0.0
  0
ARC
  5
79F
  8
0
 10
7.5187775953872391
 20
11.843328551609421
 30
0.0
 40
0.0256010684641619
 50
171.6298960013502
 51
265.53051561250572
  0
ARC
  5
7A0
  8
0
 10
7.4935435913141912
 20
11.715432534531031
 30
0.0
 40
0.1049773303255991
 50
284.95379283498562
 51
77.210415313393909
  0
ARC
  5
7A1
  8
0
 10
7.536164921623941
 20
11.556055821011819
 30
0.0
 40
0.0599999996521204
 50
105.7346292071482
 51
161.32425256379139
  0
ARC
  5
7A2
  8
0
 10
7.7319346461774527
 20
11.483113414742981
 30
0.0
 40
0.268895186522181
 50
159.9574650361391
 51
235.15471856891941
  0
ARC
  5
7A3
  8
0
 10
7.7528000651662534
 20
11.50193830547134
 30
0.0
 40
0.2963348874164084
 50
233.9233113233096
 51
261.72789130899878
  0
ARC
  5
7A4
  8
0
 10
7.7096176485259713
 20
11.182616874711689
 30
0.0
 40
0.0260753743201978
 50
352.1588120026716
 51
88.797131575241323
  0
LINE
  5
7A5
  8
0
 10
7.7354492187000004
 20
11.179059470000009
 30
0.0
 11
7.7354013780773521
 21
11.135078996500001
 31
0.0
  0
ARC
  5
7A6
  8
0
 10
7.7095005122408864
 20
11.130986361028731
 30
0.0
 40
0.0262222141738507
 50
261.112286200688
 51
8.9791555493243944
  0
LINE
  5
7A7
  8
0
 10
7.7054380066999641
 20
11.05546533035
 30
0.0
 11
6.2154155826999871
 21
11.05548793825
 31
0.0
  0
ARC
  5
7A9
  8
0
 10
7.7078745690303254
 20
10.647638146212319
 30
0.0
 40
0.4078344626900234
 50
45.707498451613169
 51
90.342309395915294
  0
ARC
  5
7AA
  8
0
 10
7.7259937187705807
 20
10.705969399086189
 30
0.0
 40
0.3545177674003536
 50
10.652023585340769
 51
41.215696377062109
  0
ARC
  5
7AB
  8
0
 10
8.0490691558089011
 20
10.76222530171605
 30
0.0
 40
0.0270443117545709
 50
261.52029236209341
 51
20.099453974442849
  0
ARC
  5
7B5
  8
0
 10
7.6786627294862839
 20
13.47949077221387
 30
0.0
 40
0.118974513066125
 50
275.04788804928393
 51
285.1805488835227
  0
LINE
  5
7B6
  8
0
 10
7.5480486282000001
 20
11.1050789965
 30
0.0
 11
7.5547682358956489
 21
11.078200565548871
 31
0.0
  0
ARC
  5
7B7
  8
0
 10
7.5838725108999974
 20
11.08547663429999
 30
0.0
 40
0.029999999999996
 50
194.0362434679935
 51
270.00000000000512
  0
ARC
  5
7B8
  8
0
 10
6.8450873548308557
 20
13.222199202802971
 30
0.0
 40
0.060316471807816
 50
179.35602941991559
 51
269.54741876190928
  0
ARC
  5
7B9
  8
0
 10
18.189557589564568
 20
13.442762396249449
 30
0.0
 40
11.406902404411451
 50
178.98289766374509
 51
181.10453116910099
  0
ARC
  5
7BB
  8
0
 10
6.6913896366363224
 20
13.65700587881687
 30
0.0
 40
0.0938030529850979
 50
352.79716598620229
 51
47.990658513332463
  0
ARC
  5
7BC
  8
0
 10
6.663981506650055
 20
13.563186481509231
 30
0.0
 40
0.1867398858722034
 50
61.121764811348157
 51
87.457027068196084
  0
ARC
  5
7BD
  8
0
 10
6.5545122333605406
 20
12.235819734256619
 30
0.0
 40
1.518495378785188
 50
85.552422189488794
 51
96.945000056544686
  0
ARC
  5
7BE
  8
0
 10
6.4699751193238759
 20
12.58817791091753
 30
0.0
 40
1.159236951644153
 50
94.902758029246897
 51
116.7766113424606
  0
ARC
  5
7BF
  8
0
 10
6.0485562893345302
 20
13.40421074062553
 30
0.0
 40
0.2410061310664346
 50
114.73248466471679
 51
175.79453627596911
  0
ARC
  5
7C0
  8
0
 10
6.0006072501090459
 20
13.41149003821533
 30
0.0
 40
0.1926887486587731
 50
176.90774966299969
 51
258.0614665089056
  0
ARC
  5
7C1
  8
0
 10
5.974276262670144
 20
13.392688835108389
 30
0.0
 40
0.1702580769164153
 50
265.44236193938019
 51
330.99736028750931
  0
ARC
  5
7C2
  8
0
 10
5.6805657555995923
 20
13.539972158394029
 30
0.0
 40
0.498732064781385
 50
332.5590311771137
 51
339.85539962422661
  0
ARC
  5
7C3
  8
0
 10
6.2383035206355348
 20
13.327780474244079
 30
0.0
 40
0.0982229617375882
 50
92.551455633031267
 51
155.69175082210899
  0
ARC
  5
7C4
  8
0
 10
6.3442460712807431
 20
12.04730187527227
 30
0.0
 40
1.383010816338808
 50
84.579013210638962
 51
94.575023347780814
  0
ARC
  5
7C5
  8
0
 10
6.5624403178586634
 20
14.80087747006511
 30
0.0
 40
1.3795304983976879
 50
266.36189363506429
 51
276.36452755894572
  0
LINE
  5
85B
  8
0
 10
6.4041501715341393
 20
11.81784879170902
 30
0.0
 11
7.5167825520333258
 21
11.817805336519569
 31
0.0
  0
LINE
  5
85C
  8
0
 10
6.4762572876974511
 20
11.9121351569
 30
0.0
 11
7.4451120437
 21
11.9121351569
 31
0.0
  0
LINE
  5
85D
  8
0
 10
6.5114856322408956
 20
11.91336469437609
 30
0.0
 11
6.4757042439000001
 21
11.9121158546
 31
0.0
  0
ARC
  5
85E
  8
0
 10
6.9604492184844018
 20
10.860495653214411
 30
0.0
 40
1.184826053105156
 50
81.970847317094183
 51
98.029152793995351
  0
ARC
  5
85F
  8
0
 10
6.6779351988764661
 20
11.413151804629649
 30
0.0
 40
0.6314924439586001
 50
79.320860499498124
 51
100.6791395903188
  0
ARC
  5
863
  8
0
 10
7.2429632353895084
 20
11.413151432167121
 30
0.0
 40
0.63149281020619
 50
79.320866460505769
 51
100.6791331946492
  0
ARC
  5
865
  8
0
 10
6.5701857274962974
 20
12.00545274316803
 30
0.0
 40
0.0297366315008241
 50
108.1673010745466
 51
179.83533583971601
  0
ARC
  5
866
  8
0
 10
7.3489051158638024
 20
12.00413951001922
 30
0.0
 40
0.0315750973179304
 50
2.5388848428465129
 51
69.458506809158436
  0
LINE
  5
867
  8
0
 10
6.7949563378999986
 20
12.0337070078
 30
0.0
 11
6.7989059294
 21
12.005538208379241
 31
0.0
  0
LINE
  5
868
  8
0
 10
6.7989059294
 20
12.005538208379241
 30
0.0
 11
6.7992597189000001
 21
11.912383853
 31
0.0
  0
LINE
  5
869
  8
0
 10
7.1216429630216078
 20
11.91210570778251
 30
0.0
 11
7.1219925080999991
 21
12.0055382041
 31
0.0
  0
LINE
  5
86A
  8
0
 10
7.1219925080999991
 20
12.0055382041
 30
0.0
 11
7.1259420995999996
 21
12.0337070078
 31
0.0
  0
LINE
  5
86B
  8
0
 10
5.8758172121999852
 20
10.735476634299999
 30
0.0
 11
8.0451137035000002
 21
10.7354965451
 31
0.0
  0
ARC
  5
86C
  8
0
 10
7.0757172979811482
 20
13.22218156015612
 30
0.0
 40
0.060316471807816
 50
270.44381525403639
 51
0.6352045960302573
  0
ARC
  5
86D
  8
0
 10
-4.2687190588511319
 20
13.44448040145892
 30
0.0
 40
11.406902404411451
 50
358.8867028468448
 51
1.0083363522007629
  0
ARC
  5
86E
  8
0
 10
7.229481537747426
 20
13.656964716055191
 30
0.0
 40
0.0938030529850979
 50
132.00057550261329
 51
187.19406802974359
  0
ARC
  5
86F
  8
0
 10
7.256875313487642
 20
13.563141126530979
 30
0.0
 40
0.1867398858722034
 50
92.534206947749752
 51
118.86946920459761
  0
ARC
  5
870
  8
0
 10
7.3661415046443803
 20
12.2357576465311
 30
0.0
 40
1.518495378785188
 50
83.04623395940115
 51
94.438811826457041
  0
ARC
  5
871
  8
0
 10
7.4507325268307101
 20
12.588102885288381
 30
0.0
 40
1.159236951644153
 50
63.214622673485231
 51
85.088475986698924
  0
ARC
  5
872
  8
0
 10
7.8722762010618492
 20
13.40407123035242
 30
0.0
 40
0.2410061310664346
 50
4.1966977399767726
 51
65.258749351229028
  0
ARC
  5
873
  8
0
 10
7.9202263534243436
 20
13.411343191880171
 30
0.0
 40
0.1926887486587731
 50
281.92976750704031
 51
3.083484352946078
  0
ARC
  5
874
  8
0
 10
7.9465544640596777
 20
13.3925379604764
 30
0.0
 40
0.1702580769164153
 50
208.9938737284366
 51
274.5488720765656
  0
ARC
  5
875
  8
0
 10
8.2402875013464811
 20
13.539776345716019
 30
0.0
 40
0.498732064781385
 50
200.1358343917193
 51
207.4322028388321
  0
ARC
  5
876
  8
0
 10
7.6825172785113427
 20
13.327669995296899
 30
0.0
 40
0.0982229617375882
 50
24.299483193836782
 51
87.439778382914625
  0
ARC
  5
877
  8
0
 10
7.576378821920021
 20
12.04720762002208
 30
0.0
 40
1.383010816338808
 50
85.416210668165007
 51
95.412220805306902
  0
ARC
  5
878
  8
0
 10
7.3586058619740822
 20
14.800816565278261
 30
0.0
 40
1.3795304983976879
 50
263.62670645700013
 51
273.6293403808815
  0
LINE
  5
879
  8
0
 10
7.628633163343018
 20
13.335152219769411
 30
0.0
 11
7.1376596276977082
 21
13.33517476202517
 31
0.0
  0
LINE
  5
87A
  8
0
 10
6.8446109180000221
 20
13.1618846127
 30
0.0
 11
7.0761845069586267
 21
13.161866897866471
 31
0.0
  0
LINE
  5
87C
  8
0
 10
6.453681725899993
 20
14.030593553599999
 30
0.0
 11
6.4618866334999989
 21
14.0301180884
 31
0.0
  0
LINE
  5
87D
  8
0
 10
6.4618866334999989
 20
14.0301180884
 30
0.0
 11
7.4590118040000002
 21
14.0301180884
 31
0.0
  0
LINE
  5
887
  8
0
 10
6.5651916078000001
 20
13.924745517250001
 30
0.0
 11
7.3613930978794704
 21
13.92390015430496
 31
0.0
  0
ARC
  5
88B
  8
0
 10
7.1925809456799286
 20
13.31979126926765
 30
0.0
 40
0.1107730386867146
 50
83.318132283493838
 51
106.6749801906555
  0
ARC
  5
88C
  8
0
 10
7.196284595105964
 20
13.39060993052744
 30
0.0
 40
0.0500529159901322
 50
135.15619980570921
 51
169.51441468597531
  0
LINE
  5
88D
  8
0
 10
7.1470675265775778
 20
13.399718968049999
 30
0.0
 11
7.137874759632802
 21
13.361555602386799
 31
0.0
  0
ARC
  5
88E
  8
0
 10
6.7283330539873303
 20
13.31979126926765
 30
0.0
 40
0.1107730386867146
 50
73.325019809344468
 51
96.68186771650619
  0
ARC
  5
88F
  8
0
 10
6.724629404561294
 20
13.39060993052744
 30
0.0
 40
0.0500529159901322
 50
10.48558531402464
 51
44.843800194290807
  0
LINE
  5
890
  8
0
 10
6.773846473089681
 20
13.399718968049999
 30
0.0
 11
6.7830392400344559
 21
13.361555602386799
 31
0.0
  0
LINE
  5
8D6
  8
0
 10
6.6281565749586502
 20
12.650813416599989
 30
0.0
 11
7.2927418767951258
 21
12.650813146475731
 31
0.0
  0
ARC
  5
8D7
  8
0
 10
7.3807949394201291
 20
12.899389933299981
 30
0.0
 40
0.0600000000201219
 50
178.50251370699809
 51
221.15944046294931
  0
ARC
  5
8D8
  8
0
 10
7.2904492190015757
 20
12.82041113385403
 30
0.0
 40
0.059999999812673
 50
296.54556226525301
 51
41.159440531540781
  0
ARC
  5
8D9
  8
0
 10
6.54010349807987
 20
12.899389933299981
 30
0.0
 40
0.0600000000201219
 50
318.84055953705069
 51
1.4974862930019071
  0
ARC
  5
8DA
  8
0
 10
6.6304492184984234
 20
12.82041113385403
 30
0.0
 40
0.059999999812673
 50
138.84055946845919
 51
243.45443773474699
  0
LINE
  5
8DB
  8
0
 10
6.6000830064185356
 20
12.900957919864521
 30
0.0
 11
7.3208145494510921
 21
12.9009579188
 31
0.0
  0
LINE
  5
8DC
  8
0
 10
6.6201132191999994
 20
12.7425136732
 30
0.0
 11
7.3007852182999997
 21
12.7425136732
 31
0.0
  0
LINE
  5
922
  8
0
 10
6.372849809299999
 20
11.1050789965
 30
0.0
 11
6.3661302016043502
 21
11.078200565548871
 31
0.0
  0
ARC
  5
923
  8
0
 10
6.3370259266
 20
11.085476634300001
 30
0.0
 40
0.0299999999999986
 50
269.99999999999829
 51
345.96375653200067
  0
LINE
  5
924
  8
0
 10
6.215449218799999
 20
11.105078996499991
 30
0.0
 11
6.372849809299999
 21
11.1050789965
 31
0.0
  0
LINE
  5
925
  8
0
 10
7.7054492188000001
 20
11.1050789965
 30
0.0
 11
7.5480486282000001
 21
11.1050789965
 31
0.0
  0
LINE
  5
926
  8
0
 10
6.2107162125000004
 20
11.208655821300001
 30
0.0
 11
7.7101650351000002
 21
11.208686502899999
 31
0.0
  0
LINE
  5
96E
  8
0
 10
6.4415742709672958
 20
11.57526853890028
 30
0.0
 11
7.479324167700022
 21
11.575268542100069
 31
0.0
  0
LINE
  5
A40
  8
0
 10
6.7831624155100982
 20
13.335191038191279
 30
0.0
 11
6.2921887799182041
 21
13.335213580451621
 31
0.0
  0
LINE
  5
A9B
  8
0
 10
6.5820241357000011
 20
14.197040792799999
 30
0.0
 11
7.3388743017999989
 21
14.197040792799999
 31
0.0
  0
LINE
  5
A9C
  8
0
 10
6.4889860062000002
 20
14.028288611800001
 30
0.0
 11
6.4618866334999989
 21
14.0301180884
 31
0.0
  0
LINE
  5
A9D
  8
0
 10
6.4912822365999974
 20
13.835181092099999
 30
0.0
 11
7.4296162009000017
 21
13.835181092099999
 31
0.0
  0
ATTDEF
  5
ABE
  8
DEFPOINTS
 10
10.95432637051268
 20
10.7269341083952
 30
0.0
 40
0.001
  1
METAL
  3

  2
MATERIAL
 70
     0
1001
ACDBATTR
1070
     0
1070
     1
  0
ATTDEF
  5
ABF
  8
DEFPOINTS
 10
10.95432637051268
 20
10.72860077506186
 30
0.0
 40
0.001
  1
BATHROOM SINK FAUCET HANDLES
  3

  2
PRODUCT
 70
     0
1001
ACDBATTR
1070
     0
1070
     1
  0
ATTDEF
  5
AC0
  8
DEFPOINTS
 10
10.95432637051268
 20
10.730267441728531
 30
0.0
 40
0.001
  1
ARTIFACTS
  3

  2
TRADENAME
 70
     0
1001
ACDBATTR
1070
     0
1070
     1
  0
ATTDEF
  5
AC1
  8
DEFPOINTS
 10
10.95432637051268
 20
10.731934108395199
 30
0.0
 40
0.001
  1
K-98068-3M
  3

  2
MODELNUMBER
 70
     0
1001
ACDBATTR
1070
     0
1070
     1
  0
ARC
  5
171C
  8
0
 10
14.540103498100001
 20
12.8993899333
 30
0.0
 40
0.06
 50
318.84055955629998
 51
1.4974862934999831
  0
ARC
  5
171D
  8
0
 10
14.92743027715893
 20
13.523742878406139
 30
0.0
 40
0.7951240946415754
 50
87.620006522332659
 51
104.9414642275167
  0
ARC
  5
171E
  8
0
 10
14.777367260026219
 20
14.07927789824341
 30
0.0
 40
0.2196878039416587
 50
104.4838505407088
 51
143.65069015018759
  0
ARC
  5
171F
  8
0
 10
14.5793045929311
 20
14.2208960405505
 30
0.0
 40
0.0240097638078714
 50
276.50374763639792
 51
331.6946295716258
  0
ARC
  5
1720
  8
0
 10
14.63396162712481
 20
13.987362018397111
 30
0.0
 40
0.2160169386741886
 50
103.9194530194448
 51
157.47340157810279
  0
ARC
  5
1721
  8
0
 10
14.456938149579321
 20
14.05663352706353
 30
0.0
 40
0.0262427992630517
 50
149.07334570123419
 51
262.87189215534022
  0
ARC
  5
1722
  8
0
 10
14.477312946551059
 20
13.876086829605571
 30
0.0
 40
0.1526487563811989
 50
59.745795016352361
 51
85.614306818141785
  0
ARC
  5
1723
  8
0
 10
14.529340528908049
 20
13.96039871846655
 30
0.0
 40
0.0536633305522446
 50
356.23962281427572
 51
62.37522934021441
  0
ARC
  5
1724
  8
0
 10
14.551446249128009
 20
13.95441263181374
 30
0.0
 40
0.0315386822535713
 50
284.73059695908819
 51
4.4856804981407157
  0
ARC
  5
1725
  8
0
 10
14.58325559384161
 20
13.83512140232674
 30
0.0
 40
0.0919733766106448
 50
103.9514450621549
 51
179.96281562715151
  0
ARC
  5
1726
  8
0
 10
14.48884646249855
 20
12.132061043902929
 30
0.0
 40
1.7031217900019591
 50
89.918056580418352
 51
114.145202772323
  0
ARC
  5
1727
  8
0
 10
13.90238872238618
 20
13.40226201492206
 30
0.0
 40
0.3045560739985359
 50
111.2141506118996
 51
176.3058818545108
  0
ARC
  5
1728
  8
0
 10
13.846147998997781
 20
13.409544366032261
 30
0.0
 40
0.2479900635324953
 50
177.14774370536659
 51
267.04286935451461
  0
LINE
  5
1729
  8
0
 10
13.833143031108021
 20
13.16190677855263
 30
0.0
 11
13.956222393999999
 21
13.162002259199999
 31
0.0
  0
ARC
  5
172A
  8
0
 10
13.940495995479489
 20
13.407368832715299
 30
0.0
 40
0.2458700368264994
 50
273.66726992498729
 51
341.44641794602359
  0
ARC
  5
172B
  8
0
 10
14.21626078825066
 20
13.321747870303851
 30
0.0
 40
0.0432296668775165
 50
96.928344015367713
 51
170.10453379640271
  0
ARC
  5
172C
  8
0
 10
14.23583016201618
 20
13.44394321840128
 30
0.0
 40
0.0830649359151444
 50
252.64027622852561
 51
267.19646385698678
  0
LINE
  5
172D
  8
0
 10
14.231767338599999
 20
13.3609777012
 30
0.0
 11
14.269262772020021
 21
13.36091999623434
 31
0.0
  0
ARC
  5
172E
  8
0
 10
14.299053354899989
 20
13.364458523
 30
0.0
 40
0.029999999999996
 50
186.7738574563908
 51
256.77243484953198
  0
ARC
  5
172F
  8
0
 10
14.21829790578761
 20
12.967920187433981
 30
0.0
 40
0.3746923072657701
 50
31.185446023709002
 51
78.62648822454463
  0
ARC
  5
1730
  8
0
 10
14.005365177980419
 20
12.89908702486143
 30
0.0
 40
0.5947207712369699
 50
0.1802434113936878
 51
26.230044381484301
  0
ARC
  5
1731
  8
0
 10
14.59581621064145
 20
12.74370501523452
 30
0.0
 40
0.0243222496073809
 50
357.19654822077842
 51
71.249211425513039
  0
LINE
  5
1732
  8
0
 10
14.6201132192
 20
12.7425136732
 30
0.0
 11
14.62815657495865
 21
12.6508134166
 31
0.0
  0
ARC
  5
1733
  8
0
 10
14.654252368744229
 20
12.6494362718412
 30
0.0
 40
0.0261321063251027
 50
176.97915086656471
 51
275.9799174653088
  0
ARC
  5
1734
  8
0
 10
14.6459533188316
 20
12.066103693890231
 30
0.0
 40
0.5574516349105571
 50
85.477140950878436
 51
88.867119703788262
  0
ARC
  5
1735
  8
0
 10
14.68477874360968
 20
12.596385415834259
 30
0.0
 40
0.025946862025441
 50
351.62971683273838
 51
78.589066266823806
  0
LINE
  5
1736
  8
0
 10
14.710449218799999
 20
12.592608333299999
 30
0.0
 11
14.710449218799999
 21
12.1023182929
 31
0.0
  0
ARC
  5
1737
  8
0
 10
14.684618060236801
 20
12.09870534070452
 30
0.0
 40
0.0260826029430291
 50
270.20972814381707
 51
7.9621919712341667
  0
ARC
  5
1738
  8
0
 10
14.8187467206871
 20
11.18495565073855
 30
0.0
 40
0.8977293928219078
 50
98.586503973619728
 51
106.6489349777444
  0
ARC
  5
1739
  8
0
 10
14.57044922829526
 20
12.01640368807524
 30
0.0
 40
0.0300000094952854
 50
107.2735648025327
 51
180.00007577410449
  0
LINE
  5
173A
  8
0
 10
14.540449218799999
 20
12.016403648400001
 30
0.0
 11
14.540449218799999
 21
11.942362515599999
 31
0.0
  0
ARC
  5
173B
  8
0
 10
14.510454462877041
 20
11.94335813635975
 30
0.0
 40
0.0300112752740551
 50
271.94986552016701
 51
358.09886997900912
  0
ARC
  5
173C
  8
0
 10
14.4774492188
 20
11.8621463132
 30
0.0
 40
0.0499999999999941
 50
91.999999999998167
 51
180.00000000000611
  0
LINE
  5
173D
  8
0
 10
14.4274492188
 20
11.8621463132
 30
0.0
 11
14.4274492188
 21
11.84709521593982
 31
0.0
  0
ARC
  5
173E
  8
0
 10
14.40212084211276
 20
11.843328551609421
 30
0.0
 40
0.0256010684641619
 50
274.46948438749439
 51
8.3701039986497499
  0
ARC
  5
173F
  8
0
 10
14.427360926304489
 20
11.71543680808473
 30
0.0
 40
0.1049830281742599
 50
102.8284452866702
 51
255.04360308027319
  0
ARC
  5
1740
  8
0
 10
14.384733515876061
 20
11.556055821011819
 30
0.0
 40
0.0599999996521204
 50
18.675747436208621
 51
74.265370792851755
  0
ARC
  5
1741
  8
0
 10
14.188963791322539
 20
11.483113414742981
 30
0.0
 40
0.268895186522181
 50
304.84528143108059
 51
20.042534963860881
  0
ARC
  5
1742
  8
0
 10
14.167864658915731
 20
11.5023577860996
 30
0.0
 40
0.2968115559942613
 50
278.30096856757842
 51
306.06546847428478
  0
ARC
  5
1743
  8
0
 10
14.2112332426011
 20
11.182630779261739
 30
0.0
 40
0.0260301773566478
 50
91.138124819708395
 51
187.88578549047361
  0
LINE
  5
1744
  8
0
 10
14.185449218800001
 20
11.179059470000009
 30
0.0
 11
14.18549705942265
 21
11.135078996500001
 31
0.0
  0
ARC
  5
1745
  8
0
 10
14.21139792525911
 20
11.130986361028731
 30
0.0
 40
0.0262222141738507
 50
171.0208444506755
 51
278.88771379931188
  0
ARC
  5
1746
  8
0
 10
14.21311088721591
 20
10.647501174307809
 30
0.0
 40
0.4079932734412306
 50
89.676342638029936
 51
134.28781616439289
  0
ARC
  5
1747
  8
0
 10
14.19490471872942
 20
10.705969399086189
 30
0.0
 40
0.3545177674003536
 50
138.7843036229379
 51
169.3479764146592
  0
ARC
  5
1748
  8
0
 10
13.871829281691101
 20
10.76222530171605
 30
0.0
 40
0.0270443117545709
 50
159.90054602555719
 51
278.47970763790659
  0
ARC
  5
1749
  8
0
 10
15.4934492187
 20
11.715430752
 30
0.0
 40
0.105
 50
285.00379655449979
 51
77.160411593100079
  0
ARC
  5
174A
  8
0
 10
15.380794939399999
 20
12.8993899333
 30
0.0
 40
0.06
 50
178.5025137065
 51
221.15944044369999
  0
ARC
  5
174B
  8
0
 10
14.99346816034107
 20
13.523742878406139
 30
0.0
 40
0.7951240946415754
 50
75.058535772483268
 51
92.379993477667114
  0
ARC
  5
174C
  8
0
 10
15.143531177473781
 20
14.07927789824341
 30
0.0
 40
0.2196878039416587
 50
36.349309849812563
 51
75.516149459290943
  0
ARC
  5
174D
  8
0
 10
15.3415938445689
 20
14.2208960405505
 30
0.0
 40
0.0240097638078714
 50
208.30537042837409
 51
263.49625236360203
  0
ARC
  5
174E
  8
0
 10
15.28693681037519
 20
13.987362018397111
 30
0.0
 40
0.2160169386741886
 50
22.526598421897148
 51
76.080546980555425
  0
ARC
  5
174F
  8
0
 10
15.463213017485071
 20
14.05666526735717
 30
0.0
 40
0.026870662280314
 50
261.0352723032741
 51
30.049655680841092
  0
ARC
  5
1750
  8
0
 10
15.45300507063231
 20
13.851829949929479
 30
0.0
 40
0.1783945241701102
 50
88.065908765885425
 51
118.9421233138267
  0
ARC
  5
1751
  8
0
 10
15.391557908591951
 20
13.96039871846655
 30
0.0
 40
0.0536633305522446
 50
117.6247706597858
 51
183.76037718572431
  0
ARC
  5
1752
  8
0
 10
15.369496757877529
 20
13.95442495274377
 30
0.0
 40
0.0315821555562823
 50
175.5429272822492
 51
255.13219815507671
  0
ARC
  5
1753
  8
0
 10
15.337820486359551
 20
13.83518270846292
 30
0.0
 40
0.0917957145546845
 50
359.99899112094619
 51
75.120071156452184
  0
ARC
  5
1754
  8
0
 10
15.43205197500145
 20
12.132061043902929
 30
0.0
 40
1.7031217900019591
 50
65.854797227676968
 51
90.081943419581634
  0
ARC
  5
1755
  8
0
 10
16.018509715113819
 20
13.40226201492206
 30
0.0
 40
0.3045560739985359
 50
3.6941181454891732
 51
68.785849388100345
  0
ARC
  5
1756
  8
0
 10
16.074750438502221
 20
13.409544366032261
 30
0.0
 40
0.2479900635324953
 50
272.95713064548539
 51
2.852256294633376
  0
LINE
  5
1757
  8
0
 10
16.08775540639197
 20
13.16190677855263
 30
0.0
 11
15.964676043500001
 21
13.162002259199999
 31
0.0
  0
ARC
  5
1758
  8
0
 10
15.980402442020511
 20
13.407368832715299
 30
0.0
 40
0.2458700368264994
 50
198.55358205397621
 51
266.33273007501248
  0
ARC
  5
1759
  8
0
 10
15.70463764924934
 20
13.321747870303851
 30
0.0
 40
0.0432296668775165
 50
9.8954662035973477
 51
83.071655984632073
  0
LINE
  5
175A
  8
0
 10
15.689131098900001
 20
13.3609777012
 30
0.0
 11
15.65163566547997
 21
13.36091999623434
 31
0.0
  0
ARC
  5
175B
  8
0
 10
15.6218450826
 20
13.364458523
 30
0.0
 40
0.029999999999996
 50
283.2275651504678
 51
353.22614254360911
  0
ARC
  5
175C
  8
0
 10
15.70260053171239
 20
12.967920187433981
 30
0.0
 40
0.3746923072657701
 50
101.3735117754553
 51
148.81455397629111
  0
ARC
  5
175D
  8
0
 10
15.915533259519581
 20
12.89908702486143
 30
0.0
 40
0.5947207712369699
 50
153.76995561851561
 51
179.81975658860631
  0
ARC
  5
175E
  8
0
 10
15.32508222685855
 20
12.74370501523452
 30
0.0
 40
0.0243222496073809
 50
108.75078857448671
 51
182.80345177922149
  0
LINE
  5
175F
  8
0
 10
15.3007852183
 20
12.7425136732
 30
0.0
 11
15.29274186254135
 21
12.6508134166
 31
0.0
  0
ARC
  5
1760
  8
0
 10
15.26664606875576
 20
12.6494362718412
 30
0.0
 40
0.0261321063251027
 50
264.02008253469108
 51
3.020849133435207
  0
ARC
  5
1761
  8
0
 10
15.2749451186684
 20
12.066103693890231
 30
0.0
 40
0.5574516349105571
 50
91.132880296211937
 51
94.522859049121763
  0
ARC
  5
1762
  8
0
 10
15.236119693890309
 20
12.596385415834259
 30
0.0
 40
0.025946862025441
 50
101.41093373317619
 51
188.37028316726159
  0
LINE
  5
1763
  8
0
 10
15.210449218700001
 20
12.592608333299999
 30
0.0
 11
15.210449218700001
 21
12.1023182929
 31
0.0
  0
ARC
  5
1764
  8
0
 10
15.23628037726319
 20
12.09870534070452
 30
0.0
 40
0.0260826029430291
 50
172.0378080287658
 51
269.79027185618293
  0
ARC
  5
1765
  8
0
 10
15.1021517168129
 20
11.18495565073855
 30
0.0
 40
0.8977293928219078
 50
73.351065022255369
 51
81.413496026380287
  0
ARC
  5
1766
  8
0
 10
15.35044920920474
 20
12.01640368807524
 30
0.0
 40
0.0300000094952854
 50
359.99992422589548
 51
72.72643519746731
  0
LINE
  5
1767
  8
0
 10
15.380449218700001
 20
12.016403648400001
 30
0.0
 11
15.380449218700001
 21
11.942362515599999
 31
0.0
  0
ARC
  5
1768
  8
0
 10
15.41046627003688
 20
11.94338121575284
 30
0.0
 40
0.0300343323708473
 50
181.94372278926991
 51
267.96964760629118
  0
LINE
  5
1769
  8
0
 10
15.40940218612978
 20
11.91336573897166
 30
0.0
 11
15.445194193600001
 21
11.9121158546
 31
0.0
  0
ARC
  5
176A
  8
0
 10
15.4434492187
 20
11.8621463132
 30
0.0
 40
0.0499999999999941
 50
359.99999999999392
 51
88.000000000001847
  0
LINE
  5
176B
  8
0
 10
15.4934492187
 20
11.8621463132
 30
0.0
 11
15.4934492187
 21
11.84709521593982
 31
0.0
  0
ARC
  5
176C
  8
0
 10
15.51877759538724
 20
11.843328551609421
 30
0.0
 40
0.0256010684641619
 50
171.6298960013502
 51
265.53051561250572
  0
ARC
  5
176D
  8
0
 10
15.493543591314189
 20
11.715432534531031
 30
0.0
 40
0.1049773303255991
 50
284.95379283498562
 51
77.210415313393781
  0
ARC
  5
176E
  8
0
 10
15.536164921623939
 20
11.556055821011819
 30
0.0
 40
0.0599999996521204
 50
105.7346292071482
 51
161.32425256379139
  0
ARC
  5
176F
  8
0
 10
15.73193464617745
 20
11.483113414742981
 30
0.0
 40
0.268895186522181
 50
159.9574650361391
 51
235.15471856891949
  0
ARC
  5
1770
  8
0
 10
15.75280006516625
 20
11.50193830547134
 30
0.0
 40
0.2963348874164084
 50
233.9233113233096
 51
261.72789130899901
  0
ARC
  5
1771
  8
0
 10
15.70961764852597
 20
11.182616874711689
 30
0.0
 40
0.0260753743201978
 50
352.1588120026716
 51
88.797131575241451
  0
LINE
  5
1772
  8
0
 10
15.735449218699999
 20
11.179059470000009
 30
0.0
 11
15.73540137807735
 21
11.135078996500001
 31
0.0
  0
ARC
  5
1773
  8
0
 10
15.709500512240879
 20
11.130986361028731
 30
0.0
 40
0.0262222141738507
 50
261.112286200688
 51
8.9791555493244317
  0
LINE
  5
1774
  8
0
 10
15.705438006699961
 20
11.05546533035
 30
0.0
 11
14.21541558269999
 21
11.05548793825
 31
0.0
  0
ARC
  5
1775
  8
0
 10
15.70787456903032
 20
10.647638146212319
 30
0.0
 40
0.4078344626900234
 50
45.707498451613148
 51
90.342309395915137
  0
ARC
  5
1776
  8
0
 10
15.72599371877058
 20
10.705969399086189
 30
0.0
 40
0.3545177674003536
 50
10.652023585340761
 51
41.215696377062073
  0
ARC
  5
1777
  8
0
 10
16.049069155808901
 20
10.76222530171605
 30
0.0
 40
0.0270443117545709
 50
261.5202923620933
 51
20.09945397444282
  0
ARC
  5
1778
  8
0
 10
15.67866272948628
 20
13.47949077221387
 30
0.0
 40
0.118974513066125
 50
275.04788804928393
 51
285.18054888352248
  0
LINE
  5
1779
  8
0
 10
15.5480486282
 20
11.1050789965
 30
0.0
 11
15.554768235895651
 21
11.078200565548871
 31
0.0
  0
ARC
  5
177A
  8
0
 10
15.583872510899999
 20
11.08547663429999
 30
0.0
 40
0.029999999999996
 50
194.03624346799359
 51
270.00000000000512
  0
ARC
  5
177B
  8
0
 10
14.84508735483085
 20
13.222199202802971
 30
0.0
 40
0.060316471807816
 50
179.3560294199155
 51
269.54741876190928
  0
ARC
  5
177C
  8
0
 10
26.189557589564579
 20
13.442762396249449
 30
0.0
 40
11.406902404411451
 50
178.98289766374509
 51
181.10453116910091
  0
ARC
  5
177D
  8
0
 10
14.69138963663632
 20
13.65700587881687
 30
0.0
 40
0.0938030529850979
 50
352.79716598620229
 51
47.990658513332598
  0
ARC
  5
177E
  8
0
 10
14.66398150665005
 20
13.563186481509231
 30
0.0
 40
0.1867398858722034
 50
61.121764811348108
 51
87.457027068196183
  0
ARC
  5
177F
  8
0
 10
14.554512233360541
 20
12.235819734256619
 30
0.0
 40
1.518495378785188
 50
85.552422189488837
 51
96.945000056544728
  0
ARC
  5
1780
  8
0
 10
14.46997511932387
 20
12.58817791091753
 30
0.0
 40
1.159236951644153
 50
94.902758029246897
 51
116.7766113424604
  0
ARC
  5
1781
  8
0
 10
14.048556289334529
 20
13.40421074062553
 30
0.0
 40
0.2410061310664346
 50
114.73248466471669
 51
175.79453627596899
  0
ARC
  5
1782
  8
0
 10
14.00060725010904
 20
13.41149003821533
 30
0.0
 40
0.1926887486587731
 50
176.90774966299969
 51
258.0614665089056
  0
ARC
  5
1783
  8
0
 10
13.97427626267014
 20
13.392688835108389
 30
0.0
 40
0.1702580769164153
 50
265.44236193938019
 51
330.99736028750931
  0
ARC
  5
1784
  8
0
 10
13.68056575559959
 20
13.539972158394029
 30
0.0
 40
0.498732064781385
 50
332.5590311771137
 51
339.85539962422649
  0
ARC
  5
1785
  8
0
 10
14.23830352063554
 20
13.327780474244079
 30
0.0
 40
0.0982229617375882
 50
92.551455633031367
 51
155.69175082210899
  0
ARC
  5
1786
  8
0
 10
14.34424607128074
 20
12.04730187527227
 30
0.0
 40
1.383010816338808
 50
84.579013210639033
 51
94.5750233477808
  0
ARC
  5
1787
  8
0
 10
14.562440317858661
 20
14.80087747006511
 30
0.0
 40
1.3795304983976879
 50
266.36189363506418
 51
276.36452755894572
  0
LINE
  5
1788
  8
0
 10
14.404150171534139
 20
11.81784879170902
 30
0.0
 11
15.51678255203333
 21
11.817805336519569
 31
0.0
  0
LINE
  5
1789
  8
0
 10
14.47625728769745
 20
11.9121351569
 30
0.0
 11
15.4451120437
 21
11.9121351569
 31
0.0
  0
LINE
  5
178A
  8
0
 10
14.511485632240889
 20
11.91336469437609
 30
0.0
 11
14.475704243899999
 21
11.9121158546
 31
0.0
  0
ARC
  5
178B
  8
0
 10
14.960449218484399
 20
10.860495653214411
 30
0.0
 40
1.184826053105156
 50
81.970847317094311
 51
98.02915279399528
  0
ARC
  5
178C
  8
0
 10
14.67793519887646
 20
11.413151804629649
 30
0.0
 40
0.6314924439586001
 50
79.320860499498124
 51
100.6791395903187
  0
ARC
  5
178D
  8
0
 10
15.24296323538951
 20
11.413151432167121
 30
0.0
 40
0.63149281020619
 50
79.320866460505812
 51
100.6791331946491
  0
ARC
  5
178E
  8
0
 10
14.5701857274963
 20
12.00545274316803
 30
0.0
 40
0.0297366315008241
 50
108.1673010745465
 51
179.83533583971601
  0
ARC
  5
178F
  8
0
 10
15.348905115863801
 20
12.00413951001922
 30
0.0
 40
0.0315750973179304
 50
2.5388848428465378
 51
69.458506809158564
  0
LINE
  5
1790
  8
0
 10
14.7949563379
 20
12.0337070078
 30
0.0
 11
14.7989059294
 21
12.005538208379241
 31
0.0
  0
LINE
  5
1791
  8
0
 10
14.7989059294
 20
12.005538208379241
 30
0.0
 11
14.7992597189
 21
11.912383853
 31
0.0
  0
LINE
  5
1792
  8
0
 10
15.12164296302161
 20
11.91210570778251
 30
0.0
 11
15.1219925081
 21
12.0055382041
 31
0.0
  0
LINE
  5
1793
  8
0
 10
15.1219925081
 20
12.0055382041
 30
0.0
 11
15.1259420996
 21
12.0337070078
 31
0.0
  0
LINE
  5
1794
  8
0
 10
13.87581721219998
 20
10.735476634299999
 30
0.0
 11
16.0451137035
 21
10.7354965451
 31
0.0
  0
ARC
  5
1795
  8
0
 10
15.07571729798115
 20
13.222181560156111
 30
0.0
 40
0.060316471807816
 50
270.44381525403639
 51
0.635204596030262
  0
ARC
  5
1796
  8
0
 10
3.7312809411488672
 20
13.44448040145892
 30
0.0
 40
11.406902404411451
 50
358.88670284684491
 51
1.0083363522007289
  0
ARC
  5
1797
  8
0
 10
15.22948153774742
 20
13.656964716055191
 30
0.0
 40
0.0938030529850979
 50
132.0005755026134
 51
187.19406802974351
  0
ARC
  5
1798
  8
0
 10
15.25687531348764
 20
13.563141126530979
 30
0.0
 40
0.1867398858722034
 50
92.534206947749752
 51
118.86946920459761
  0
ARC
  5
1799
  8
0
 10
15.36614150464438
 20
12.2357576465311
 30
0.0
 40
1.518495378785188
 50
83.04623395940115
 51
94.438811826457126
  0
ARC
  5
179A
  8
0
 10
15.450732526830709
 20
12.588102885288381
 30
0.0
 40
1.159236951644153
 50
63.21462267348533
 51
85.088475986698924
  0
ARC
  5
179B
  8
0
 10
15.872276201061849
 20
13.40407123035242
 30
0.0
 40
0.2410061310664346
 50
4.1966977399767611
 51
65.258749351229042
  0
ARC
  5
179C
  8
0
 10
15.92022635342434
 20
13.411343191880171
 30
0.0
 40
0.1926887486587731
 50
281.92976750704031
 51
3.0834843529460909
  0
ARC
  5
179D
  8
0
 10
15.94655446405968
 20
13.3925379604764
 30
0.0
 40
0.1702580769164153
 50
208.9938737284366
 51
274.5488720765656
  0
ARC
  5
179E
  8
0
 10
16.240287501346479
 20
13.539776345716019
 30
0.0
 40
0.498732064781385
 50
200.1358343917193
 51
207.4322028388321
  0
ARC
  5
179F
  8
0
 10
15.682517278511339
 20
13.327669995296899
 30
0.0
 40
0.0982229617375882
 50
24.299483193836728
 51
87.439778382914724
  0
ARC
  5
17A0
  8
0
 10
15.57637882192002
 20
12.04720762002208
 30
0.0
 40
1.383010816338808
 50
85.416210668165007
 51
95.412220805306902
  0
ARC
  5
17A1
  8
0
 10
15.35860586197408
 20
14.800816565278261
 30
0.0
 40
1.3795304983976879
 50
263.6267064569999
 51
273.6293403808815
  0
LINE
  5
17A2
  8
0
 10
15.62863316334302
 20
13.335152219769411
 30
0.0
 11
15.13765962769771
 21
13.33517476202517
 31
0.0
  0
LINE
  5
17A3
  8
0
 10
14.7831624155101
 20
13.335191038191271
 30
0.0
 11
14.292188779918201
 21
13.335213580451621
 31
0.0
  0
LINE
  5
17A4
  8
0
 10
14.84461091800002
 20
13.1618846127
 30
0.0
 11
15.07618450695862
 21
13.16186689786646
 31
0.0
  0
LINE
  5
17A5
  8
0
 10
14.45368172589999
 20
14.030593553599999
 30
0.0
 11
14.461886633500001
 21
14.0301180884
 31
0.0
  0
LINE
  5
17A6
  8
0
 10
14.461886633500001
 20
14.0301180884
 30
0.0
 11
15.459011803999999
 21
14.0301180884
 31
0.0
  0
LINE
  5
17A7
  8
0
 10
14.565191607799999
 20
13.924745517250001
 30
0.0
 11
15.361393097879469
 21
13.92390015430496
 31
0.0
  0
ARC
  5
17A8
  8
0
 10
15.19258094567993
 20
13.31979126926764
 30
0.0
 40
0.1107730386867146
 50
83.31813228349391
 51
106.6749801906555
  0
ARC
  5
17A9
  8
0
 10
15.19628459510596
 20
13.39060993052744
 30
0.0
 40
0.0500529159901322
 50
135.15619980570921
 51
169.51441468597531
  0
LINE
  5
17AA
  8
0
 10
15.14706752657758
 20
13.399718968049999
 30
0.0
 11
15.137874759632799
 21
13.361555602386799
 31
0.0
  0
ARC
  5
17AB
  8
0
 10
14.728333053987329
 20
13.31979126926764
 30
0.0
 40
0.1107730386867146
 50
73.325019809344468
 51
96.681867716506105
  0
ARC
  5
17AC
  8
0
 10
14.72462940456129
 20
13.39060993052744
 30
0.0
 40
0.0500529159901322
 50
10.48558531402468
 51
44.843800194290793
  0
LINE
  5
17AD
  8
0
 10
14.77384647308968
 20
13.399718968049999
 30
0.0
 11
14.78303924003445
 21
13.361555602386799
 31
0.0
  0
LINE
  5
17AE
  8
0
 10
14.62815657495865
 20
12.650813416599989
 30
0.0
 11
15.29274187679513
 21
12.650813146475731
 31
0.0
  0
ARC
  5
17AF
  8
0
 10
15.380794939420131
 20
12.899389933299981
 30
0.0
 40
0.0600000000201219
 50
178.502513706998
 51
221.15944046294931
  0
ARC
  5
17B0
  8
0
 10
15.29044921900158
 20
12.82041113385403
 30
0.0
 40
0.059999999812673
 50
296.54556226525301
 51
41.15944053154081
  0
ARC
  5
17B1
  8
0
 10
14.540103498079869
 20
12.899389933299981
 30
0.0
 40
0.0600000000201219
 50
318.84055953705069
 51
1.4974862930019159
  0
ARC
  5
17B2
  8
0
 10
14.63044921849842
 20
12.82041113385403
 30
0.0
 40
0.059999999812673
 50
138.84055946845919
 51
243.45443773474699
  0
LINE
  5
17B3
  8
0
 10
14.60008300641854
 20
12.900957919864521
 30
0.0
 11
15.320814549451089
 21
12.9009579188
 31
0.0
  0
LINE
  5
17B4
  8
0
 10
14.6201132192
 20
12.7425136732
 30
0.0
 11
15.3007852183
 21
12.7425136732
 31
0.0
  0
LINE
  5
17B5
  8
0
 10
14.3728498093
 20
11.1050789965
 30
0.0
 11
14.366130201604349
 21
11.078200565548871
 31
0.0
  0
ARC
  5
17B6
  8
0
 10
14.337025926600001
 20
11.085476634300001
 30
0.0
 40
0.0299999999999986
 50
269.99999999999818
 51
345.96375653200062
  0
LINE
  5
17B7
  8
0
 10
14.2154492188
 20
11.105078996499991
 30
0.0
 11
14.3728498093
 21
11.1050789965
 31
0.0
  0
LINE
  5
17B8
  8
0
 10
15.7054492188
 20
11.1050789965
 30
0.0
 11
15.5480486282
 21
11.1050789965
 31
0.0
  0
LINE
  5
17B9
  8
0
 10
14.2107162125
 20
11.208655821300001
 30
0.0
 11
15.710165035099999
 21
11.208686502899999
 31
0.0
  0
LINE
  5
17BA
  8
0
 10
14.441574270967299
 20
11.57526853890028
 30
0.0
 11
15.479324167700019
 21
11.575268542100069
 31
0.0
  0
LINE
  5
17BB
  8
0
 10
14.582024135699999
 20
14.197040792799999
 30
0.0
 11
15.338874301800001
 21
14.197040792799999
 31
0.0
  0
LINE
  5
17BC
  8
0
 10
14.488986006199999
 20
14.028288611800001
 30
0.0
 11
14.461886633500001
 21
14.0301180884
 31
0.0
  0
LINE
  5
17BD
  8
0
 10
14.4912822366
 20
13.835181092099999
 30
0.0
 11
15.4296162009
 21
13.835181092099999
 31
0.0
  0
ENDSEC
  0
EOF
