  0
SECTION
  2
HEADER
  9
$ACADVER
  1
AC1009
  9
$INSBASE
 10
335.13674158224308
 20
32.333727151284812
 30
0.0
  9
$EXTMIN
 10
332.40198522777791
 20
27.318857903184689
 30
0.0
  9
$EXTMAX
 10
337.87149793671182
 20
32.333727151284812
 30
0.0
  9
$LIMMIN
 10
0.0
 20
0.0
  9
$LIMMAX
 10
11.692913385800001
 20
8.2677165353999982
  9
$ORTHOMODE
 70
     1
  9
$REGENMODE
 70
     1
  9
$FILLMODE
 70
     1
  9
$QTEXTMODE
 70
     0
  9
$MIRRTEXT
 70
     0
  9
$DRAGMODE
 70
     2
  9
$LTSCALE
 40
0.6431102362
  9
$OSMODE
 70
  3071
  9
$ATTMODE
 70
     1
  9
$TEXTSIZE
 40
0.2
  9
$TRACEWID
 40
0.05
  9
$TEXTSTYLE
  7
STANDARD
  9
$CLAYER
  8
0
  9
$CELTYPE
  6
BYLAYER
  9
$CECOLOR
 62
   256
  9
$DIMSCALE
 40
1.0
  9
$DIMASZ
 40
0.1875
  9
$DIMEXO
 40
0.0625
  9
$DIMDLI
 40
0.4443307087
  9
$DIMRND
 40
0.0
  9
$DIMDLE
 40
0.0
  9
$DIMEXE
 40
0.125
  9
$DIMTP
 40
0.01
  9
$DIMTM
 40
0.01
  9
$DIMTXT
 40
1.0
  9
$DIMCEN
 40
0.1052362205
  9
$DIMTSZ
 40
0.0
  9
$DIMTOL
 70
     1
  9
$DIMLIM
 70
     0
  9
$DIMTIH
 70
     0
  9
$DIMTOH
 70
     1
  9
$DIMSE1
 70
     0
  9
$DIMSE2
 70
     0
  9
$DIMTAD
 70
     0
  9
$DIMZIN
 70
     0
  9
$DIMBLK
  1

  9
$DIMASO
 70
     1
  9
$DIMSHO
 70
     1
  9
$DIMPOST
  1
\X
  9
$DIMAPOST
  1

  9
$DIMALT
 70
     1
  9
$DIMALTD
 70
     2
  9
$DIMALTF
 40
25.399999999999999
  9
$DIMLFAC
 40
1.0
  9
$DIMTOFL
 70
     0
  9
$DIMTVP
 40
0.0
  9
$DIMTIX
 70
     0
  9
$DIMSOXD
 70
     0
  9
$DIMSAH
 70
     0
  9
$DIMBLK1
  1

  9
$DIMBLK2
  1

  9
$DIMSTYLE
  2
STANDARD
  9
$DIMCLRD
 70
     0
  9
$DIMCLRE
 70
     0
  9
$DIMCLRT
 70
     0
  9
$DIMTFAC
 40
1.0
  9
$DIMGAP
 40
0.09
  9
$LUNITS
 70
     2
  9
$LUPREC
 70
     4
  9
$SKETCHINC
 40
0.1
  9
$FILLETRAD
 40
0.0
  9
$AUNITS
 70
     0
  9
$AUPREC
 70
     0
  9
$MENU
  1
.
  9
$ELEVATION
 40
0.0
  9
$PELEVATION
 40
0.0
  9
$THICKNESS
 40
0.0
  9
$LIMCHECK
 70
     0
  9
$BLIPMODE
 70
     0
  9
$CHAMFERA
 40
0.0
  9
$CHAMFERB
 40
0.0
  9
$SKPOLY
 70
     0
  9
$TDCREATE
 40
2458172.5207663891
  9
$TDUPDATE
 40
2458544.8112688428
  9
$TDINDWG
 40
0.1088758912
  9
$TDUSRTIMER
 40
0.1088758912
  9
$USRTIMER
 70
     1
  9
$ANGBASE
 50
0.0
  9
$ANGDIR
 70
     0
  9
$PDMODE
 70
     0
  9
$PDSIZE
 40
0.3125
  9
$PLINEWID
 40
0.0
  9
$COORDS
 70
     1
  9
$SPLFRAME
 70
     0
  9
$SPLINETYPE
 70
     6
  9
$SPLINESEGS
 70
     8
  9
$ATTDIA
 70
     1
  9
$ATTREQ
 70
     1
  9
$HANDLING
 70
     1
  9
$HANDSEED
  5
53C5
  9
$SURFTAB1
 70
     6
  9
$SURFTAB2
 70
     6
  9
$SURFTYPE
 70
     6
  9
$SURFU
 70
     6
  9
$SURFV
 70
     6
  9
$UCSNAME
  2

  9
$UCSORG
 10
0.0
 20
0.0
 30
0.0
  9
$UCSXDIR
 10
1.0
 20
0.0
 30
0.0
  9
$UCSYDIR
 10
0.0
 20
1.0
 30
0.0
  9
$PUCSNAME
  2

  9
$PUCSORG
 10
0.0
 20
0.0
 30
0.0
  9
$PUCSXDIR
 10
1.0
 20
0.0
 30
0.0
  9
$PUCSYDIR
 10
0.0
 20
1.0
 30
0.0
  9
$USERI1
 70
     0
  9
$USERI2
 70
     0
  9
$USERI3
 70
     0
  9
$USERI4
 70
     0
  9
$USERI5
 70
     0
  9
$USERR1
 40
0.0
  9
$USERR2
 40
0.0
  9
$USERR3
 40
0.0
  9
$USERR4
 40
0.0
  9
$USERR5
 40
0.0
  9
$WORLDVIEW
 70
     1
  9
$SHADEDGE
 70
     3
  9
$SHADEDIF
 70
    70
  9
$TILEMODE
 70
     1
  9
$MAXACTVP
 70
    64
  9
$PLIMCHECK
 70
     0
  9
$PEXTMIN
 10
1.0000000000000000E+020
 20
1.0000000000000000E+020
 30
1.0000000000000000E+020
  9
$PEXTMAX
 10
-1.0000000000000000E+020
 20
-1.0000000000000000E+020
 30
-1.0000000000000000E+020
  9
$PLIMMIN
 10
0.0
 20
0.0
  9
$PLIMMAX
 10
12.0
 20
9.0
  9
$UNITMODE
 70
     0
  9
$VISRETAIN
 70
     1
  9
$PLINEGEN
 70
     0
  9
$PSLTSCALE
 70
     1
  0
ENDSEC
  0
SECTION
  2
TABLES
  0
TABLE
  2
VPORT
 70
     1
  0
VPORT
  2
*ACTIVE
 70
     0
 10
0.0
 20
0.0
 11
1.0
 21
1.0
 12
0.0
 22
0.0
 13
0.0
 23
0.0
 14
1.0
 24
1.0
 15
0.0
 25
0.0
 16
0.0
 26
0.0
 36
20.979543038421959
 17
335.13674158224478
 27
29.826292527234749
 37
0.0
 40
7.4213593291676636
 41
2.112723214285714
 42
50.0
 43
0.0
 44
0.0
 50
0.0
 51
0.0
 71
     0
 72
   100
 73
     1
 74
     1
 75
     0
 76
     0
 77
     0
 78
     0
  0
ENDTAB
  0
TABLE
  2
LTYPE
 70
     2
  0
LTYPE
  2
CONTINUOUS
 70
     0
  3
Solid line
 72
    65
 73
     0
 40
0.0
  0
LTYPE
  2
PHANTOM2
 70
     0
  3
___ _ _ ___ _ _ ___ _ _ ___ _ _
 72
    65
 73
     6
 40
1.25
 49
0.625
 49
-0.125
 49
0.125
 49
-0.125
 49
0.125
 49
-0.125
  0
ENDTAB
  0
TABLE
  2
LAYER
 70
     2
  0
LAYER
  2
0
 70
     0
 62
   255
  6
CONTINUOUS
  0
LAYER
  2
DEFPOINTS
 70
     0
 62
     7
  6
CONTINUOUS
  0
ENDTAB
  0
TABLE
  2
STYLE
 70
     1
  0
STYLE
  2
STANDARD
 70
     0
 40
0.0
 41
0.8
 50
0.0
 71
     0
 42
0.2
  3
txt
  4

  0
ENDTAB
  0
TABLE
  2
VIEW
 70
     0
  0
ENDTAB
  0
TABLE
  2
UCS
 70
     0
  0
ENDTAB
  0
TABLE
  2
APPID
 70
    10
  0
APPID
  2
ACAD
 70
     0
  0
APPID
  2
ACAD_MLEADERVER
 70
     0
  0
APPID
  2
ACAD_EXEMPT_FROM_CAD_STANDARDS
 70
     0
  0
APPID
  2
ACAD_DSTYLE_DIMJAG
 70
     0
  0
APPID
  2
ACAD_DSTYLE_DIMTALN
 70
     0
  0
APPID
  2
ACAD_NAV_VCDISPLAY
 70
     0
  0
APPID
  2
ACAECLAYERSTANDARD
 70
     0
  0
APPID
  2
ACCMTRANSPARENCY
 70
     0
  0
APPID
  2
DCO15
 70
     0
  0
APPID
  2
ACDBATTR
 70
     0
  0
ENDTAB
  0
TABLE
  2
DIMSTYLE
 70
     1
  0
DIMSTYLE
  2
STANDARD
 70
     0
  3

  4

  5

  6

  7

 40
1.0
 41
0.1875
 42
0.0625
 43
0.38
 44
0.125
 45
0.0
 46
0.0
 47
0.01
 48
0.01
140
0.15625
141
0.09
142
0.0
143
25.399999999999999
144
1.0
145
0.0
146
1.0
147
0.09
 71
     1
 72
     0
 73
     1
 74
     1
 75
     0
 76
     0
 77
     0
 78
     4
170
     0
171
     2
172
     0
173
     0
174
     0
175
     0
176
     0
177
     0
178
     0
  0
ENDTAB
  0
ENDSEC
  0
SECTION
  2
BLOCKS
  0
BLOCK
  8
0
  2
$MODEL_SPACE
 70
     0
 10
0.0
 20
0.0
 30
0.0
  3
$MODEL_SPACE
  1

  0
ENDBLK
  5
21
  8
0
  0
BLOCK
 67
     1
  8
0
  2
$PAPER_SPACE
 70
     0
 10
0.0
 20
0.0
 30
0.0
  3
$PAPER_SPACE
  1

  0
ENDBLK
  5
1D
 67
     1
  8
0
  0
ENDSEC
  0
SECTION
  2
ENTITIES
  0
ATTDEF
  5
829
  8
DEFPOINTS
 10
335.13111212090581
 20
32.331500339635333
 30
0.0
 40
0.001
  1
K-965-AK
  3

  2
MODELNUMBER
 70
     0
1001
ACDBATTR
1070
     0
1070
     1
  0
ATTDEF
  5
82A
  8
DEFPOINTS
 10
335.13111212090581
 20
32.329833672968661
 30
0.0
 40
0.001
  1
PURIST
  3

  2
TRADENAME
 70
     0
1001
ACDBATTR
1070
     0
1070
     1
  0
ATTDEF
  5
82B
  8
DEFPOINTS
 10
335.13111212090581
 20
32.328167006302003
 30
0.0
 40
0.001
  1
SHOWERHEAD
  3

  2
PRODUCT
 70
     0
1001
ACDBATTR
1070
     0
1070
     1
  0
ATTDEF
  5
82C
  8
DEFPOINTS
 10
335.13111212090581
 20
32.326500339635331
 30
0.0
 40
0.001
  1
PREMIUM MATERIALS
  3

  2
MATERIAL
 70
     0
1001
ACDBATTR
1070
     0
1070
     1
  0
LINE
  5
4E59
  8
0
 10
332.40198522777791
 20
30.085407876984831
 30
0.0
 11
332.42347460972792
 21
29.215227548984839
 31
0.0
  0
ARC
  5
4E5A
  8
0
 10
335.1403260552209
 20
31.691557211383319
 30
0.0
 40
0.6421799437537852
 50
90.319811046497279
 51
126.1305481379664
  0
ARC
  5
4E5B
  8
0
 10
334.9633735584938
 20
31.955610601779721
 30
0.0
 40
0.3248256973936075
 50
128.38411564360391
 51
167.2150465465503
  0
ARC
  5
4E5C
  8
0
 10
335.15430939375608
 20
27.940132642445089
 30
0.0
 40
4.1187710216844948
 50
90.244384672426193
 51
97.080684632873584
  0
ARC
  5
4E5D
  8
0
 10
335.0913981242195
 20
28.51156715932424
 30
0.0
 40
3.5439486886625371
 50
97.210143768551021
 51
110.4473725549813
  0
ARC
  5
4E5E
  8
0
 10
334.84320496047968
 20
29.15607742831768
 30
0.0
 40
2.8533508595795252
 50
110.2988248532081
 51
126.1374259504467
  0
ARC
  5
4E5F
  8
0
 10
334.31303563304527
 20
29.85153638005303
 30
0.0
 40
1.979123462441889
 50
125.6152035453522
 51
152.18457865347179
  0
ARC
  5
4E60
  8
0
 10
333.99156653588398
 20
30.078742015703931
 30
0.0
 40
1.5895952845887951
 50
154.02126982831541
 51
179.75973328476729
  0
ARC
  5
4E61
  8
0
 10
334.02200050691943
 20
29.295046884615381
 30
0.0
 40
1.6005174695493369
 50
182.85858104645311
 51
226.89470018521629
  0
ARC
  5
4E62
  8
0
 10
334.80578378520778
 20
30.090897841144901
 30
0.0
 40
2.717307438509823
 50
226.29582723983211
 51
252.8522923401467
  0
ARC
  5
4E63
  8
0
 10
335.10219371860097
 20
30.882384751035818
 30
0.0
 40
3.561352647051824
 50
252.04986702083349
 51
262.99782512132907
  0
ARC
  5
4E64
  8
0
 10
335.45787725922389
 20
36.393406513756787
 30
0.0
 40
9.080229105516322
 50
265.00986005511919
 51
267.97322770403252
  0
ARC
  5
4E65
  8
0
 10
334.0405516091264
 20
29.195009230586979
 30
0.0
 40
1.6172033893059561
 50
129.07092331103439
 51
179.28366802845579
  0
ARC
  5
4E66
  8
0
 10
334.84171196968668
 20
28.317020763236421
 30
0.0
 40
2.8046403954388208
 50
105.600197582861
 51
130.47276753138371
  0
ARC
  5
4E67
  8
0
 10
335.11195308517313
 20
27.54055178880736
 30
0.0
 40
3.6255450573500481
 50
95.898177146799355
 51
106.4137089838883
  0
ARC
  5
4E68
  8
0
 10
335.2249373865796
 20
25.6458246206433
 30
0.0
 40
5.5224656183263097
 50
90.915073545114865
 51
95.04409663875758
  0
ARC
  5
4E69
  8
0
 10
335.22912683156869
 20
26.723558333173361
 30
0.0
 40
4.3287207805161536
 50
91.222921752817754
 51
103.0214366428366
  0
ARC
  5
4E6A
  8
0
 10
334.92148371060688
 20
28.217384237466671
 30
0.0
 40
2.8042327029465892
 50
103.7743720924835
 51
126.9345354717795
  0
ARC
  5
4E6B
  8
0
 10
334.1895230298145
 20
29.129639264916289
 30
0.0
 40
1.635626118052506
 50
125.6419380640049
 51
166.93407327365719
  0
ARC
  5
4E6C
  8
0
 10
333.93994173854372
 20
29.243398328470661
 30
0.0
 40
1.367870388014834
 50
169.2129228915565
 51
218.11361974624219
  0
ARC
  5
4E6D
  8
0
 10
334.63264666992262
 20
29.773131149874011
 30
0.0
 40
2.2398716514883801
 50
217.83823117537531
 51
247.04874473435481
  0
ARC
  5
4E6E
  8
0
 10
335.24399689516213
 20
31.435901483644241
 30
0.0
 40
4.0103169583580183
 50
248.26952460910161
 51
268.46745041198079
  0
ARC
  5
4E6F
  8
0
 10
335.20130385747638
 20
27.644322904998919
 30
0.0
 40
3.3573959804061309
 50
91.10185808561377
 51
112.6495765487044
  0
ARC
  5
4E70
  8
0
 10
334.75715282940968
 20
28.860068660050249
 30
0.0
 40
2.0651943419677972
 50
114.2666697390322
 51
134.12218818666881
  0
ARC
  5
4E71
  8
0
 10
334.22617683390962
 20
29.37420141278707
 30
0.0
 40
1.3266634488647231
 50
133.1188744727348
 51
173.27472890223859
  0
ARC
  5
4E72
  8
0
 10
334.07915490953951
 20
29.426586024326589
 30
0.0
 40
1.175034100606893
 50
174.97218010443871
 51
208.6565351750159
  0
ARC
  5
4E73
  8
0
 10
334.37870153384807
 20
29.568287499222659
 30
0.0
 40
1.505967137853073
 50
207.92202212211029
 51
233.53327216895431
  0
ARC
  5
4E74
  8
0
 10
334.94910475955692
 20
30.287615836002601
 30
0.0
 40
2.4236756411239861
 50
232.79609710044161
 51
255.4225823191035
  0
ARC
  5
4E75
  8
0
 10
335.33740250711429
 20
32.461199210910081
 30
0.0
 40
4.6281878081967847
 50
257.54330638487232
 51
267.51509022826201
  0
ARC
  5
4E76
  8
0
 10
335.18890405827278
 20
28.75671684723849
 30
0.0
 40
0.8266268007100185
 50
93.617928624719056
 51
112.1380269950311
  0
ARC
  5
4E77
  8
0
 10
335.00438543167559
 20
29.23560056194604
 30
0.0
 40
0.3136584769725875
 50
113.8821372567957
 51
172.04245940107251
  0
ARC
  5
4E78
  8
0
 10
334.95837282200358
 20
29.274549876447811
 30
0.0
 40
0.2646634350208397
 50
179.0315452730506
 51
234.211336577297
  0
ARC
  5
4E79
  8
0
 10
335.10091749474242
 20
29.43864009539373
 30
0.0
 40
0.4815316960174338
 50
231.87024132948429
 51
256.86525543483248
  0
ARC
  5
4E7A
  8
0
 10
335.17491780160111
 20
29.884024904891589
 30
0.0
 40
0.9325360475562128
 50
258.65628565807549
 51
267.65376611185201
  0
LINE
  5
4E7B
  8
0
 10
337.87149793671182
 20
30.085407876984831
 30
0.0
 11
337.85000855476181
 21
29.215227548984839
 31
0.0
  0
ARC
  5
4E7C
  8
0
 10
335.13315710926878
 20
31.691557211383461
 30
0.0
 40
0.6421799437536206
 50
53.86945186203355
 51
89.680188953808866
  0
ARC
  5
4E7D
  8
0
 10
335.31010960599588
 20
31.955610601779721
 30
0.0
 40
0.3248256973936075
 50
12.78495345344972
 51
51.615884356396109
  0
ARC
  5
4E7E
  8
0
 10
335.18208504027012
 20
28.51156715932424
 30
0.0
 40
3.5439486886625371
 50
69.552627445018629
 51
82.789856231449008
  0
ARC
  5
4E7F
  8
0
 10
335.43027820400982
 20
29.15607742831768
 30
0.0
 40
2.8533508595795252
 50
53.862574049553317
 51
69.701175146791911
  0
ARC
  5
4E80
  8
0
 10
335.96044753144429
 20
29.85153638005303
 30
0.0
 40
1.979123462441889
 50
27.81542134652744
 51
54.384796454647272
  0
ARC
  5
4E81
  8
0
 10
336.28191662860559
 20
30.078742015703931
 30
0.0
 40
1.5895952845887951
 50
0.2402667152326203
 51
25.978730171684951
  0
ARC
  5
4E82
  8
0
 10
336.25148265757008
 20
29.295046884615381
 30
0.0
 40
1.6005174695493369
 50
313.10529981478368
 51
357.14141895354692
  0
ARC
  5
4E83
  8
0
 10
335.46769937928178
 20
30.090897841144901
 30
0.0
 40
2.717307438509823
 50
287.1477076598502
 51
313.70417276016781
  0
ARC
  5
4E84
  8
0
 10
335.17128944588859
 20
30.882384751035818
 30
0.0
 40
3.561352647051824
 50
277.00217487867081
 51
287.95013297916648
  0
ARC
  5
4E85
  8
0
 10
334.81560590528022
 20
36.393406513565417
 30
0.0
 40
9.0802291053244275
 50
272.02677229589261
 51
274.99013994489718
  0
ARC
  5
4E86
  8
0
 10
336.23293155536322
 20
29.195009230586979
 30
0.0
 40
1.6172033893059561
 50
0.7163319715441739
 51
50.92907668896558
  0
ARC
  5
4E87
  8
0
 10
335.43177119480288
 20
28.317020763236421
 30
0.0
 40
2.8046403954388208
 50
49.527232468616283
 51
74.399802417138972
  0
ARC
  5
4E88
  8
0
 10
335.16153007931638
 20
27.54055178880736
 30
0.0
 40
3.6255450573500481
 50
73.58629101611163
 51
84.101822853197362
  0
ARC
  5
4E89
  8
0
 10
335.35199945388263
 20
28.217384237466671
 30
0.0
 40
2.8042327029465892
 50
53.065464528220502
 51
76.225627907516426
  0
ARC
  5
4E8A
  8
0
 10
336.08396013467512
 20
29.129639264916289
 30
0.0
 40
1.635626118052506
 50
13.06592672634252
 51
54.358061935995067
  0
ARC
  5
4E8B
  8
0
 10
336.33354142594601
 20
29.243398328470661
 30
0.0
 40
1.367870388014834
 50
321.8863802537569
 51
10.787077108443439
  0
ARC
  5
4E8C
  8
0
 10
335.64083649456711
 20
29.773131149874011
 30
0.0
 40
2.2398716514883801
 50
292.95125526564522
 51
322.16176882462457
  0
ARC
  5
4E8D
  8
0
 10
335.51633033508
 20
28.860068660050249
 30
0.0
 40
2.0651943419677972
 50
45.877811813331057
 51
65.733330260967762
  0
ARC
  5
4E8E
  8
0
 10
336.04730633058
 20
29.37420141278707
 30
0.0
 40
1.3266634488647231
 50
6.7252710977613743
 51
46.881125527264587
  0
ARC
  5
4E8F
  8
0
 10
336.19432825494999
 20
29.426586024326589
 30
0.0
 40
1.175034100606893
 50
331.34346482498353
 51
5.0278198955612901
  0
ARC
  5
4E90
  8
0
 10
335.89478163064149
 20
29.568287499222659
 30
0.0
 40
1.505967137853073
 50
306.4667278310452
 51
332.07797787788951
  0
ARC
  5
4E91
  8
0
 10
335.32437840493259
 20
30.287615836002601
 30
0.0
 40
2.4236756411239861
 50
284.57741768089647
 51
307.20390289955827
  0
ARC
  5
4E92
  8
0
 10
335.26909773281409
 20
29.23560056194604
 30
0.0
 40
0.3136584769725875
 50
7.9575405989272614
 51
66.117862743204057
  0
ARC
  5
4E93
  8
0
 10
335.31511034248592
 20
29.274549876447811
 30
0.0
 40
0.2646634350208397
 50
305.788663422703
 51
0.968454726949343
  0
ARC
  5
4E94
  8
0
 10
335.1725656697472
 20
29.43864009539373
 30
0.0
 40
0.4815316960174338
 50
283.13474456516741
 51
308.12975867051318
  0
LINE
  5
4E96
  8
0
 10
335.27217179191467
 20
30.660977306486611
 30
0.0
 11
335.26960796901471
 21
30.702989968986611
 31
0.0
  0
LINE
  5
4E97
  8
0
 10
335.38316714062472
 20
30.6600261818412
 30
0.0
 11
335.38807532531467
 21
30.70131005578661
 31
0.0
  0
ARC
  5
4E98
  8
0
 10
335.31608080124141
 20
30.663843367416799
 30
0.0
 40
0.0440024477195299
 50
183.73455425856321
 51
228.64016983914291
  0
ARC
  5
4E99
  8
0
 10
335.32646533691161
 20
30.675122089378121
 30
0.0
 40
0.0593309059771841
 50
228.31033496026981
 51
260.73002242222231
  0
ARC
  5
4E9A
  8
0
 10
335.32814725713001
 20
30.680116741672229
 30
0.0
 40
0.0645369333191782
 50
259.97059284585009
 51
293.7709003540927
  0
ARC
  5
4E9B
  8
0
 10
335.33657676699158
 20
30.664422964536051
 30
0.0
 40
0.0467973782742005
 50
292.07061931859079
 51
354.6089032123632
  0
CIRCLE
  5
4E9C
  8
0
 10
335.32726089943429
 20
30.6558256768527
 30
0.0
 40
0.0166555298752413
  0
ARC
  5
4E9D
  8
0
 10
335.3183366624898
 20
30.676993871242701
 30
0.0
 40
0.0552293641759222
 50
107.8497920275893
 51
151.92068328706441
  0
ARC
  5
4E9E
  8
0
 10
335.32787836588022
 20
30.654665809290599
 30
0.0
 40
0.0794389175188702
 50
66.513372559220429
 51
109.4644227635596
  0
ARC
  5
4E9F
  8
0
 10
335.3367868960276
 20
30.674114658815132
 30
0.0
 40
0.058052498612662
 50
27.934516089822228
 51
66.927347277579329
  0
ARC
  5
4EA0
  8
0
 10
335.31888482159758
 20
30.658967743521188
 30
0.0
 40
0.0467562347019241
 50
105.0695850748681
 51
177.5366931257231
  0
ARC
  5
4EA1
  8
0
 10
335.326837787513
 20
30.642161962835981
 30
0.0
 40
0.0651359462523046
 50
50.132251168780002
 51
107.98251715040109
  0
ARC
  5
4EA2
  8
0
 10
335.34069267892369
 20
30.660127867311552
 30
0.0
 40
0.0424745834202148
 50
359.86283199539753
 51
48.94176123398843
  0
ARC
  5
4EA3
  8
0
 10
335.3109148168603
 20
30.684426159656638
 30
0.0
 40
0.0452865399089404
 50
155.80025865475099
 51
211.1840303444865
  0
ARC
  5
4EA4
  8
0
 10
335.35450642164778
 20
30.68436731722247
 30
0.0
 40
0.0376022297732119
 50
319.65923561886621
 51
26.780775736758809
  0
LINE
  5
4EA5
  8
0
 10
335.33744861651468
 20
30.31967055368661
 30
0.0
 11
335.33488479361472
 21
30.361683216186609
 31
0.0
  0
LINE
  5
4EA6
  8
0
 10
335.44844396522473
 20
30.318719429041199
 30
0.0
 11
335.45335214991468
 21
30.360003302986609
 31
0.0
  0
ARC
  5
4EA7
  8
0
 10
335.38135762584142
 20
30.322536614616801
 30
0.0
 40
0.0440024477195299
 50
183.73455425856321
 51
228.64016983914291
  0
ARC
  5
4EA8
  8
0
 10
335.39174216151162
 20
30.33381533657812
 30
0.0
 40
0.0593309059771841
 50
228.31033496026981
 51
260.73002242222231
  0
ARC
  5
4EA9
  8
0
 10
335.39342408173002
 20
30.338809988872232
 30
0.0
 40
0.0645369333191782
 50
259.97059284585009
 51
293.7709003540927
  0
ARC
  5
4EAA
  8
0
 10
335.40185359159159
 20
30.323116211736039
 30
0.0
 40
0.0467973782742005
 50
292.07061931859079
 51
354.6089032123632
  0
CIRCLE
  5
4EAB
  8
0
 10
335.3925377240343
 20
30.314518924052699
 30
0.0
 40
0.0166555298752413
  0
ARC
  5
4EAC
  8
0
 10
335.3836134870898
 20
30.335687118442699
 30
0.0
 40
0.0552293641759222
 50
107.8497920275893
 51
151.92068328706441
  0
ARC
  5
4EAD
  8
0
 10
335.39315519048017
 20
30.313359056490601
 30
0.0
 40
0.0794389175188702
 50
66.513372559220429
 51
109.4644227635596
  0
ARC
  5
4EAE
  8
0
 10
335.40206372062761
 20
30.33280790601513
 30
0.0
 40
0.058052498612662
 50
27.934516089822228
 51
66.927347277579329
  0
ARC
  5
4EAF
  8
0
 10
335.3841616461977
 20
30.31766099072119
 30
0.0
 40
0.0467562347019241
 50
105.0695850748681
 51
177.5366931257231
  0
ARC
  5
4EB0
  8
0
 10
335.39211461211301
 20
30.30085521003598
 30
0.0
 40
0.0651359462523046
 50
50.132251168780002
 51
107.98251715040109
  0
ARC
  5
4EB1
  8
0
 10
335.40596950352369
 20
30.31882111451155
 30
0.0
 40
0.0424745834202148
 50
359.86283199539753
 51
48.94176123398843
  0
ARC
  5
4EB2
  8
0
 10
335.37619164146031
 20
30.343119406856641
 30
0.0
 40
0.0452865399089404
 50
155.80025865475099
 51
211.1840303444865
  0
ARC
  5
4EB3
  8
0
 10
335.4197832462479
 20
30.343060564422469
 30
0.0
 40
0.0376022297732119
 50
319.65923561886621
 51
26.780775736758809
  0
LINE
  5
4EB4
  8
0
 10
335.39950940531469
 20
29.644143259986599
 30
0.0
 11
335.39694558241467
 21
29.686155922486609
 31
0.0
  0
LINE
  5
4EB5
  8
0
 10
335.51050475402468
 20
29.643192135341199
 30
0.0
 11
335.51541293871469
 21
29.684476009286609
 31
0.0
  0
ARC
  5
4EB6
  8
0
 10
335.44341841464143
 20
29.647009320916801
 30
0.0
 40
0.0440024477195299
 50
183.73455425856321
 51
228.64016983914291
  0
ARC
  5
4EB7
  8
0
 10
335.45380295031163
 20
29.658288042878109
 30
0.0
 40
0.0593309059771841
 50
228.31033496026981
 51
260.73002242222231
  0
ARC
  5
4EB8
  8
0
 10
335.45548487052997
 20
29.663282695172231
 30
0.0
 40
0.0645369333191782
 50
259.97059284585009
 51
293.7709003540927
  0
ARC
  5
4EB9
  8
0
 10
335.4639143803916
 20
29.647588918036039
 30
0.0
 40
0.0467973782742005
 50
292.07061931859079
 51
354.6089032123632
  0
CIRCLE
  5
4EBA
  8
0
 10
335.45459851283431
 20
29.638991630352699
 30
0.0
 40
0.0166555298752413
  0
ARC
  5
4EBB
  8
0
 10
335.44567427588981
 20
29.660159824742689
 30
0.0
 40
0.0552293641759222
 50
107.8497920275893
 51
151.92068328706441
  0
ARC
  5
4EBC
  8
0
 10
335.45521597928018
 20
29.637831762790601
 30
0.0
 40
0.0794389175188702
 50
66.513372559220429
 51
109.4644227635596
  0
ARC
  5
4EBD
  8
0
 10
335.46412450942762
 20
29.65728061231513
 30
0.0
 40
0.058052498612662
 50
27.934516089822228
 51
66.927347277579329
  0
ARC
  5
4EBE
  8
0
 10
335.44622243499771
 20
29.64213369702119
 30
0.0
 40
0.0467562347019241
 50
105.0695850748681
 51
177.5366931257231
  0
ARC
  5
4EBF
  8
0
 10
335.45417540091302
 20
29.62532791633598
 30
0.0
 40
0.0651359462523046
 50
50.132251168780002
 51
107.98251715040109
  0
ARC
  5
4EC0
  8
0
 10
335.4680302923237
 20
29.64329382081155
 30
0.0
 40
0.0424745834202148
 50
359.86283199539753
 51
48.94176123398843
  0
ARC
  5
4EC1
  8
0
 10
335.43825243026032
 20
29.66759211315664
 30
0.0
 40
0.0452865399089404
 50
155.80025865475099
 51
211.1840303444865
  0
ARC
  5
4EC2
  8
0
 10
335.48184403504791
 20
29.667533270722469
 30
0.0
 40
0.0376022297732119
 50
319.65923561886621
 51
26.780775736758809
  0
LINE
  5
4EC3
  8
0
 10
335.61379003641468
 20
29.915432670086599
 30
0.0
 11
335.61122621351473
 21
29.957445332586609
 31
0.0
  0
LINE
  5
4EC4
  8
0
 10
335.72478538512468
 20
29.914481545441198
 30
0.0
 11
335.72969356981469
 21
29.955765419386609
 31
0.0
  0
ARC
  5
4EC5
  8
0
 10
335.65769904574142
 20
29.918298731016801
 30
0.0
 40
0.0440024477195299
 50
183.73455425856321
 51
228.64016983914291
  0
ARC
  5
4EC6
  8
0
 10
335.66808358141162
 20
29.929577452978108
 30
0.0
 40
0.0593309059771841
 50
228.31033496026981
 51
260.73002242222231
  0
ARC
  5
4EC7
  8
0
 10
335.66976550163002
 20
29.934572105272231
 30
0.0
 40
0.0645369333191782
 50
259.97059284585009
 51
293.7709003540927
  0
ARC
  5
4EC8
  8
0
 10
335.67819501149148
 20
29.918878328136039
 30
0.0
 40
0.0467973782742005
 50
292.07061931859079
 51
354.6089032123632
  0
CIRCLE
  5
4EC9
  8
0
 10
335.6688791439343
 20
29.910281040452698
 30
0.0
 40
0.0166555298752413
  0
ARC
  5
4ECA
  8
0
 10
335.65995490698981
 20
29.931449234842692
 30
0.0
 40
0.0552293641759222
 50
107.8497920275893
 51
151.92068328706441
  0
ARC
  5
4ECB
  8
0
 10
335.66949661038018
 20
29.9091211728906
 30
0.0
 40
0.0794389175188702
 50
66.513372559220429
 51
109.4644227635596
  0
ARC
  5
4ECC
  8
0
 10
335.67840514052762
 20
29.92857002241513
 30
0.0
 40
0.058052498612662
 50
27.934516089822228
 51
66.927347277579329
  0
ARC
  5
4ECD
  8
0
 10
335.66050306609759
 20
29.91342310712119
 30
0.0
 40
0.0467562347019241
 50
105.0695850748681
 51
177.5366931257231
  0
ARC
  5
4ECE
  8
0
 10
335.6684560320129
 20
29.89661732643598
 30
0.0
 40
0.0651359462523046
 50
50.132251168780002
 51
107.98251715040109
  0
ARC
  5
4ECF
  8
0
 10
335.6823109234237
 20
29.91458323091155
 30
0.0
 40
0.0424745834202148
 50
359.86283199539753
 51
48.94176123398843
  0
ARC
  5
4ED0
  8
0
 10
335.65253306136032
 20
29.93888152325664
 30
0.0
 40
0.0452865399089404
 50
155.80025865475099
 51
211.1840303444865
  0
ARC
  5
4ED1
  8
0
 10
335.6961246661478
 20
29.938822680822469
 30
0.0
 40
0.0376022297732119
 50
319.65923561886621
 51
26.780775736758809
  0
LINE
  5
4ED2
  8
0
 10
335.80951898876469
 20
30.19647359498661
 30
0.0
 11
335.80695516586468
 21
30.23848625748661
 31
0.0
  0
LINE
  5
4ED3
  8
0
 10
335.92051433747469
 20
30.195522470341199
 30
0.0
 11
335.92542252216469
 21
30.23680634428661
 31
0.0
  0
ARC
  5
4ED4
  8
0
 10
335.85342799809149
 20
30.199339655916798
 30
0.0
 40
0.0440024477195299
 50
183.73455425856321
 51
228.64016983914291
  0
ARC
  5
4ED5
  8
0
 10
335.86381253376157
 20
30.21061837787812
 30
0.0
 40
0.0593309059771841
 50
228.31033496026981
 51
260.73002242222231
  0
ARC
  5
4ED6
  8
0
 10
335.86549445397998
 20
30.215613030172229
 30
0.0
 40
0.0645369333191782
 50
259.97059284585009
 51
293.7709003540927
  0
ARC
  5
4ED7
  8
0
 10
335.87392396384161
 20
30.19991925303604
 30
0.0
 40
0.0467973782742005
 50
292.07061931859079
 51
354.6089032123632
  0
CIRCLE
  5
4ED8
  8
0
 10
335.86460809628431
 20
30.191321965352699
 30
0.0
 40
0.0166555298752413
  0
ARC
  5
4ED9
  8
0
 10
335.85568385933982
 20
30.2124901597427
 30
0.0
 40
0.0552293641759222
 50
107.8497920275893
 51
151.92068328706441
  0
ARC
  5
4EDA
  8
0
 10
335.8652255627303
 20
30.190162097790601
 30
0.0
 40
0.0794389175188702
 50
66.513372559220429
 51
109.4644227635596
  0
ARC
  5
4EDB
  8
0
 10
335.87413409287763
 20
30.209610947315131
 30
0.0
 40
0.058052498612662
 50
27.934516089822228
 51
66.927347277579329
  0
ARC
  5
4EDC
  8
0
 10
335.85623201844771
 20
30.194464032021191
 30
0.0
 40
0.0467562347019241
 50
105.0695850748681
 51
177.5366931257231
  0
ARC
  5
4EDD
  8
0
 10
335.86418498436302
 20
30.177658251335981
 30
0.0
 40
0.0651359462523046
 50
50.132251168780002
 51
107.98251715040109
  0
ARC
  5
4EDE
  8
0
 10
335.87803987577371
 20
30.195624155811551
 30
0.0
 40
0.0424745834202148
 50
359.86283199539753
 51
48.94176123398843
  0
ARC
  5
4EDF
  8
0
 10
335.84826201371033
 20
30.219922448156641
 30
0.0
 40
0.0452865399089404
 50
155.80025865475099
 51
211.1840303444865
  0
ARC
  5
4EE0
  8
0
 10
335.89185361849792
 20
30.21986360572247
 30
0.0
 40
0.0376022297732119
 50
319.65923561886621
 51
26.780775736758809
  0
LINE
  5
4EE1
  8
0
 10
335.6577464590647
 20
30.604936178036599
 30
0.0
 11
335.65518263616468
 21
30.646948840536609
 31
0.0
  0
LINE
  5
4EE2
  8
0
 10
335.76874180777457
 20
30.603985053391199
 30
0.0
 11
335.7736499924647
 21
30.645268927336609
 31
0.0
  0
ARC
  5
4EE3
  8
0
 10
335.70165546839149
 20
30.607802238966801
 30
0.0
 40
0.0440024477195299
 50
183.73455425856321
 51
228.64016983914291
  0
ARC
  5
4EE4
  8
0
 10
335.71204000406158
 20
30.619080960928109
 30
0.0
 40
0.0593309059771841
 50
228.31033496026981
 51
260.73002242222231
  0
ARC
  5
4EE5
  8
0
 10
335.71372192427998
 20
30.624075613222221
 30
0.0
 40
0.0645369333191782
 50
259.97059284585009
 51
293.7709003540927
  0
ARC
  5
4EE6
  8
0
 10
335.72215143414161
 20
30.608381836086039
 30
0.0
 40
0.0467973782742005
 50
292.07061931859079
 51
354.6089032123632
  0
CIRCLE
  5
4EE7
  8
0
 10
335.71283556658432
 20
30.599784548402688
 30
0.0
 40
0.0166555298752413
  0
ARC
  5
4EE8
  8
0
 10
335.70391132963982
 20
30.620952742792689
 30
0.0
 40
0.0552293641759222
 50
107.8497920275893
 51
151.92068328706441
  0
ARC
  5
4EE9
  8
0
 10
335.71345303303031
 20
30.598624680840601
 30
0.0
 40
0.0794389175188702
 50
66.513372559220429
 51
109.4644227635596
  0
ARC
  5
4EEA
  8
0
 10
335.72236156317763
 20
30.61807353036513
 30
0.0
 40
0.058052498612662
 50
27.934516089822228
 51
66.927347277579329
  0
ARC
  5
4EEB
  8
0
 10
335.7044594887476
 20
30.60292661507119
 30
0.0
 40
0.0467562347019241
 50
105.0695850748681
 51
177.5366931257231
  0
ARC
  5
4EEC
  8
0
 10
335.71241245466302
 20
30.58612083438598
 30
0.0
 40
0.0651359462523046
 50
50.132251168780002
 51
107.98251715040109
  0
ARC
  5
4EED
  8
0
 10
335.72626734607371
 20
30.60408673886155
 30
0.0
 40
0.0424745834202148
 50
359.86283199539753
 51
48.94176123398843
  0
ARC
  5
4EEE
  8
0
 10
335.69648948401033
 20
30.628385031206641
 30
0.0
 40
0.0452865399089404
 50
155.80025865475099
 51
211.1840303444865
  0
ARC
  5
4EEF
  8
0
 10
335.74008108879792
 20
30.628326188772469
 30
0.0
 40
0.0376022297732119
 50
319.65923561886621
 51
26.780775736758809
  0
LINE
  5
4EF0
  8
0
 10
336.01293839606473
 20
30.490339061886601
 30
0.0
 11
336.01037457316471
 21
30.532351724386611
 31
0.0
  0
LINE
  5
4EF1
  8
0
 10
336.1239337447746
 20
30.489387937241201
 30
0.0
 11
336.12884192946473
 21
30.530671811186611
 31
0.0
  0
ARC
  5
4EF2
  8
0
 10
336.05684740539141
 20
30.4932051228168
 30
0.0
 40
0.0440024477195299
 50
183.73455425856321
 51
228.64016983914291
  0
ARC
  5
4EF3
  8
0
 10
336.06723194106149
 20
30.504483844778122
 30
0.0
 40
0.0593309059771841
 50
228.31033496026981
 51
260.73002242222231
  0
ARC
  5
4EF4
  8
0
 10
336.06891386128001
 20
30.50947849707223
 30
0.0
 40
0.0645369333191782
 50
259.97059284585009
 51
293.7709003540927
  0
ARC
  5
4EF5
  8
0
 10
336.07734337114152
 20
30.493784719936041
 30
0.0
 40
0.0467973782742005
 50
292.07061931859079
 51
354.6089032123632
  0
CIRCLE
  5
4EF6
  8
0
 10
336.06802750358429
 20
30.48518743225269
 30
0.0
 40
0.0166555298752413
  0
ARC
  5
4EF7
  8
0
 10
336.0591032666398
 20
30.506355626642701
 30
0.0
 40
0.0552293641759222
 50
107.8497920275893
 51
151.92068328706441
  0
ARC
  5
4EF8
  8
0
 10
336.06864497003028
 20
30.484027564690599
 30
0.0
 40
0.0794389175188702
 50
66.513372559220429
 51
109.4644227635596
  0
ARC
  5
4EF9
  8
0
 10
336.0775535001776
 20
30.503476414215129
 30
0.0
 40
0.058052498612662
 50
27.934516089822228
 51
66.927347277579329
  0
ARC
  5
4EFA
  8
0
 10
336.05965142574757
 20
30.488329498921189
 30
0.0
 40
0.0467562347019241
 50
105.0695850748681
 51
177.5366931257231
  0
ARC
  5
4EFB
  8
0
 10
336.067604391663
 20
30.471523718235979
 30
0.0
 40
0.0651359462523046
 50
50.132251168780002
 51
107.98251715040109
  0
ARC
  5
4EFC
  8
0
 10
336.08145928307368
 20
30.489489622711549
 30
0.0
 40
0.0424745834202148
 50
359.86283199539753
 51
48.94176123398843
  0
ARC
  5
4EFD
  8
0
 10
336.05168142101019
 20
30.513787915056639
 30
0.0
 40
0.0452865399089404
 50
155.80025865475099
 51
211.1840303444865
  0
ARC
  5
4EFE
  8
0
 10
336.09527302579778
 20
30.513729072622461
 30
0.0
 40
0.0376022297732119
 50
319.65923561886621
 51
26.780775736758809
  0
LINE
  5
4EFF
  8
0
 10
336.33327321561472
 20
30.32878535018661
 30
0.0
 11
336.33070939271471
 21
30.37079801268661
 31
0.0
  0
LINE
  5
4F00
  8
0
 10
336.4442685643246
 20
30.327834225541199
 30
0.0
 11
336.44917674901473
 21
30.369118099486609
 31
0.0
  0
ARC
  5
4F01
  8
0
 10
336.37718222494141
 20
30.331651411116798
 30
0.0
 40
0.0440024477195299
 50
183.73455425856321
 51
228.64016983914291
  0
ARC
  5
4F02
  8
0
 10
336.38756676061149
 20
30.34293013307812
 30
0.0
 40
0.0593309059771841
 50
228.31033496026981
 51
260.73002242222231
  0
ARC
  5
4F03
  8
0
 10
336.38924868083001
 20
30.347924785372228
 30
0.0
 40
0.0645369333191782
 50
259.97059284585009
 51
293.7709003540927
  0
ARC
  5
4F04
  8
0
 10
336.39767819069152
 20
30.33223100823605
 30
0.0
 40
0.0467973782742005
 50
292.07061931859079
 51
354.6089032123632
  0
CIRCLE
  5
4F05
  8
0
 10
336.38836232313429
 20
30.323633720552699
 30
0.0
 40
0.0166555298752413
  0
ARC
  5
4F06
  8
0
 10
336.37943808618979
 20
30.3448019149427
 30
0.0
 40
0.0552293641759222
 50
107.8497920275893
 51
151.92068328706441
  0
ARC
  5
4F07
  8
0
 10
336.38897978958022
 20
30.322473852990601
 30
0.0
 40
0.0794389175188702
 50
66.513372559220429
 51
109.4644227635596
  0
ARC
  5
4F08
  8
0
 10
336.3978883197276
 20
30.341922702515131
 30
0.0
 40
0.058052498612662
 50
27.934516089822228
 51
66.927347277579329
  0
ARC
  5
4F09
  8
0
 10
336.37998624529757
 20
30.326775787221191
 30
0.0
 40
0.0467562347019241
 50
105.0695850748681
 51
177.5366931257231
  0
ARC
  5
4F0A
  8
0
 10
336.38793921121299
 20
30.309970006535981
 30
0.0
 40
0.0651359462523046
 50
50.132251168780002
 51
107.98251715040109
  0
ARC
  5
4F0B
  8
0
 10
336.40179410262368
 20
30.327935911011551
 30
0.0
 40
0.0424745834202148
 50
359.86283199539753
 51
48.94176123398843
  0
ARC
  5
4F0C
  8
0
 10
336.3720162405603
 20
30.352234203356641
 30
0.0
 40
0.0452865399089404
 50
155.80025865475099
 51
211.1840303444865
  0
ARC
  5
4F0D
  8
0
 10
336.41560784534778
 20
30.35217536092247
 30
0.0
 40
0.0376022297732119
 50
319.65923561886621
 51
26.780775736758809
  0
LINE
  5
4F0E
  8
0
 10
336.20308831311468
 20
29.965255583436601
 30
0.0
 11
336.2005244902146
 21
30.007268245936611
 31
0.0
  0
LINE
  5
4F0F
  8
0
 10
336.31408366182472
 20
29.964304458791201
 30
0.0
 11
336.31899184651468
 21
30.005588332736611
 31
0.0
  0
ARC
  5
4F10
  8
0
 10
336.24699732244142
 20
29.968121644366789
 30
0.0
 40
0.0440024477195299
 50
183.73455425856321
 51
228.64016983914291
  0
ARC
  5
4F11
  8
0
 10
336.25738185811161
 20
29.979400366328122
 30
0.0
 40
0.0593309059771841
 50
228.31033496026981
 51
260.73002242222231
  0
ARC
  5
4F12
  8
0
 10
336.2590637783299
 20
29.984395018622219
 30
0.0
 40
0.0645369333191782
 50
259.97059284585009
 51
293.7709003540927
  0
ARC
  5
4F13
  8
0
 10
336.26749328819147
 20
29.968701241486041
 30
0.0
 40
0.0467973782742005
 50
292.07061931859079
 51
354.6089032123632
  0
CIRCLE
  5
4F14
  8
0
 10
336.2581774206343
 20
29.96010395380269
 30
0.0
 40
0.0166555298752413
  0
ARC
  5
4F15
  8
0
 10
336.2492531836898
 20
29.981272148192701
 30
0.0
 40
0.0552293641759222
 50
107.8497920275893
 51
151.92068328706441
  0
ARC
  5
4F16
  8
0
 10
336.25879488708023
 20
29.958944086240599
 30
0.0
 40
0.0794389175188702
 50
66.513372559220429
 51
109.4644227635596
  0
ARC
  5
4F17
  8
0
 10
336.26770341722761
 20
29.978392935765129
 30
0.0
 40
0.058052498612662
 50
27.934516089822228
 51
66.927347277579329
  0
ARC
  5
4F18
  8
0
 10
336.24980134279758
 20
29.963246020471189
 30
0.0
 40
0.0467562347019241
 50
105.0695850748681
 51
177.5366931257231
  0
ARC
  5
4F19
  8
0
 10
336.25775430871289
 20
29.946440239785979
 30
0.0
 40
0.0651359462523046
 50
50.132251168780002
 51
107.98251715040109
  0
ARC
  5
4F1A
  8
0
 10
336.27160920012369
 20
29.964406144261549
 30
0.0
 40
0.0424745834202148
 50
359.86283199539753
 51
48.94176123398843
  0
ARC
  5
4F1B
  8
0
 10
336.24183133806031
 20
29.988704436606639
 30
0.0
 40
0.0452865399089404
 50
155.80025865475099
 51
211.1840303444865
  0
ARC
  5
4F1C
  8
0
 10
336.28542294284779
 20
29.988645594172461
 30
0.0
 40
0.0376022297732119
 50
319.65923561886621
 51
26.780775736758809
  0
LINE
  5
4F1D
  8
0
 10
336.0022688242147
 20
29.641694479886599
 30
0.0
 11
335.99970500131468
 21
29.683707142386609
 31
0.0
  0
LINE
  5
4F1E
  8
0
 10
336.11326417292469
 20
29.640743355241199
 30
0.0
 11
336.1181723576147
 21
29.682027229186609
 31
0.0
  0
ARC
  5
4F1F
  8
0
 10
336.04617783354138
 20
29.644560540816801
 30
0.0
 40
0.0440024477195299
 50
183.73455425856321
 51
228.64016983914291
  0
ARC
  5
4F20
  8
0
 10
336.05656236921158
 20
29.65583926277812
 30
0.0
 40
0.0593309059771841
 50
228.31033496026981
 51
260.73002242222231
  0
ARC
  5
4F21
  8
0
 10
336.05824428942998
 20
29.660833915072221
 30
0.0
 40
0.0645369333191782
 50
259.97059284585009
 51
293.7709003540927
  0
ARC
  5
4F22
  8
0
 10
336.06667379929149
 20
29.645140137936039
 30
0.0
 40
0.0467973782742005
 50
292.07061931859079
 51
354.6089032123632
  0
CIRCLE
  5
4F23
  8
0
 10
336.05735793173432
 20
29.636542850252699
 30
0.0
 40
0.0166555298752413
  0
ARC
  5
4F24
  8
0
 10
336.04843369478982
 20
29.657711044642699
 30
0.0
 40
0.0552293641759222
 50
107.8497920275893
 51
151.92068328706441
  0
ARC
  5
4F25
  8
0
 10
336.0579753981803
 20
29.635382982690601
 30
0.0
 40
0.0794389175188702
 50
66.513372559220429
 51
109.4644227635596
  0
ARC
  5
4F26
  8
0
 10
336.06688392832763
 20
29.65483183221513
 30
0.0
 40
0.058052498612662
 50
27.934516089822228
 51
66.927347277579329
  0
ARC
  5
4F27
  8
0
 10
336.0489818538976
 20
29.63968491692119
 30
0.0
 40
0.0467562347019241
 50
105.0695850748681
 51
177.5366931257231
  0
ARC
  5
4F28
  8
0
 10
336.05693481981302
 20
29.62287913623598
 30
0.0
 40
0.0651359462523046
 50
50.132251168780002
 51
107.98251715040109
  0
ARC
  5
4F29
  8
0
 10
336.07078971122371
 20
29.64084504071155
 30
0.0
 40
0.0424745834202148
 50
359.86283199539753
 51
48.94176123398843
  0
ARC
  5
4F2A
  8
0
 10
336.04101184916033
 20
29.665143333056641
 30
0.0
 40
0.0452865399089404
 50
155.80025865475099
 51
211.1840303444865
  0
ARC
  5
4F2B
  8
0
 10
336.08460345394781
 20
29.665084490622469
 30
0.0
 40
0.0376022297732119
 50
319.65923561886621
 51
26.780775736758809
  0
LINE
  5
4F2C
  8
0
 10
335.73337449541469
 20
29.246536533336599
 30
0.0
 11
335.73081067251479
 21
29.288549195836609
 31
0.0
  0
LINE
  5
4F2D
  8
0
 10
335.84436984412469
 20
29.245585408691198
 30
0.0
 11
335.84927802881469
 21
29.286869282636609
 31
0.0
  0
ARC
  5
4F2E
  8
0
 10
335.77728350474138
 20
29.249402594266801
 30
0.0
 40
0.0440024477195299
 50
183.73455425856301
 51
228.64016983914291
  0
ARC
  5
4F2F
  8
0
 10
335.78766804041157
 20
29.260681316228119
 30
0.0
 40
0.0593309059771841
 50
228.31033496026981
 51
260.73002242222231
  0
ARC
  5
4F30
  8
0
 10
335.78934996063009
 20
29.265675968522231
 30
0.0
 40
0.0645369333191782
 50
259.97059284585009
 51
293.7709003540927
  0
ARC
  5
4F31
  8
0
 10
335.79777947049161
 20
29.249982191386039
 30
0.0
 40
0.0467973782742005
 50
292.07061931859079
 51
354.6089032123632
  0
CIRCLE
  5
4F32
  8
0
 10
335.78846360293431
 20
29.241384903702698
 30
0.0
 40
0.0166555298752413
  0
ARC
  5
4F33
  8
0
 10
335.77953936598982
 20
29.262553098092699
 30
0.0
 40
0.0552293641759222
 50
107.8497920275893
 51
151.92068328706441
  0
ARC
  5
4F34
  8
0
 10
335.7890810693803
 20
29.2402250361406
 30
0.0
 40
0.0794389175188702
 50
66.513372559220429
 51
109.4644227635596
  0
ARC
  5
4F35
  8
0
 10
335.79798959952763
 20
29.25967388566513
 30
0.0
 40
0.058052498612662
 50
27.934516089822228
 51
66.927347277579329
  0
ARC
  5
4F36
  8
0
 10
335.78008752509771
 20
29.24452697037119
 30
0.0
 40
0.0467562347019241
 50
105.0695850748681
 51
177.5366931257231
  0
ARC
  5
4F37
  8
0
 10
335.78804049101302
 20
29.22772118968598
 30
0.0
 40
0.0651359462523046
 50
50.132251168780002
 51
107.98251715040109
  0
ARC
  5
4F38
  8
0
 10
335.80189538242371
 20
29.24568709416155
 30
0.0
 40
0.0424745834202148
 50
359.86283199539753
 51
48.94176123398843
  0
ARC
  5
4F39
  8
0
 10
335.77211752036033
 20
29.26998538650664
 30
0.0
 40
0.0452865399089404
 50
155.80025865475099
 51
211.1840303444865
  0
ARC
  5
4F3A
  8
0
 10
335.81570912514792
 20
29.269926544072469
 30
0.0
 40
0.0376022297732119
 50
319.65923561886621
 51
26.780775736758809
  0
LINE
  5
4F3B
  8
0
 10
336.13936545566469
 20
29.267745377486602
 30
0.0
 11
336.13680163276467
 21
29.309758039986608
 31
0.0
  0
LINE
  5
4F3C
  8
0
 10
336.25036080437468
 20
29.266794252841201
 30
0.0
 11
336.25526898906469
 21
29.308078126786612
 31
0.0
  0
ARC
  5
4F3D
  8
0
 10
336.18327446499143
 20
29.2706114384168
 30
0.0
 40
0.0440024477195299
 50
183.73455425856301
 51
228.64016983914291
  0
ARC
  5
4F3E
  8
0
 10
336.19365900066163
 20
29.281890160378119
 30
0.0
 40
0.0593309059771841
 50
228.31033496026981
 51
260.73002242222231
  0
ARC
  5
4F3F
  8
0
 10
336.19534092088003
 20
29.286884812672231
 30
0.0
 40
0.0645369333191782
 50
259.97059284585009
 51
293.7709003540927
  0
ARC
  5
4F40
  8
0
 10
336.20377043074149
 20
29.271191035536042
 30
0.0
 40
0.0467973782742005
 50
292.07061931859079
 51
354.6089032123632
  0
CIRCLE
  5
4F41
  8
0
 10
336.19445456318431
 20
29.262593747852691
 30
0.0
 40
0.0166555298752413
  0
ARC
  5
4F42
  8
0
 10
336.18553032623981
 20
29.283761942242698
 30
0.0
 40
0.0552293641759222
 50
107.8497920275893
 51
151.92068328706441
  0
ARC
  5
4F43
  8
0
 10
336.19507202963018
 20
29.2614338802906
 30
0.0
 40
0.0794389175188702
 50
66.513372559220429
 51
109.4644227635596
  0
ARC
  5
4F44
  8
0
 10
336.20398055977762
 20
29.280882729815129
 30
0.0
 40
0.058052498612662
 50
27.934516089822228
 51
66.927347277579329
  0
ARC
  5
4F45
  8
0
 10
336.18607848534759
 20
29.265735814521189
 30
0.0
 40
0.0467562347019241
 50
105.0695850748681
 51
177.5366931257231
  0
ARC
  5
4F46
  8
0
 10
336.19403145126302
 20
29.248930033835979
 30
0.0
 40
0.0651359462523046
 50
50.132251168780002
 51
107.98251715040109
  0
ARC
  5
4F47
  8
0
 10
336.2078863426737
 20
29.266895938311549
 30
0.0
 40
0.0424745834202148
 50
359.86283199539753
 51
48.94176123398843
  0
ARC
  5
4F48
  8
0
 10
336.17810848061032
 20
29.29119423065664
 30
0.0
 40
0.0452865399089404
 50
155.80025865475099
 51
211.1840303444865
  0
ARC
  5
4F49
  8
0
 10
336.2217000853978
 20
29.291135388222461
 30
0.0
 40
0.0376022297732119
 50
319.65923561886621
 51
26.780775736758809
  0
LINE
  5
4F4A
  8
0
 10
336.46101180411472
 20
29.653589382586599
 30
0.0
 11
336.4584479812147
 21
29.695602045086609
 31
0.0
  0
LINE
  5
4F4B
  8
0
 10
336.5720071528246
 20
29.652638257941199
 30
0.0
 11
336.57691533751472
 21
29.693922131886609
 31
0.0
  0
ARC
  5
4F4C
  8
0
 10
336.5049208134414
 20
29.656455443516801
 30
0.0
 40
0.0440024477195299
 50
183.73455425856321
 51
228.64016983914291
  0
ARC
  5
4F4D
  8
0
 10
336.5153053491116
 20
29.667734165478119
 30
0.0
 40
0.0593309059771841
 50
228.31033496026981
 51
260.73002242222231
  0
ARC
  5
4F4E
  8
0
 10
336.51698726933
 20
29.672728817772231
 30
0.0
 40
0.0645369333191782
 50
259.97059284585009
 51
293.7709003540927
  0
ARC
  5
4F4F
  8
0
 10
336.52541677919157
 20
29.657035040636039
 30
0.0
 40
0.0467973782742005
 50
292.07061931859079
 51
354.6089032123632
  0
CIRCLE
  5
4F50
  8
0
 10
336.51610091163428
 20
29.648437752952699
 30
0.0
 40
0.0166555298752413
  0
ARC
  5
4F51
  8
0
 10
336.50717667468979
 20
29.669605947342699
 30
0.0
 40
0.0552293641759222
 50
107.8497920275893
 51
151.92068328706441
  0
ARC
  5
4F52
  8
0
 10
336.51671837808021
 20
29.647277885390601
 30
0.0
 40
0.0794389175188702
 50
66.513372559220429
 51
109.4644227635596
  0
ARC
  5
4F53
  8
0
 10
336.52562690822759
 20
29.66672673491513
 30
0.0
 40
0.058052498612662
 50
27.934516089822228
 51
66.927347277579329
  0
ARC
  5
4F54
  8
0
 10
336.50772483379762
 20
29.65157981962119
 30
0.0
 40
0.0467562347019241
 50
105.0695850748681
 51
177.5366931257231
  0
ARC
  5
4F55
  8
0
 10
336.51567779971299
 20
29.63477403893598
 30
0.0
 40
0.0651359462523046
 50
50.132251168780002
 51
107.98251715040109
  0
ARC
  5
4F56
  8
0
 10
336.52953269112368
 20
29.65273994341155
 30
0.0
 40
0.0424745834202148
 50
359.86283199539753
 51
48.94176123398843
  0
ARC
  5
4F57
  8
0
 10
336.49975482906029
 20
29.67703823575664
 30
0.0
 40
0.0452865399089404
 50
155.80025865475099
 51
211.1840303444865
  0
ARC
  5
4F58
  8
0
 10
336.54334643384777
 20
29.676979393322469
 30
0.0
 40
0.0376022297732119
 50
319.65923561886621
 51
26.780775736758809
  0
LINE
  5
4F59
  8
0
 10
336.59251253621471
 20
30.121170027186611
 30
0.0
 11
336.5899487133147
 21
30.163182689686611
 31
0.0
  0
LINE
  5
4F5A
  8
0
 10
336.7035078849247
 20
30.1202189025412
 30
0.0
 11
336.70841606961471
 21
30.161502776486611
 31
0.0
  0
ARC
  5
4F5B
  8
0
 10
336.6364215455414
 20
30.124036088116799
 30
0.0
 40
0.0440024477195299
 50
183.73455425856321
 51
228.64016983914291
  0
ARC
  5
4F5C
  8
0
 10
336.64680608121159
 20
30.135314810078121
 30
0.0
 40
0.0593309059771841
 50
228.31033496026981
 51
260.73002242222231
  0
ARC
  5
4F5D
  8
0
 10
336.64848800143
 20
30.14030946237223
 30
0.0
 40
0.0645369333191782
 50
259.97059284585009
 51
293.7709003540927
  0
ARC
  5
4F5E
  8
0
 10
336.65691751129162
 20
30.124615685236051
 30
0.0
 40
0.0467973782742005
 50
292.07061931859079
 51
354.6089032123632
  0
CIRCLE
  5
4F5F
  8
0
 10
336.64760164373428
 20
30.1160183975527
 30
0.0
 40
0.0166555298752413
  0
ARC
  5
4F60
  8
0
 10
336.63867740678978
 20
30.137186591942701
 30
0.0
 40
0.0552293641759222
 50
107.8497920275893
 51
151.92068328706441
  0
ARC
  5
4F61
  8
0
 10
336.64821911018021
 20
30.114858529990599
 30
0.0
 40
0.0794389175188702
 50
66.513372559220429
 51
109.4644227635596
  0
ARC
  5
4F62
  8
0
 10
336.65712764032759
 20
30.134307379515128
 30
0.0
 40
0.058052498612662
 50
27.934516089822228
 51
66.927347277579329
  0
ARC
  5
4F63
  8
0
 10
336.63922556589762
 20
30.119160464221189
 30
0.0
 40
0.0467562347019241
 50
105.0695850748681
 51
177.5366931257231
  0
ARC
  5
4F64
  8
0
 10
336.64717853181298
 20
30.102354683535982
 30
0.0
 40
0.0651359462523046
 50
50.132251168780002
 51
107.98251715040109
  0
ARC
  5
4F65
  8
0
 10
336.66103342322373
 20
30.120320588011548
 30
0.0
 40
0.0424745834202148
 50
359.86283199539753
 51
48.94176123398843
  0
ARC
  5
4F66
  8
0
 10
336.63125556116029
 20
30.144618880356639
 30
0.0
 40
0.0452865399089404
 50
155.80025865475099
 51
211.1840303444865
  0
ARC
  5
4F67
  8
0
 10
336.67484716594782
 20
30.144560037922471
 30
0.0
 40
0.0376022297732119
 50
319.65923561886621
 51
26.780775736758809
  0
LINE
  5
4F68
  8
0
 10
336.78915234271471
 20
29.881541468286599
 30
0.0
 11
336.7865885198147
 21
29.923554130786609
 31
0.0
  0
LINE
  5
4F69
  8
0
 10
336.90014769142471
 20
29.880590343641199
 30
0.0
 11
336.90505587611472
 21
29.921874217586609
 31
0.0
  0
ARC
  5
4F6A
  8
0
 10
336.8330613520414
 20
29.884407529216801
 30
0.0
 40
0.0440024477195299
 50
183.73455425856321
 51
228.64016983914291
  0
ARC
  5
4F6B
  8
0
 10
336.8434458877116
 20
29.89568625117812
 30
0.0
 40
0.0593309059771841
 50
228.31033496026981
 51
260.73002242222231
  0
ARC
  5
4F6C
  8
0
 10
336.84512780793
 20
29.900680903472221
 30
0.0
 40
0.0645369333191782
 50
259.97059284585009
 51
293.7709003540927
  0
ARC
  5
4F6D
  8
0
 10
336.85355731779163
 20
29.884987126336039
 30
0.0
 40
0.0467973782742005
 50
292.07061931859079
 51
354.6089032123632
  0
CIRCLE
  5
4F6E
  8
0
 10
336.84424145023428
 20
29.876389838652699
 30
0.0
 40
0.0166555298752413
  0
ARC
  5
4F6F
  8
0
 10
336.83531721328978
 20
29.897558033042699
 30
0.0
 40
0.0552293641759222
 50
107.8497920275893
 51
151.92068328706441
  0
ARC
  5
4F70
  8
0
 10
336.84485891668021
 20
29.875229971090601
 30
0.0
 40
0.0794389175188702
 50
66.513372559220429
 51
109.4644227635596
  0
ARC
  5
4F71
  8
0
 10
336.85376744682759
 20
29.89467882061513
 30
0.0
 40
0.058052498612662
 50
27.934516089822228
 51
66.927347277579329
  0
ARC
  5
4F72
  8
0
 10
336.83586537239762
 20
29.879531905321191
 30
0.0
 40
0.0467562347019241
 50
105.0695850748681
 51
177.5366931257231
  0
ARC
  5
4F73
  8
0
 10
336.84381833831299
 20
29.86272612463598
 30
0.0
 40
0.0651359462523046
 50
50.132251168780002
 51
107.98251715040109
  0
ARC
  5
4F74
  8
0
 10
336.85767322972367
 20
29.88069202911155
 30
0.0
 40
0.0424745834202148
 50
359.86283199539753
 51
48.94176123398843
  0
ARC
  5
4F75
  8
0
 10
336.82789536766029
 20
29.904990321456641
 30
0.0
 40
0.0452865399089404
 50
155.80025865475099
 51
211.1840303444865
  0
ARC
  5
4F76
  8
0
 10
336.87148697244783
 20
29.904931479022469
 30
0.0
 40
0.0376022297732119
 50
319.65923561886621
 51
26.780775736758809
  0
LINE
  5
4F77
  8
0
 10
336.90751895951468
 20
29.61669337478661
 30
0.0
 11
336.90495513661472
 21
29.65870603728661
 31
0.0
  0
LINE
  5
4F78
  8
0
 10
337.01851430822472
 20
29.615742250141199
 30
0.0
 11
337.02342249291468
 21
29.65702612408661
 31
0.0
  0
ARC
  5
4F79
  8
0
 10
336.95142796884141
 20
29.619559435716798
 30
0.0
 40
0.0440024477195299
 50
183.73455425856321
 51
228.64016983914291
  0
ARC
  5
4F7A
  8
0
 10
336.96181250451161
 20
29.63083815767812
 30
0.0
 40
0.0593309059771841
 50
228.31033496026981
 51
260.73002242222231
  0
ARC
  5
4F7B
  8
0
 10
336.96349442473002
 20
29.635832809972229
 30
0.0
 40
0.0645369333191782
 50
259.97059284585009
 51
293.7709003540927
  0
ARC
  5
4F7C
  8
0
 10
336.97192393459159
 20
29.62013903283605
 30
0.0
 40
0.0467973782742005
 50
292.07061931859079
 51
354.6089032123632
  0
CIRCLE
  5
4F7D
  8
0
 10
336.9626080670343
 20
29.611541745152699
 30
0.0
 40
0.0166555298752413
  0
ARC
  5
4F7E
  8
0
 10
336.9536838300898
 20
29.632709939542689
 30
0.0
 40
0.0552293641759222
 50
107.8497920275893
 51
151.92068328706441
  0
ARC
  5
4F7F
  8
0
 10
336.96322553348023
 20
29.610381877590601
 30
0.0
 40
0.0794389175188702
 50
66.513372559220429
 51
109.4644227635596
  0
ARC
  5
4F80
  8
0
 10
336.97213406362761
 20
29.629830727115131
 30
0.0
 40
0.058052498612662
 50
27.934516089822228
 51
66.927347277579329
  0
ARC
  5
4F81
  8
0
 10
336.95423198919758
 20
29.614683811821191
 30
0.0
 40
0.0467562347019241
 50
105.0695850748681
 51
177.5366931257231
  0
ARC
  5
4F82
  8
0
 10
336.962184955113
 20
29.597878031135981
 30
0.0
 40
0.0651359462523046
 50
50.132251168780002
 51
107.98251715040109
  0
ARC
  5
4F83
  8
0
 10
336.97603984652369
 20
29.615843935611551
 30
0.0
 40
0.0424745834202148
 50
359.86283199539753
 51
48.94176123398843
  0
ARC
  5
4F84
  8
0
 10
336.94626198446031
 20
29.640142227956641
 30
0.0
 40
0.0452865399089404
 50
155.80025865475099
 51
211.1840303444865
  0
ARC
  5
4F85
  8
0
 10
336.98985358924779
 20
29.64008338552247
 30
0.0
 40
0.0376022297732119
 50
319.65923561886621
 51
26.780775736758809
  0
LINE
  5
4F86
  8
0
 10
336.54519707121472
 20
29.299012365136601
 30
0.0
 11
336.5426332483147
 21
29.341025027636611
 31
0.0
  0
LINE
  5
4F87
  8
0
 10
336.65619241992459
 20
29.298061240491201
 30
0.0
 11
336.66110060461472
 21
29.339345114436611
 31
0.0
  0
ARC
  5
4F88
  8
0
 10
336.5891060805414
 20
29.301878426066789
 30
0.0
 40
0.0440024477195299
 50
183.73455425856301
 51
228.64016983914291
  0
ARC
  5
4F89
  8
0
 10
336.5994906162116
 20
29.313157148028122
 30
0.0
 40
0.0593309059771841
 50
228.31033496026981
 51
260.73002242222231
  0
ARC
  5
4F8A
  8
0
 10
336.60117253643
 20
29.318151800322219
 30
0.0
 40
0.0645369333191782
 50
259.97059284585009
 51
293.7709003540927
  0
ARC
  5
4F8B
  8
0
 10
336.60960204629163
 20
29.302458023186041
 30
0.0
 40
0.0467973782742005
 50
292.07061931859079
 51
354.6089032123632
  0
CIRCLE
  5
4F8C
  8
0
 10
336.60028617873439
 20
29.29386073550269
 30
0.0
 40
0.0166555298752413
  0
ARC
  5
4F8D
  8
0
 10
336.5913619417899
 20
29.315028929892701
 30
0.0
 40
0.0552293641759222
 50
107.8497920275893
 51
151.92068328706441
  0
ARC
  5
4F8E
  8
0
 10
336.60090364518021
 20
29.292700867940599
 30
0.0
 40
0.0794389175188702
 50
66.513372559220429
 51
109.4644227635596
  0
ARC
  5
4F8F
  8
0
 10
336.60981217532759
 20
29.312149717465129
 30
0.0
 40
0.058052498612662
 50
27.934516089822228
 51
66.927347277579329
  0
ARC
  5
4F90
  8
0
 10
336.59191010089762
 20
29.297002802171189
 30
0.0
 40
0.0467562347019241
 50
105.0695850748681
 51
177.5366931257231
  0
ARC
  5
4F91
  8
0
 10
336.59986306681299
 20
29.280197021485979
 30
0.0
 40
0.0651359462523046
 50
50.132251168780002
 51
107.98251715040109
  0
ARC
  5
4F92
  8
0
 10
336.61371795822367
 20
29.298162925961549
 30
0.0
 40
0.0424745834202148
 50
359.86283199539753
 51
48.94176123398843
  0
ARC
  5
4F93
  8
0
 10
336.58394009616029
 20
29.322461218306639
 30
0.0
 40
0.0452865399089404
 50
155.80025865475099
 51
211.1840303444865
  0
ARC
  5
4F94
  8
0
 10
336.62753170094788
 20
29.322402375872461
 30
0.0
 40
0.0376022297732119
 50
319.65923561886621
 51
26.780775736758809
  0
LINE
  5
4F95
  8
0
 10
336.95038315171468
 20
29.3407667125866
 30
0.0
 11
336.94781932881472
 21
29.38277937508661
 31
0.0
  0
LINE
  5
4F96
  8
0
 10
337.06137850042472
 20
29.33981558794121
 30
0.0
 11
337.06628668511468
 21
29.38109946188661
 31
0.0
  0
ARC
  5
4F97
  8
0
 10
336.99429216104141
 20
29.343632773516799
 30
0.0
 40
0.0440024477195299
 50
183.73455425856301
 51
228.64016983914291
  0
ARC
  5
4F98
  8
0
 10
337.00467669671161
 20
29.35491149547812
 30
0.0
 40
0.0593309059771841
 50
228.31033496026981
 51
260.73002242222231
  0
ARC
  5
4F99
  8
0
 10
337.00635861693002
 20
29.359906147772229
 30
0.0
 40
0.0645369333191782
 50
259.97059284585009
 51
293.7709003540927
  0
ARC
  5
4F9A
  8
0
 10
337.01478812679159
 20
29.34421237063605
 30
0.0
 40
0.0467973782742005
 50
292.07061931859079
 51
354.6089032123632
  0
CIRCLE
  5
4F9B
  8
0
 10
337.0054722592343
 20
29.3356150829527
 30
0.0
 40
0.0166555298752413
  0
ARC
  5
4F9C
  8
0
 10
336.9965480222898
 20
29.3567832773427
 30
0.0
 40
0.0552293641759222
 50
107.8497920275893
 51
151.92068328706441
  0
ARC
  5
4F9D
  8
0
 10
337.00608972568023
 20
29.334455215390602
 30
0.0
 40
0.0794389175188702
 50
66.513372559220429
 51
109.4644227635596
  0
ARC
  5
4F9E
  8
0
 10
337.01499825582761
 20
29.353904064915131
 30
0.0
 40
0.058052498612662
 50
27.934516089822228
 51
66.927347277579329
  0
ARC
  5
4F9F
  8
0
 10
336.99709618139758
 20
29.338757149621191
 30
0.0
 40
0.0467562347019241
 50
105.0695850748681
 51
177.5366931257231
  0
ARC
  5
4FA0
  8
0
 10
337.005049147313
 20
29.321951368935981
 30
0.0
 40
0.0651359462523046
 50
50.132251168780002
 51
107.98251715040109
  0
ARC
  5
4FA1
  8
0
 10
337.01890403872369
 20
29.339917273411551
 30
0.0
 40
0.0424745834202148
 50
359.86283199539753
 51
48.94176123398843
  0
ARC
  5
4FA2
  8
0
 10
336.98912617666031
 20
29.364215565756641
 30
0.0
 40
0.0452865399089404
 50
155.80025865475099
 51
211.1840303444865
  0
ARC
  5
4FA3
  8
0
 10
337.03271778144779
 20
29.36415672332247
 30
0.0
 40
0.0376022297732119
 50
319.65923561886621
 51
26.780775736758809
  0
LINE
  5
4FA4
  8
0
 10
336.90687970931469
 20
29.0644135634866
 30
0.0
 11
336.90431588641468
 21
29.10642622598661
 31
0.0
  0
LINE
  5
4FA5
  8
0
 10
337.01787505802469
 20
29.063462438841199
 30
0.0
 11
337.0227832427147
 21
29.10474631278661
 31
0.0
  0
ARC
  5
4FA6
  8
0
 10
336.95078871864149
 20
29.067279624416798
 30
0.0
 40
0.0440024477195299
 50
183.73455425856301
 51
228.64016983914291
  0
ARC
  5
4FA7
  8
0
 10
336.96117325431157
 20
29.078558346378109
 30
0.0
 40
0.0593309059771841
 50
228.31033496026981
 51
260.73002242222231
  0
ARC
  5
4FA8
  8
0
 10
336.96285517452998
 20
29.083552998672221
 30
0.0
 40
0.0645369333191782
 50
259.97059284585009
 51
293.7709003540927
  0
ARC
  5
4FA9
  8
0
 10
336.97128468439161
 20
29.06785922153604
 30
0.0
 40
0.0467973782742005
 50
292.07061931859079
 51
354.6089032123632
  0
CIRCLE
  5
4FAA
  8
0
 10
336.96196881683431
 20
29.059261933852689
 30
0.0
 40
0.0166555298752413
  0
ARC
  5
4FAB
  8
0
 10
336.95304457988982
 20
29.080430128242689
 30
0.0
 40
0.0552293641759222
 50
107.8497920275893
 51
151.92068328706441
  0
ARC
  5
4FAC
  8
0
 10
336.9625862832803
 20
29.058102066290601
 30
0.0
 40
0.0794389175188702
 50
66.513372559220429
 51
109.4644227635596
  0
ARC
  5
4FAD
  8
0
 10
336.97149481342763
 20
29.077550915815131
 30
0.0
 40
0.058052498612662
 50
27.934516089822228
 51
66.927347277579329
  0
ARC
  5
4FAE
  8
0
 10
336.95359273899771
 20
29.062404000521191
 30
0.0
 40
0.0467562347019241
 50
105.0695850748681
 51
177.5366931257231
  0
ARC
  5
4FAF
  8
0
 10
336.96154570491302
 20
29.045598219835981
 30
0.0
 40
0.0651359462523046
 50
50.132251168780002
 51
107.98251715040109
  0
ARC
  5
4FB0
  8
0
 10
336.97540059632371
 20
29.063564124311551
 30
0.0
 40
0.0424745834202148
 50
359.86283199539753
 51
48.94176123398843
  0
ARC
  5
4FB1
  8
0
 10
336.94562273426033
 20
29.087862416656641
 30
0.0
 40
0.0452865399089404
 50
155.80025865475099
 51
211.1840303444865
  0
ARC
  5
4FB2
  8
0
 10
336.98921433904792
 20
29.087803574222459
 30
0.0
 40
0.0376022297732119
 50
319.65923561886621
 51
26.780775736758809
  0
LINE
  5
4FB3
  8
0
 10
336.45638110346471
 20
28.94435169093661
 30
0.0
 11
336.45381728056469
 21
28.98636435343661
 31
0.0
  0
LINE
  5
4FB4
  8
0
 10
336.5673764521747
 20
28.943400566291199
 30
0.0
 11
336.57228463686471
 21
28.98468444023661
 31
0.0
  0
ARC
  5
4FB5
  8
0
 10
336.50029011279139
 20
28.947217751866798
 30
0.0
 40
0.0440024477195299
 50
183.73455425856301
 51
228.64016983914291
  0
ARC
  5
4FB6
  8
0
 10
336.51067464846159
 20
28.95849647382812
 30
0.0
 40
0.0593309059771841
 50
228.31033496026981
 51
260.73002242222231
  0
ARC
  5
4FB7
  8
0
 10
336.51235656867999
 20
28.963491126122221
 30
0.0
 40
0.0645369333191782
 50
259.97059284585009
 51
293.7709003540927
  0
ARC
  5
4FB8
  8
0
 10
336.52078607854162
 20
28.94779734898604
 30
0.0
 40
0.0467973782742005
 50
292.07061931859079
 51
354.6089032123632
  0
CIRCLE
  5
4FB9
  8
0
 10
336.51147021098433
 20
28.939200061302699
 30
0.0
 40
0.0166555298752413
  0
ARC
  5
4FBA
  8
0
 10
336.50254597403978
 20
28.9603682556927
 30
0.0
 40
0.0552293641759222
 50
107.8497920275893
 51
151.92068328706441
  0
ARC
  5
4FBB
  8
0
 10
336.51208767743032
 20
28.938040193740601
 30
0.0
 40
0.0794389175188702
 50
66.513372559220429
 51
109.4644227635596
  0
ARC
  5
4FBC
  8
0
 10
336.52099620757758
 20
28.957489043265131
 30
0.0
 40
0.058052498612662
 50
27.934516089822228
 51
66.927347277579329
  0
ARC
  5
4FBD
  8
0
 10
336.50309413314773
 20
28.942342127971191
 30
0.0
 40
0.0467562347019241
 50
105.0695850748681
 51
177.5366931257231
  0
ARC
  5
4FBE
  8
0
 10
336.51104709906298
 20
28.925536347285981
 30
0.0
 40
0.0651359462523046
 50
50.132251168780002
 51
107.98251715040109
  0
ARC
  5
4FBF
  8
0
 10
336.52490199047372
 20
28.943502251761551
 30
0.0
 40
0.0424745834202148
 50
359.86283199539753
 51
48.94176123398843
  0
ARC
  5
4FC0
  8
0
 10
336.49512412841028
 20
28.967800544106641
 30
0.0
 40
0.0452865399089404
 50
155.80025865475099
 51
211.1840303444865
  0
ARC
  5
4FC1
  8
0
 10
336.53871573319782
 20
28.96774170167247
 30
0.0
 40
0.0376022297732119
 50
319.65923561886621
 51
26.780775736758809
  0
LINE
  5
4FC2
  8
0
 10
336.78855998991469
 20
28.799953551686599
 30
0.0
 11
336.78599616701467
 21
28.841966214186609
 31
0.0
  0
LINE
  5
4FC3
  8
0
 10
336.89955533862468
 20
28.799002427041199
 30
0.0
 11
336.90446352331469
 21
28.840286300986609
 31
0.0
  0
ARC
  5
4FC4
  8
0
 10
336.83246899924143
 20
28.802819612616801
 30
0.0
 40
0.0440024477195299
 50
183.73455425856301
 51
228.64016983914291
  0
ARC
  5
4FC5
  8
0
 10
336.84285353491163
 20
28.814098334578119
 30
0.0
 40
0.0593309059771841
 50
228.31033496026981
 51
260.73002242222231
  0
ARC
  5
4FC6
  8
0
 10
336.84453545513003
 20
28.819092986872231
 30
0.0
 40
0.0645369333191782
 50
259.97059284585009
 51
293.7709003540927
  0
ARC
  5
4FC7
  8
0
 10
336.85296496499149
 20
28.803399209736039
 30
0.0
 40
0.0467973782742005
 50
292.07061931859079
 51
354.6089032123632
  0
CIRCLE
  5
4FC8
  8
0
 10
336.84364909743431
 20
28.794801922052692
 30
0.0
 40
0.0166555298752413
  0
ARC
  5
4FC9
  8
0
 10
336.83472486048981
 20
28.815970116442699
 30
0.0
 40
0.0552293641759222
 50
107.8497920275893
 51
151.92068328706441
  0
ARC
  5
4FCA
  8
0
 10
336.8442665638803
 20
28.793642054490601
 30
0.0
 40
0.0794389175188702
 50
66.513372559220429
 51
109.4644227635596
  0
ARC
  5
4FCB
  8
0
 10
336.85317509402762
 20
28.81309090401513
 30
0.0
 40
0.058052498612662
 50
27.934516089822228
 51
66.927347277579329
  0
ARC
  5
4FCC
  8
0
 10
336.83527301959759
 20
28.79794398872119
 30
0.0
 40
0.0467562347019241
 50
105.0695850748681
 51
177.5366931257231
  0
ARC
  5
4FCD
  8
0
 10
336.84322598551302
 20
28.78113820803598
 30
0.0
 40
0.0651359462523046
 50
50.132251168780002
 51
107.98251715040109
  0
ARC
  5
4FCE
  8
0
 10
336.8570808769237
 20
28.79910411251155
 30
0.0
 40
0.0424745834202148
 50
359.86283199539753
 51
48.94176123398843
  0
ARC
  5
4FCF
  8
0
 10
336.82730301486032
 20
28.82340240485664
 30
0.0
 40
0.0452865399089404
 50
155.80025865475099
 51
211.1840303444865
  0
ARC
  5
4FD0
  8
0
 10
336.87089461964791
 20
28.823343562422458
 30
0.0
 40
0.0376022297732119
 50
319.65923561886621
 51
26.780775736758809
  0
LINE
  5
4FD1
  8
0
 10
335.99882679246468
 20
28.893579597136601
 30
0.0
 11
335.99626296956473
 21
28.935592259636611
 31
0.0
  0
LINE
  5
4FD2
  8
0
 10
336.10982214117467
 20
28.892628472491211
 30
0.0
 11
336.11473032586468
 21
28.93391234643661
 31
0.0
  0
ARC
  5
4FD3
  8
0
 10
336.04273580179142
 20
28.896445658066799
 30
0.0
 40
0.0440024477195299
 50
183.73455425856301
 51
228.64016983914291
  0
ARC
  5
4FD4
  8
0
 10
336.05312033746162
 20
28.907724380028121
 30
0.0
 40
0.0593309059771841
 50
228.31033496026981
 51
260.73002242222231
  0
ARC
  5
4FD5
  8
0
 10
336.05480225768002
 20
28.912719032322229
 30
0.0
 40
0.0645369333191782
 50
259.97059284585009
 51
293.7709003540927
  0
ARC
  5
4FD6
  8
0
 10
336.06323176754159
 20
28.89702525518604
 30
0.0
 40
0.0467973782742005
 50
292.07061931859079
 51
354.6089032123632
  0
CIRCLE
  5
4FD7
  8
0
 10
336.0539158999843
 20
28.8884279675027
 30
0.0
 40
0.0166555298752413
  0
ARC
  5
4FD8
  8
0
 10
336.04499166303981
 20
28.909596161892701
 30
0.0
 40
0.0552293641759222
 50
107.8497920275893
 51
151.92068328706441
  0
ARC
  5
4FD9
  8
0
 10
336.05453336643018
 20
28.887268099940599
 30
0.0
 40
0.0794389175188702
 50
66.513372559220429
 51
109.4644227635596
  0
ARC
  5
4FDA
  8
0
 10
336.06344189657761
 20
28.906716949465132
 30
0.0
 40
0.058052498612662
 50
27.934516089822228
 51
66.927347277579329
  0
ARC
  5
4FDB
  8
0
 10
336.0455398221477
 20
28.891570034171188
 30
0.0
 40
0.0467562347019241
 50
105.0695850748681
 51
177.5366931257231
  0
ARC
  5
4FDC
  8
0
 10
336.05349278806301
 20
28.874764253485981
 30
0.0
 40
0.0651359462523046
 50
50.132251168780002
 51
107.98251715040109
  0
ARC
  5
4FDD
  8
0
 10
336.0673476794737
 20
28.892730157961552
 30
0.0
 40
0.0424745834202148
 50
359.86283199539753
 51
48.94176123398843
  0
ARC
  5
4FDE
  8
0
 10
336.03756981741031
 20
28.917028450306638
 30
0.0
 40
0.0452865399089404
 50
155.80025865475099
 51
211.1840303444865
  0
ARC
  5
4FDF
  8
0
 10
336.08116142219791
 20
28.916969607872471
 30
0.0
 40
0.0376022297732119
 50
319.65923561886621
 51
26.780775736758809
  0
LINE
  5
4FE0
  8
0
 10
336.20417330481467
 20
28.632419019686608
 30
0.0
 11
336.20160948191472
 21
28.674431682186611
 31
0.0
  0
LINE
  5
4FE1
  8
0
 10
336.31516865352472
 20
28.631467895041212
 30
0.0
 11
336.32007683821467
 21
28.672751768986611
 31
0.0
  0
ARC
  5
4FE2
  8
0
 10
336.24808231414141
 20
28.6352850806168
 30
0.0
 40
0.0440024477195299
 50
183.73455425856301
 51
228.64016983914291
  0
ARC
  5
4FE3
  8
0
 10
336.25846684981161
 20
28.646563802578122
 30
0.0
 40
0.0593309059771841
 50
228.31033496026981
 51
260.73002242222231
  0
ARC
  5
4FE4
  8
0
 10
336.26014877003001
 20
28.65155845487223
 30
0.0
 40
0.0645369333191782
 50
259.97059284585009
 51
293.7709003540927
  0
ARC
  5
4FE5
  8
0
 10
336.26857827989159
 20
28.635864677736041
 30
0.0
 40
0.0467973782742005
 50
292.07061931859079
 51
354.6089032123632
  0
CIRCLE
  5
4FE6
  8
0
 10
336.25926241233429
 20
28.627267390052701
 30
0.0
 40
0.0166555298752413
  0
ARC
  5
4FE7
  8
0
 10
336.2503381753898
 20
28.648435584442701
 30
0.0
 40
0.0552293641759222
 50
107.8497920275893
 51
151.92068328706441
  0
ARC
  5
4FE8
  8
0
 10
336.25987987878023
 20
28.62610752249061
 30
0.0
 40
0.0794389175188702
 50
66.513372559220429
 51
109.4644227635596
  0
ARC
  5
4FE9
  8
0
 10
336.26878840892761
 20
28.645556372015129
 30
0.0
 40
0.058052498612662
 50
27.934516089822228
 51
66.927347277579329
  0
ARC
  5
4FEA
  8
0
 10
336.25088633449758
 20
28.630409456721189
 30
0.0
 40
0.0467562347019241
 50
105.0695850748681
 51
177.5366931257231
  0
ARC
  5
4FEB
  8
0
 10
336.258839300413
 20
28.613603676035979
 30
0.0
 40
0.0651359462523046
 50
50.132251168780002
 51
107.98251715040109
  0
ARC
  5
4FEC
  8
0
 10
336.27269419182369
 20
28.631569580511549
 30
0.0
 40
0.0424745834202148
 50
359.86283199539753
 51
48.94176123398843
  0
ARC
  5
4FED
  8
0
 10
336.24291632976031
 20
28.655867872856639
 30
0.0
 40
0.0452865399089404
 50
155.80025865475099
 51
211.1840303444865
  0
ARC
  5
4FEE
  8
0
 10
336.28650793454779
 20
28.655809030422471
 30
0.0
 40
0.0376022297732119
 50
319.65923561886621
 51
26.780775736758809
  0
LINE
  5
4FEF
  8
0
 10
336.59421078991471
 20
28.560146789686598
 30
0.0
 11
336.5916469670147
 21
28.602159452186608
 31
0.0
  0
LINE
  5
4FF0
  8
0
 10
336.7052061386247
 20
28.559195665041202
 30
0.0
 11
336.71011432331471
 21
28.600479538986612
 31
0.0
  0
ARC
  5
4FF1
  8
0
 10
336.63811979924139
 20
28.563012850616801
 30
0.0
 40
0.0440024477195299
 50
183.73455425856301
 51
228.64016983914291
  0
ARC
  5
4FF2
  8
0
 10
336.64850433491159
 20
28.574291572578119
 30
0.0
 40
0.0593309059771841
 50
228.31033496026981
 51
260.73002242222231
  0
ARC
  5
4FF3
  8
0
 10
336.65018625513
 20
28.57928622487222
 30
0.0
 40
0.0645369333191782
 50
259.97059284585009
 51
293.7709003540927
  0
ARC
  5
4FF4
  8
0
 10
336.65861576499162
 20
28.563592447736038
 30
0.0
 40
0.0467973782742005
 50
292.07061931859079
 51
354.6089032123632
  0
CIRCLE
  5
4FF5
  8
0
 10
336.64929989743428
 20
28.554995160052702
 30
0.0
 40
0.0166555298752413
  0
ARC
  5
4FF6
  8
0
 10
336.64037566048978
 20
28.576163354442699
 30
0.0
 40
0.0552293641759222
 50
107.8497920275893
 51
151.92068328706441
  0
ARC
  5
4FF7
  8
0
 10
336.64991736388032
 20
28.5538352924906
 30
0.0
 40
0.0794389175188702
 50
66.513372559220429
 51
109.4644227635596
  0
ARC
  5
4FF8
  8
0
 10
336.65882589402759
 20
28.57328414201513
 30
0.0
 40
0.058052498612662
 50
27.934516089822228
 51
66.927347277579329
  0
ARC
  5
4FF9
  8
0
 10
336.64092381959767
 20
28.55813722672119
 30
0.0
 40
0.0467562347019241
 50
105.0695850748681
 51
177.5366931257231
  0
ARC
  5
4FFA
  8
0
 10
336.64887678551298
 20
28.541331446035979
 30
0.0
 40
0.0651359462523046
 50
50.132251168780002
 51
107.98251715040109
  0
ARC
  5
4FFB
  8
0
 10
336.66273167692373
 20
28.559297350511549
 30
0.0
 40
0.0424745834202148
 50
359.86283199539753
 51
48.94176123398843
  0
ARC
  5
4FFC
  8
0
 10
336.63295381486029
 20
28.58359564285664
 30
0.0
 40
0.0452865399089404
 50
155.80025865475099
 51
211.1840303444865
  0
ARC
  5
4FFD
  8
0
 10
336.67654541964782
 20
28.583536800422468
 30
0.0
 40
0.0376022297732119
 50
319.65923561886621
 51
26.780775736758809
  0
LINE
  5
4FFE
  8
0
 10
336.33393725971467
 20
28.352775293886602
 30
0.0
 11
336.33137343681472
 21
28.394787956386612
 31
0.0
  0
LINE
  5
4FFF
  8
0
 10
336.44493260842472
 20
28.351824169241201
 30
0.0
 11
336.44984079311467
 21
28.393108043186611
 31
0.0
  0
ARC
  5
5000
  8
0
 10
336.37784626904141
 20
28.3556413548168
 30
0.0
 40
0.0440024477195299
 50
183.73455425856301
 51
228.64016983914291
  0
ARC
  5
5001
  8
0
 10
336.38823080471161
 20
28.366920076778111
 30
0.0
 40
0.0593309059771841
 50
228.31033496026981
 51
260.73002242222231
  0
ARC
  5
5002
  8
0
 10
336.38991272493001
 20
28.37191472907223
 30
0.0
 40
0.0645369333191782
 50
259.97059284585009
 51
293.7709003540927
  0
ARC
  5
5003
  8
0
 10
336.39834223479158
 20
28.356220951936042
 30
0.0
 40
0.0467973782742005
 50
292.07061931859079
 51
354.6089032123632
  0
CIRCLE
  5
5004
  8
0
 10
336.38902636723429
 20
28.347623664252701
 30
0.0
 40
0.0166555298752413
  0
ARC
  5
5005
  8
0
 10
336.3801021302898
 20
28.368791858642691
 30
0.0
 40
0.0552293641759222
 50
107.8497920275893
 51
151.92068328706441
  0
ARC
  5
5006
  8
0
 10
336.38964383368022
 20
28.3464637966906
 30
0.0
 40
0.0794389175188702
 50
66.513372559220429
 51
109.4644227635596
  0
ARC
  5
5007
  8
0
 10
336.3985523638276
 20
28.365912646215129
 30
0.0
 40
0.058052498612662
 50
27.934516089822228
 51
66.927347277579329
  0
ARC
  5
5008
  8
0
 10
336.38065028939758
 20
28.350765730921189
 30
0.0
 40
0.0467562347019241
 50
105.0695850748681
 51
177.5366931257231
  0
ARC
  5
5009
  8
0
 10
336.388603255313
 20
28.333959950235979
 30
0.0
 40
0.0651359462523046
 50
50.132251168780002
 51
107.98251715040109
  0
ARC
  5
500A
  8
0
 10
336.40245814672369
 20
28.351925854711549
 30
0.0
 40
0.0424745834202148
 50
359.86283199539753
 51
48.94176123398843
  0
ARC
  5
500B
  8
0
 10
336.37268028466031
 20
28.376224147056639
 30
0.0
 40
0.0452865399089404
 50
155.80025865475099
 51
211.1840303444865
  0
ARC
  5
500C
  8
0
 10
336.41627188944778
 20
28.376165304622472
 30
0.0
 40
0.0376022297732119
 50
319.65923561886621
 51
26.780775736758809
  0
LINE
  5
500D
  8
0
 10
336.0169884880147
 20
28.190477798186599
 30
0.0
 11
336.01442466511469
 21
28.232490460686609
 31
0.0
  0
LINE
  5
500E
  8
0
 10
336.12798383672458
 20
28.189526673541199
 30
0.0
 11
336.1328920214147
 21
28.230810547486609
 31
0.0
  0
ARC
  5
500F
  8
0
 10
336.06089749734139
 20
28.193343859116801
 30
0.0
 40
0.0440024477195299
 50
183.73455425856301
 51
228.64016983914291
  0
ARC
  5
5010
  8
0
 10
336.07128203301158
 20
28.204622581078109
 30
0.0
 40
0.0593309059771841
 50
228.31033496026981
 51
260.73002242222231
  0
ARC
  5
5011
  8
0
 10
336.07296395322999
 20
28.209617233372231
 30
0.0
 40
0.0645369333191782
 50
259.97059284585009
 51
293.7709003540927
  0
ARC
  5
5012
  8
0
 10
336.08139346309162
 20
28.193923456236039
 30
0.0
 40
0.0467973782742005
 50
292.07061931859079
 51
354.6089032123632
  0
CIRCLE
  5
5013
  8
0
 10
336.07207759553432
 20
28.185326168552699
 30
0.0
 40
0.0166555298752413
  0
ARC
  5
5014
  8
0
 10
336.06315335858977
 20
28.206494362942689
 30
0.0
 40
0.0552293641759222
 50
107.8497920275893
 51
151.92068328706441
  0
ARC
  5
5015
  8
0
 10
336.0726950619802
 20
28.184166300990601
 30
0.0
 40
0.0794389175188702
 50
66.513372559220429
 51
109.4644227635596
  0
ARC
  5
5016
  8
0
 10
336.08160359212758
 20
28.20361515051513
 30
0.0
 40
0.058052498612662
 50
27.934516089822228
 51
66.927347277579329
  0
ARC
  5
5017
  8
0
 10
336.06370151769761
 20
28.18846823522119
 30
0.0
 40
0.0467562347019241
 50
105.0695850748681
 51
177.5366931257231
  0
ARC
  5
5018
  8
0
 10
336.07165448361297
 20
28.17166245453598
 30
0.0
 40
0.0651359462523046
 50
50.132251168780002
 51
107.98251715040109
  0
ARC
  5
5019
  8
0
 10
336.08550937502372
 20
28.18962835901155
 30
0.0
 40
0.0424745834202148
 50
359.86283199539753
 51
48.94176123398843
  0
ARC
  5
501A
  8
0
 10
336.05573151296028
 20
28.21392665135664
 30
0.0
 40
0.0452865399089404
 50
155.80025865475099
 51
211.1840303444865
  0
ARC
  5
501B
  8
0
 10
336.09932311774787
 20
28.213867808922469
 30
0.0
 40
0.0376022297732119
 50
319.65923561886621
 51
26.780775736758809
  0
LINE
  5
501C
  8
0
 10
335.81307258621467
 20
28.400852644086601
 30
0.0
 11
335.81050876331471
 21
28.442865306586611
 31
0.0
  0
LINE
  5
501D
  8
0
 10
335.92406793492472
 20
28.399901519441201
 30
0.0
 11
335.92897611961467
 21
28.441185393386611
 31
0.0
  0
ARC
  5
501E
  8
0
 10
335.85698159554141
 20
28.4037187050168
 30
0.0
 40
0.0440024477195299
 50
183.73455425856301
 51
228.64016983914291
  0
ARC
  5
501F
  8
0
 10
335.86736613121161
 20
28.414997426978111
 30
0.0
 40
0.0593309059771841
 50
228.31033496026981
 51
260.73002242222231
  0
ARC
  5
5020
  8
0
 10
335.86904805143001
 20
28.41999207927223
 30
0.0
 40
0.0645369333191782
 50
259.97059284585009
 51
293.7709003540927
  0
ARC
  5
5021
  8
0
 10
335.87747756129158
 20
28.404298302136041
 30
0.0
 40
0.0467973782742005
 50
292.07061931859079
 51
354.6089032123632
  0
CIRCLE
  5
5022
  8
0
 10
335.86816169373429
 20
28.395701014452701
 30
0.0
 40
0.0166555298752413
  0
ARC
  5
5023
  8
0
 10
335.8592374567898
 20
28.416869208842691
 30
0.0
 40
0.0552293641759222
 50
107.8497920275893
 51
151.92068328706441
  0
ARC
  5
5024
  8
0
 10
335.86877916018022
 20
28.394541146890599
 30
0.0
 40
0.0794389175188702
 50
66.513372559220429
 51
109.4644227635596
  0
ARC
  5
5025
  8
0
 10
335.8776876903276
 20
28.413989996415129
 30
0.0
 40
0.058052498612662
 50
27.934516089822228
 51
66.927347277579329
  0
ARC
  5
5026
  8
0
 10
335.85978561589758
 20
28.398843081121189
 30
0.0
 40
0.0467562347019241
 50
105.0695850748681
 51
177.5366931257231
  0
ARC
  5
5027
  8
0
 10
335.867738581813
 20
28.382037300435979
 30
0.0
 40
0.0651359462523046
 50
50.132251168780002
 51
107.98251715040109
  0
ARC
  5
5028
  8
0
 10
335.88159347322369
 20
28.400003204911549
 30
0.0
 40
0.0424745834202148
 50
359.86283199539753
 51
48.94176123398843
  0
ARC
  5
5029
  8
0
 10
335.8518156111603
 20
28.424301497256639
 30
0.0
 40
0.0452865399089404
 50
155.80025865475099
 51
211.1840303444865
  0
ARC
  5
502A
  8
0
 10
335.8954072159479
 20
28.424242654822471
 30
0.0
 40
0.0376022297732119
 50
319.65923561886621
 51
26.780775736758809
  0
LINE
  5
502B
  8
0
 10
335.60653156171469
 20
28.619535527486601
 30
0.0
 11
335.60396773881467
 21
28.661548189986611
 31
0.0
  0
LINE
  5
502C
  8
0
 10
335.71752691042468
 20
28.618584402841201
 30
0.0
 11
335.72243509511469
 21
28.659868276786611
 31
0.0
  0
ARC
  5
502D
  8
0
 10
335.65044057104137
 20
28.6224015884168
 30
0.0
 40
0.0440024477195299
 50
183.73455425856301
 51
228.64016983914291
  0
ARC
  5
502E
  8
0
 10
335.66082510671163
 20
28.633680310378121
 30
0.0
 40
0.0593309059771841
 50
228.31033496026981
 51
260.73002242222231
  0
ARC
  5
502F
  8
0
 10
335.66250702692997
 20
28.638674962672219
 30
0.0
 40
0.0645369333191782
 50
259.97059284585009
 51
293.7709003540927
  0
ARC
  5
5030
  8
0
 10
335.67093653679149
 20
28.622981185536041
 30
0.0
 40
0.0467973782742005
 50
292.07061931859079
 51
354.6089032123632
  0
CIRCLE
  5
5031
  8
0
 10
335.66162066923431
 20
28.614383897852701
 30
0.0
 40
0.0166555298752413
  0
ARC
  5
5032
  8
0
 10
335.65269643228982
 20
28.635552092242701
 30
0.0
 40
0.0552293641759222
 50
107.8497920275893
 51
151.92068328706441
  0
ARC
  5
5033
  8
0
 10
335.66223813568018
 20
28.613224030290599
 30
0.0
 40
0.0794389175188702
 50
66.513372559220429
 51
109.4644227635596
  0
ARC
  5
5034
  8
0
 10
335.67114666582762
 20
28.632672879815129
 30
0.0
 40
0.058052498612662
 50
27.934516089822228
 51
66.927347277579329
  0
ARC
  5
5035
  8
0
 10
335.65324459139759
 20
28.617525964521189
 30
0.0
 40
0.0467562347019241
 50
105.0695850748681
 51
177.5366931257231
  0
ARC
  5
5036
  8
0
 10
335.66119755731302
 20
28.600720183835978
 30
0.0
 40
0.0651359462523046
 50
50.132251168780002
 51
107.98251715040109
  0
ARC
  5
5037
  8
0
 10
335.6750524487237
 20
28.618686088311549
 30
0.0
 40
0.0424745834202148
 50
359.86283199539753
 51
48.94176123398843
  0
ARC
  5
5038
  8
0
 10
335.64527458666032
 20
28.642984380656639
 30
0.0
 40
0.0452865399089404
 50
155.80025865475099
 51
211.1840303444865
  0
ARC
  5
5039
  8
0
 10
335.6888661914478
 20
28.642925538222471
 30
0.0
 40
0.0376022297732119
 50
319.65923561886621
 51
26.780775736758809
  0
LINE
  5
503A
  8
0
 10
335.39842422041471
 20
28.848566034486598
 30
0.0
 11
335.3958603975147
 21
28.890578696986609
 31
0.0
  0
LINE
  5
503B
  8
0
 10
335.5094195691247
 20
28.847614909841202
 30
0.0
 11
335.51432775381471
 21
28.888898783786608
 31
0.0
  0
ARC
  5
503C
  8
0
 10
335.44233322974139
 20
28.851432095416801
 30
0.0
 40
0.0440024477195299
 50
183.73455425856301
 51
228.64016983914291
  0
ARC
  5
503D
  8
0
 10
335.45271776541159
 20
28.862710817378119
 30
0.0
 40
0.0593309059771841
 50
228.31033496026981
 51
260.73002242222231
  0
ARC
  5
503E
  8
0
 10
335.45439968562999
 20
28.86770546967222
 30
0.0
 40
0.0645369333191782
 50
259.97059284585009
 51
293.7709003540927
  0
ARC
  5
503F
  8
0
 10
335.46282919549162
 20
28.852011692536038
 30
0.0
 40
0.0467973782742005
 50
292.07061931859079
 51
354.6089032123632
  0
CIRCLE
  5
5040
  8
0
 10
335.45351332793427
 20
28.843414404852702
 30
0.0
 40
0.0166555298752413
  0
ARC
  5
5041
  8
0
 10
335.44458909098978
 20
28.864582599242699
 30
0.0
 40
0.0552293641759222
 50
107.8497920275893
 51
151.92068328706441
  0
ARC
  5
5042
  8
0
 10
335.45413079438032
 20
28.8422545372906
 30
0.0
 40
0.0794389175188702
 50
66.513372559220429
 51
109.4644227635596
  0
ARC
  5
5043
  8
0
 10
335.46303932452759
 20
28.86170338681513
 30
0.0
 40
0.058052498612662
 50
27.934516089822228
 51
66.927347277579329
  0
ARC
  5
5044
  8
0
 10
335.44513725009767
 20
28.84655647152119
 30
0.0
 40
0.0467562347019241
 50
105.0695850748681
 51
177.5366931257231
  0
ARC
  5
5045
  8
0
 10
335.45309021601298
 20
28.829750690835979
 30
0.0
 40
0.0651359462523046
 50
50.132251168780002
 51
107.98251715040109
  0
ARC
  5
5046
  8
0
 10
335.46694510742373
 20
28.84771659531155
 30
0.0
 40
0.0424745834202148
 50
359.86283199539753
 51
48.94176123398843
  0
ARC
  5
5047
  8
0
 10
335.43716724536029
 20
28.87201488765664
 30
0.0
 40
0.0452865399089404
 50
155.80025865475099
 51
211.1840303444865
  0
ARC
  5
5048
  8
0
 10
335.48075885014782
 20
28.871956045222468
 30
0.0
 40
0.0376022297732119
 50
319.65923561886621
 51
26.780775736758809
  0
LINE
  5
5049
  8
0
 10
335.66131809241472
 20
28.076211534986601
 30
0.0
 11
335.6587542695147
 21
28.118224197486612
 31
0.0
  0
LINE
  5
504A
  8
0
 10
335.77231344112471
 20
28.075260410341201
 30
0.0
 11
335.77722162581472
 21
28.116544284286611
 31
0.0
  0
ARC
  5
504B
  8
0
 10
335.7052271017414
 20
28.0790775959168
 30
0.0
 40
0.0440024477195299
 50
183.73455425856301
 51
228.64016983914291
  0
ARC
  5
504C
  8
0
 10
335.7156116374116
 20
28.090356317878118
 30
0.0
 40
0.0593309059771841
 50
228.31033496026981
 51
260.73002242222231
  0
ARC
  5
504D
  8
0
 10
335.71729355763
 20
28.09535097017223
 30
0.0
 40
0.0645369333191782
 50
259.97059284585009
 51
293.7709003540927
  0
ARC
  5
504E
  8
0
 10
335.72572306749157
 20
28.079657193036041
 30
0.0
 40
0.0467973782742005
 50
292.07061931859079
 51
354.6089032123632
  0
CIRCLE
  5
504F
  8
0
 10
335.71640719993428
 20
28.071059905352701
 30
0.0
 40
0.0166555298752413
  0
ARC
  5
5050
  8
0
 10
335.70748296298979
 20
28.092228099742691
 30
0.0
 40
0.0552293641759222
 50
107.8497920275893
 51
151.92068328706441
  0
ARC
  5
5051
  8
0
 10
335.71702466638021
 20
28.0699000377906
 30
0.0
 40
0.0794389175188702
 50
66.513372559220429
 51
109.4644227635596
  0
ARC
  5
5052
  8
0
 10
335.72593319652759
 20
28.089348887315129
 30
0.0
 40
0.058052498612662
 50
27.934516089822228
 51
66.927347277579329
  0
ARC
  5
5053
  8
0
 10
335.70803112209762
 20
28.074201972021189
 30
0.0
 40
0.0467562347019241
 50
105.0695850748681
 51
177.5366931257231
  0
ARC
  5
5054
  8
0
 10
335.71598408801299
 20
28.057396191335979
 30
0.0
 40
0.0651359462523046
 50
50.132251168780002
 51
107.98251715040109
  0
ARC
  5
5055
  8
0
 10
335.72983897942368
 20
28.075362095811549
 30
0.0
 40
0.0424745834202148
 50
359.86283199539753
 51
48.94176123398843
  0
ARC
  5
5056
  8
0
 10
335.70006111736029
 20
28.099660388156639
 30
0.0
 40
0.0452865399089404
 50
155.80025865475099
 51
211.1840303444865
  0
ARC
  5
5057
  8
0
 10
335.74365272214777
 20
28.099601545722471
 30
0.0
 40
0.0376022297732119
 50
319.65923561886621
 51
26.780775736758809
  0
LINE
  5
5058
  8
0
 10
335.3411464952647
 20
28.277400040986599
 30
0.0
 11
335.33858267236479
 21
28.319412703486609
 31
0.0
  0
LINE
  5
5059
  8
0
 10
335.45214184397469
 20
28.276448916341199
 30
0.0
 11
335.4570500286647
 21
28.317732790286609
 31
0.0
  0
ARC
  5
505A
  8
0
 10
335.38505550459138
 20
28.280266101916801
 30
0.0
 40
0.0440024477195299
 50
183.73455425856301
 51
228.64016983914291
  0
ARC
  5
505B
  8
0
 10
335.39544004026158
 20
28.29154482387812
 30
0.0
 40
0.0593309059771841
 50
228.31033496026981
 51
260.73002242222231
  0
ARC
  5
505C
  8
0
 10
335.39712196048009
 20
28.296539476172221
 30
0.0
 40
0.0645369333191782
 50
259.97059284585009
 51
293.7709003540927
  0
ARC
  5
505D
  8
0
 10
335.40555147034161
 20
28.280845699036039
 30
0.0
 40
0.0467973782742005
 50
292.07061931859079
 51
354.6089032123632
  0
CIRCLE
  5
505E
  8
0
 10
335.39623560278432
 20
28.272248411352699
 30
0.0
 40
0.0166555298752413
  0
ARC
  5
505F
  8
0
 10
335.38731136583982
 20
28.293416605742699
 30
0.0
 40
0.0552293641759222
 50
107.8497920275893
 51
151.92068328706441
  0
ARC
  5
5060
  8
0
 10
335.3968530692303
 20
28.271088543790601
 30
0.0
 40
0.0794389175188702
 50
66.513372559220429
 51
109.4644227635596
  0
ARC
  5
5061
  8
0
 10
335.40576159937763
 20
28.29053739331513
 30
0.0
 40
0.058052498612662
 50
27.934516089822228
 51
66.927347277579329
  0
ARC
  5
5062
  8
0
 10
335.38785952494771
 20
28.27539047802119
 30
0.0
 40
0.0467562347019241
 50
105.0695850748681
 51
177.5366931257231
  0
ARC
  5
5063
  8
0
 10
335.39581249086302
 20
28.25858469733598
 30
0.0
 40
0.0651359462523046
 50
50.132251168780002
 51
107.98251715040109
  0
ARC
  5
5064
  8
0
 10
335.40966738227371
 20
28.27655060181155
 30
0.0
 40
0.0424745834202148
 50
359.86283199539753
 51
48.94176123398843
  0
ARC
  5
5065
  8
0
 10
335.37988952021033
 20
28.300848894156641
 30
0.0
 40
0.0452865399089404
 50
155.80025865475099
 51
211.1840303444865
  0
ARC
  5
5066
  8
0
 10
335.42348112499781
 20
28.300790051722469
 30
0.0
 40
0.0376022297732119
 50
319.65923561886621
 51
26.780775736758809
  0
LINE
  5
5067
  8
0
 10
335.08076792856468
 20
28.519294782186599
 30
0.0
 11
335.07820410566472
 21
28.561307444686609
 31
0.0
  0
LINE
  5
5068
  8
0
 10
335.19176327727467
 20
28.518343657541202
 30
0.0
 11
335.19667146196468
 21
28.559627531486608
 31
0.0
  0
ARC
  5
5069
  8
0
 10
335.12467693789142
 20
28.522160843116801
 30
0.0
 40
0.0440024477195299
 50
183.73455425856301
 51
228.64016983914291
  0
ARC
  5
506A
  8
0
 10
335.13506147356162
 20
28.533439565078119
 30
0.0
 40
0.0593309059771841
 50
228.31033496026981
 51
260.73002242222231
  0
ARC
  5
506B
  8
0
 10
335.13674339378002
 20
28.53843421737222
 30
0.0
 40
0.0645369333191782
 50
259.97059284585009
 51
293.7709003540927
  0
ARC
  5
506C
  8
0
 10
335.14517290364159
 20
28.522740440236038
 30
0.0
 40
0.0467973782742005
 50
292.07061931859079
 51
354.6089032123632
  0
CIRCLE
  5
506D
  8
0
 10
335.1358570360843
 20
28.514143152552698
 30
0.0
 40
0.0166555298752413
  0
ARC
  5
506E
  8
0
 10
335.12693279913981
 20
28.535311346942699
 30
0.0
 40
0.0552293641759222
 50
107.8497920275893
 51
151.92068328706441
  0
ARC
  5
506F
  8
0
 10
335.13647450253029
 20
28.5129832849906
 30
0.0
 40
0.0794389175188702
 50
66.513372559220429
 51
109.4644227635596
  0
ARC
  5
5070
  8
0
 10
335.14538303267761
 20
28.53243213451513
 30
0.0
 40
0.058052498612662
 50
27.934516089822228
 51
66.927347277579329
  0
ARC
  5
5071
  8
0
 10
335.1274809582477
 20
28.51728521922119
 30
0.0
 40
0.0467562347019241
 50
105.0695850748681
 51
177.5366931257231
  0
ARC
  5
5072
  8
0
 10
335.13543392416301
 20
28.500479438535979
 30
0.0
 40
0.0651359462523046
 50
50.132251168780002
 51
107.98251715040109
  0
ARC
  5
5073
  8
0
 10
335.14928881557381
 20
28.51844534301155
 30
0.0
 40
0.0424745834202148
 50
359.86283199539753
 51
48.94176123398843
  0
ARC
  5
5074
  8
0
 10
335.1195109535102
 20
28.54274363535664
 30
0.0
 40
0.0452865399089404
 50
155.80025865475099
 51
211.1840303444865
  0
ARC
  5
5075
  8
0
 10
335.16310255829791
 20
28.542684792922469
 30
0.0
 40
0.0376022297732119
 50
319.65923561886621
 51
26.780775736758809
  0
LINE
  5
5076
  8
0
 10
335.27549349816468
 20
28.019610692436601
 30
0.0
 11
335.27292967526472
 21
28.061623354936611
 31
0.0
  0
LINE
  5
5077
  8
0
 10
335.38648884687473
 20
28.018659567791211
 30
0.0
 11
335.39139703156468
 21
28.05994344173661
 31
0.0
  0
ARC
  5
5078
  8
0
 10
335.31940250749142
 20
28.022476753366799
 30
0.0
 40
0.0440024477195299
 50
183.73455425856301
 51
228.64016983914291
  0
ARC
  5
5079
  8
0
 10
335.32978704316162
 20
28.033755475328121
 30
0.0
 40
0.0593309059771841
 50
228.31033496026981
 51
260.73002242222231
  0
ARC
  5
507A
  8
0
 10
335.33146896338002
 20
28.03875012762223
 30
0.0
 40
0.0645369333191782
 50
259.97059284585009
 51
293.7709003540927
  0
ARC
  5
507B
  8
0
 10
335.33989847324148
 20
28.023056350486041
 30
0.0
 40
0.0467973782742005
 50
292.07061931859079
 51
354.6089032123632
  0
CIRCLE
  5
507C
  8
0
 10
335.3305826056843
 20
28.0144590628027
 30
0.0
 40
0.0166555298752413
  0
ARC
  5
507D
  8
0
 10
335.3216583687398
 20
28.035627257192701
 30
0.0
 40
0.0552293641759222
 50
107.8497920275893
 51
151.92068328706441
  0
ARC
  5
507E
  8
0
 10
335.33120007213017
 20
28.013299195240599
 30
0.0
 40
0.0794389175188702
 50
66.513372559220429
 51
109.4644227635596
  0
ARC
  5
507F
  8
0
 10
335.34010860227761
 20
28.032748044765128
 30
0.0
 40
0.058052498612662
 50
27.934516089822228
 51
66.927347277579329
  0
ARC
  5
5080
  8
0
 10
335.32220652784758
 20
28.017601129471188
 30
0.0
 40
0.0467562347019241
 50
105.0695850748681
 51
177.5366931257231
  0
ARC
  5
5081
  8
0
 10
335.33015949376301
 20
28.000795348785982
 30
0.0
 40
0.0651359462523046
 50
50.132251168780002
 51
107.98251715040109
  0
ARC
  5
5082
  8
0
 10
335.34401438517381
 20
28.018761253261552
 30
0.0
 40
0.0424745834202148
 50
359.86283199539753
 51
48.94176123398843
  0
ARC
  5
5083
  8
0
 10
335.31423652311031
 20
28.043059545606638
 30
0.0
 40
0.0452865399089404
 50
155.80025865475099
 51
211.1840303444865
  0
ARC
  5
5084
  8
0
 10
335.35782812789779
 20
28.043000703172471
 30
0.0
 40
0.0376022297732119
 50
319.65923561886621
 51
26.780775736758809
  0
LINE
  5
5085
  8
0
 10
334.8840805252147
 20
28.0183552980866
 30
0.0
 11
334.88151670231468
 21
28.060367960586611
 31
0.0
  0
LINE
  5
5086
  8
0
 10
334.99507587392458
 20
28.0174041734412
 30
0.0
 11
334.9999840586147
 21
28.05868804738661
 31
0.0
  0
ARC
  5
5087
  8
0
 10
334.92798953454138
 20
28.021221359016799
 30
0.0
 40
0.0440024477195299
 50
183.73455425856301
 51
228.64016983914291
  0
ARC
  5
5088
  8
0
 10
334.93837407021158
 20
28.032500080978121
 30
0.0
 40
0.0593309059771841
 50
228.31033496026981
 51
260.73002242222231
  0
ARC
  5
5089
  8
0
 10
334.94005599042998
 20
28.037494733272219
 30
0.0
 40
0.0645369333191782
 50
259.97059284585009
 51
293.7709003540927
  0
ARC
  5
508A
  8
0
 10
334.9484855002915
 20
28.02180095613604
 30
0.0
 40
0.0467973782742005
 50
292.07061931859079
 51
354.6089032123632
  0
CIRCLE
  5
508B
  8
0
 10
334.93916963273432
 20
28.013203668452689
 30
0.0
 40
0.0166555298752413
  0
ARC
  5
508C
  8
0
 10
334.93024539578983
 20
28.034371862842701
 30
0.0
 40
0.0552293641759222
 50
107.8497920275893
 51
151.92068328706441
  0
ARC
  5
508D
  8
0
 10
334.93978709918019
 20
28.012043800890599
 30
0.0
 40
0.0794389175188702
 50
66.513372559220429
 51
109.4644227635596
  0
ARC
  5
508E
  8
0
 10
334.94869562932757
 20
28.031492650415132
 30
0.0
 40
0.058052498612662
 50
27.934516089822228
 51
66.927347277579329
  0
ARC
  5
508F
  8
0
 10
334.9307935548976
 20
28.016345735121192
 30
0.0
 40
0.0467562347019241
 50
105.0695850748681
 51
177.5366931257231
  0
ARC
  5
5090
  8
0
 10
334.93874652081303
 20
27.999539954435981
 30
0.0
 40
0.0651359462523046
 50
50.132251168780002
 51
107.98251715040109
  0
ARC
  5
5091
  8
0
 10
334.95260141222371
 20
28.017505858911552
 30
0.0
 40
0.0424745834202148
 50
359.86283199539753
 51
48.94176123398843
  0
ARC
  5
5092
  8
0
 10
334.92282355016027
 20
28.041804151256638
 30
0.0
 40
0.0452865399089404
 50
155.80025865475099
 51
211.1840303444865
  0
ARC
  5
5093
  8
0
 10
334.96641515494792
 20
28.04174530882246
 30
0.0
 40
0.0376022297732119
 50
319.65923561886621
 51
26.780775736758809
  0
LINE
  5
5094
  8
0
 10
334.83373274831467
 20
28.277330772086611
 30
0.0
 11
334.83116892541472
 21
28.31934343458661
 31
0.0
  0
LINE
  5
5095
  8
0
 10
334.94472809702472
 20
28.2763796474412
 30
0.0
 11
334.94963628171467
 21
28.31766352138661
 31
0.0
  0
ARC
  5
5096
  8
0
 10
334.87764175764141
 20
28.280196833016799
 30
0.0
 40
0.0440024477195299
 50
183.73455425856301
 51
228.64016983914291
  0
ARC
  5
5097
  8
0
 10
334.88802629331161
 20
28.29147555497812
 30
0.0
 40
0.0593309059771841
 50
228.31033496026981
 51
260.73002242222231
  0
ARC
  5
5098
  8
0
 10
334.88970821353001
 20
28.296470207272229
 30
0.0
 40
0.0645369333191782
 50
259.97059284585009
 51
293.7709003540927
  0
ARC
  5
5099
  8
0
 10
334.89813772339153
 20
28.280776430136051
 30
0.0
 40
0.0467973782742005
 50
292.07061931859079
 51
354.6089032123632
  0
CIRCLE
  5
509A
  8
0
 10
334.88882185583429
 20
28.2721791424527
 30
0.0
 40
0.0166555298752413
  0
ARC
  5
509B
  8
0
 10
334.8798976188898
 20
28.2933473368427
 30
0.0
 40
0.0552293641759222
 50
107.8497920275893
 51
151.92068328706441
  0
ARC
  5
509C
  8
0
 10
334.88943932228023
 20
28.271019274890602
 30
0.0
 40
0.0794389175188702
 50
66.513372559220429
 51
109.4644227635596
  0
ARC
  5
509D
  8
0
 10
334.89834785242761
 20
28.290468124415131
 30
0.0
 40
0.058052498612662
 50
27.934516089822228
 51
66.927347277579329
  0
ARC
  5
509E
  8
0
 10
334.88044577799758
 20
28.275321209121191
 30
0.0
 40
0.0467562347019241
 50
105.0695850748681
 51
177.5366931257231
  0
ARC
  5
509F
  8
0
 10
334.888398743913
 20
28.258515428435981
 30
0.0
 40
0.0651359462523046
 50
50.132251168780002
 51
107.98251715040109
  0
ARC
  5
50A0
  8
0
 10
334.90225363532369
 20
28.276481332911551
 30
0.0
 40
0.0424745834202148
 50
359.86283199539753
 51
48.94176123398843
  0
ARC
  5
50A1
  8
0
 10
334.87247577326031
 20
28.300779625256641
 30
0.0
 40
0.0452865399089404
 50
155.80025865475099
 51
211.1840303444865
  0
ARC
  5
50A2
  8
0
 10
334.91606737804779
 20
28.30072078282247
 30
0.0
 40
0.0376022297732119
 50
319.65923561886621
 51
26.780775736758809
  0
LINE
  5
50A3
  8
0
 10
334.50853233171472
 20
28.077163097186599
 30
0.0
 11
334.5059685088147
 21
28.119175759686609
 31
0.0
  0
LINE
  5
50A4
  8
0
 10
334.6195276804246
 20
28.076211972541198
 30
0.0
 11
334.62443586511472
 21
28.117495846486609
 31
0.0
  0
ARC
  5
50A5
  8
0
 10
334.5524413410414
 20
28.080029158116801
 30
0.0
 40
0.0440024477195299
 50
183.73455425856301
 51
228.64016983914291
  0
ARC
  5
50A6
  8
0
 10
334.5628258767116
 20
28.091307880078109
 30
0.0
 40
0.0593309059771841
 50
228.31033496026981
 51
260.73002242222231
  0
ARC
  5
50A7
  8
0
 10
334.56450779693
 20
28.096302532372231
 30
0.0
 40
0.0645369333191782
 50
259.97059284585009
 51
293.7709003540927
  0
ARC
  5
50A8
  8
0
 10
334.57293730679157
 20
28.080608755236039
 30
0.0
 40
0.0467973782742005
 50
292.07061931859079
 51
354.6089032123632
  0
CIRCLE
  5
50A9
  8
0
 10
334.56362143923428
 20
28.072011467552699
 30
0.0
 40
0.0166555298752413
  0
ARC
  5
50AA
  8
0
 10
334.55469720228979
 20
28.093179661942688
 30
0.0
 40
0.0552293641759222
 50
107.8497920275893
 51
151.92068328706441
  0
ARC
  5
50AB
  8
0
 10
334.56423890568021
 20
28.070851599990601
 30
0.0
 40
0.0794389175188702
 50
66.513372559220429
 51
109.4644227635596
  0
ARC
  5
50AC
  8
0
 10
334.57314743582759
 20
28.09030044951513
 30
0.0
 40
0.058052498612662
 50
27.934516089822228
 51
66.927347277579329
  0
ARC
  5
50AD
  8
0
 10
334.55524536139762
 20
28.07515353422119
 30
0.0
 40
0.0467562347019241
 50
105.0695850748681
 51
177.5366931257231
  0
ARC
  5
50AE
  8
0
 10
334.56319832731299
 20
28.05834775353598
 30
0.0
 40
0.0651359462523046
 50
50.132251168780002
 51
107.98251715040109
  0
ARC
  5
50AF
  8
0
 10
334.57705321872368
 20
28.07631365801155
 30
0.0
 40
0.0424745834202148
 50
359.86283199539753
 51
48.94176123398843
  0
ARC
  5
50B0
  8
0
 10
334.54727535666029
 20
28.10061195035664
 30
0.0
 40
0.0452865399089404
 50
155.80025865475099
 51
211.1840303444865
  0
ARC
  5
50B1
  8
0
 10
334.59086696144777
 20
28.100553107922469
 30
0.0
 40
0.0376022297732119
 50
319.65923561886621
 51
26.780775736758809
  0
LINE
  5
50B2
  8
0
 10
334.15098693871471
 20
28.188855179386611
 30
0.0
 11
334.14842311581469
 21
28.23086784188661
 31
0.0
  0
LINE
  5
50B3
  8
0
 10
334.26198228742459
 20
28.1879040547412
 30
0.0
 11
334.26689047211471
 21
28.22918792868661
 31
0.0
  0
ARC
  5
50B4
  8
0
 10
334.19489594804151
 20
28.191721240316799
 30
0.0
 40
0.0440024477195299
 50
183.73455425856301
 51
228.64016983914291
  0
ARC
  5
50B5
  8
0
 10
334.20528048371159
 20
28.20299996227812
 30
0.0
 40
0.0593309059771841
 50
228.31033496026981
 51
260.73002242222231
  0
ARC
  5
50B6
  8
0
 10
334.20696240392999
 20
28.207994614572229
 30
0.0
 40
0.0645369333191782
 50
259.97059284585009
 51
293.7709003540927
  0
ARC
  5
50B7
  8
0
 10
334.21539191379162
 20
28.192300837436051
 30
0.0
 40
0.0467973782742005
 50
292.07061931859079
 51
354.6089032123632
  0
CIRCLE
  5
50B8
  8
0
 10
334.20607604623427
 20
28.1837035497527
 30
0.0
 40
0.0166555298752413
  0
ARC
  5
50B9
  8
0
 10
334.19715180928978
 20
28.2048717441427
 30
0.0
 40
0.0552293641759222
 50
107.8497920275893
 51
151.92068328706441
  0
ARC
  5
50BA
  8
0
 10
334.20669351268032
 20
28.182543682190602
 30
0.0
 40
0.0794389175188702
 50
66.513372559220429
 51
109.4644227635596
  0
ARC
  5
50BB
  8
0
 10
334.21560204282758
 20
28.201992531715131
 30
0.0
 40
0.058052498612662
 50
27.934516089822228
 51
66.927347277579329
  0
ARC
  5
50BC
  8
0
 10
334.19769996839761
 20
28.186845616421191
 30
0.0
 40
0.0467562347019241
 50
105.0695850748681
 51
177.5366931257231
  0
ARC
  5
50BD
  8
0
 10
334.20565293431298
 20
28.170039835735981
 30
0.0
 40
0.0651359462523046
 50
50.132251168780002
 51
107.98251715040109
  0
ARC
  5
50BE
  8
0
 10
334.21950782572372
 20
28.188005740211551
 30
0.0
 40
0.0424745834202148
 50
359.86283199539753
 51
48.94176123398843
  0
ARC
  5
50BF
  8
0
 10
334.18972996366028
 20
28.212304032556641
 30
0.0
 40
0.0452865399089404
 50
155.80025865475099
 51
211.1840303444865
  0
ARC
  5
50C0
  8
0
 10
334.23332156844788
 20
28.21224519012247
 30
0.0
 40
0.0376022297732119
 50
319.65923561886621
 51
26.780775736758809
  0
LINE
  5
50C1
  8
0
 10
334.3561116963146
 20
28.400499451286599
 30
0.0
 11
334.3535478734147
 21
28.442512113786609
 31
0.0
  0
LINE
  5
50C2
  8
0
 10
334.46710704502459
 20
28.399548326641199
 30
0.0
 11
334.47201522971471
 21
28.440832200586609
 31
0.0
  0
ARC
  5
50C3
  8
0
 10
334.4000207056414
 20
28.403365512216801
 30
0.0
 40
0.0440024477195299
 50
183.73455425856301
 51
228.64016983914291
  0
ARC
  5
50C4
  8
0
 10
334.41040524131159
 20
28.41464423417812
 30
0.0
 40
0.0593309059771841
 50
228.31033496026981
 51
260.73002242222231
  0
ARC
  5
50C5
  8
0
 10
334.41208716153
 20
28.419638886472232
 30
0.0
 40
0.0645369333191782
 50
259.97059284585009
 51
293.7709003540927
  0
ARC
  5
50C6
  8
0
 10
334.42051667139162
 20
28.403945109336039
 30
0.0
 40
0.0467973782742005
 50
292.07061931859079
 51
354.6089032123632
  0
CIRCLE
  5
50C7
  8
0
 10
334.41120080383428
 20
28.395347821652699
 30
0.0
 40
0.0166555298752413
  0
ARC
  5
50C8
  8
0
 10
334.40227656688978
 20
28.416516016042699
 30
0.0
 40
0.0552293641759222
 50
107.8497920275893
 51
151.92068328706441
  0
ARC
  5
50C9
  8
0
 10
334.41181827028032
 20
28.394187954090601
 30
0.0
 40
0.0794389175188702
 50
66.513372559220429
 51
109.4644227635596
  0
ARC
  5
50CA
  8
0
 10
334.42072680042759
 20
28.41363680361513
 30
0.0
 40
0.058052498612662
 50
27.934516089822228
 51
66.927347277579329
  0
ARC
  5
50CB
  8
0
 10
334.40282472599762
 20
28.39848988832119
 30
0.0
 40
0.0467562347019241
 50
105.0695850748681
 51
177.5366931257231
  0
ARC
  5
50CC
  8
0
 10
334.41077769191298
 20
28.38168410763598
 30
0.0
 40
0.0651359462523046
 50
50.132251168780002
 51
107.98251715040109
  0
ARC
  5
50CD
  8
0
 10
334.42463258332373
 20
28.39965001211155
 30
0.0
 40
0.0424745834202148
 50
359.86283199539753
 51
48.94176123398843
  0
ARC
  5
50CE
  8
0
 10
334.39485472126029
 20
28.423948304456641
 30
0.0
 40
0.0452865399089404
 50
155.80025865475099
 51
211.1840303444865
  0
ARC
  5
50CF
  8
0
 10
334.43844632604782
 20
28.423889462022469
 30
0.0
 40
0.0376022297732119
 50
319.65923561886621
 51
26.780775736758809
  0
LINE
  5
50D0
  8
0
 10
334.56076196251468
 20
28.619257469486602
 30
0.0
 11
334.55819813961472
 21
28.661270131986608
 31
0.0
  0
LINE
  5
50D1
  8
0
 10
334.67175731122472
 20
28.618306344841201
 30
0.0
 11
334.67666549591468
 21
28.659590218786612
 31
0.0
  0
ARC
  5
50D2
  8
0
 10
334.60467097184141
 20
28.6221235304168
 30
0.0
 40
0.0440024477195299
 50
183.73455425856301
 51
228.64016983914291
  0
ARC
  5
50D3
  8
0
 10
334.61505550751161
 20
28.633402252378112
 30
0.0
 40
0.0593309059771841
 50
228.31033496026981
 51
260.73002242222231
  0
ARC
  5
50D4
  8
0
 10
334.61673742773002
 20
28.638396904672231
 30
0.0
 40
0.0645369333191782
 50
259.97059284585009
 51
293.7709003540927
  0
ARC
  5
50D5
  8
0
 10
334.62516693759147
 20
28.622703127536042
 30
0.0
 40
0.0467973782742005
 50
292.07061931859079
 51
354.6089032123632
  0
CIRCLE
  5
50D6
  8
0
 10
334.6158510700343
 20
28.614105839852702
 30
0.0
 40
0.0166555298752413
  0
ARC
  5
50D7
  8
0
 10
334.6069268330898
 20
28.635274034242691
 30
0.0
 40
0.0552293641759222
 50
107.8497920275893
 51
151.92068328706441
  0
ARC
  5
50D8
  8
0
 10
334.61646853648023
 20
28.6129459722906
 30
0.0
 40
0.0794389175188702
 50
66.513372559220429
 51
109.4644227635596
  0
ARC
  5
50D9
  8
0
 10
334.62537706662761
 20
28.632394821815129
 30
0.0
 40
0.058052498612662
 50
27.934516089822228
 51
66.927347277579329
  0
ARC
  5
50DA
  8
0
 10
334.60747499219758
 20
28.61724790652119
 30
0.0
 40
0.0467562347019241
 50
105.0695850748681
 51
177.5366931257231
  0
ARC
  5
50DB
  8
0
 10
334.615427958113
 20
28.600442125835979
 30
0.0
 40
0.0651359462523046
 50
50.132251168780002
 51
107.98251715040109
  0
ARC
  5
50DC
  8
0
 10
334.62928284952369
 20
28.618408030311549
 30
0.0
 40
0.0424745834202148
 50
359.86283199539753
 51
48.94176123398843
  0
ARC
  5
50DD
  8
0
 10
334.59950498746019
 20
28.64270632265664
 30
0.0
 40
0.0452865399089404
 50
155.80025865475099
 51
211.1840303444865
  0
ARC
  5
50DE
  8
0
 10
334.6430965922479
 20
28.642647480222472
 30
0.0
 40
0.0376022297732119
 50
319.65923561886621
 51
26.780775736758809
  0
LINE
  5
50DF
  8
0
 10
334.7584561831647
 20
28.8487231805866
 30
0.0
 11
334.75589236026468
 21
28.89073584308661
 31
0.0
  0
LINE
  5
50E0
  8
0
 10
334.86945153187469
 20
28.847772055941199
 30
0.0
 11
334.8743597165647
 21
28.889055929886609
 31
0.0
  0
ARC
  5
50E1
  8
0
 10
334.80236519249138
 20
28.851589241516798
 30
0.0
 40
0.0440024477195299
 50
183.73455425856301
 51
228.64016983914291
  0
ARC
  5
50E2
  8
0
 10
334.81274972816158
 20
28.86286796347812
 30
0.0
 40
0.0593309059771841
 50
228.31033496026981
 51
260.73002242222231
  0
ARC
  5
50E3
  8
0
 10
334.81443164837998
 20
28.867862615772228
 30
0.0
 40
0.0645369333191782
 50
259.97059284585009
 51
293.7709003540927
  0
ARC
  5
50E4
  8
0
 10
334.82286115824161
 20
28.85216883863604
 30
0.0
 40
0.0467973782742005
 50
292.07061931859079
 51
354.6089032123632
  0
CIRCLE
  5
50E5
  8
0
 10
334.81354529068432
 20
28.843571550952689
 30
0.0
 40
0.0166555298752413
  0
ARC
  5
50E6
  8
0
 10
334.80462105373982
 20
28.8647397453427
 30
0.0
 40
0.0552293641759222
 50
107.8497920275893
 51
151.92068328706441
  0
ARC
  5
50E7
  8
0
 10
334.81416275713019
 20
28.842411683390601
 30
0.0
 40
0.0794389175188702
 50
66.513372559220429
 51
109.4644227635596
  0
ARC
  5
50E8
  8
0
 10
334.82307128727763
 20
28.861860532915131
 30
0.0
 40
0.058052498612662
 50
27.934516089822228
 51
66.927347277579329
  0
ARC
  5
50E9
  8
0
 10
334.80516921284772
 20
28.846713617621191
 30
0.0
 40
0.0467562347019241
 50
105.0695850748681
 51
177.5366931257231
  0
ARC
  5
50EA
  8
0
 10
334.81312217876302
 20
28.82990783693598
 30
0.0
 40
0.0651359462523046
 50
50.132251168780002
 51
107.98251715040109
  0
ARC
  5
50EB
  8
0
 10
334.82697707017371
 20
28.847873741411551
 30
0.0
 40
0.0424745834202148
 50
359.86283199539753
 51
48.94176123398843
  0
ARC
  5
50EC
  8
0
 10
334.79719920811033
 20
28.872172033756641
 30
0.0
 40
0.0452865399089404
 50
155.80025865475099
 51
211.1840303444865
  0
ARC
  5
50ED
  8
0
 10
334.84079081289781
 20
28.872113191322459
 30
0.0
 40
0.0376022297732119
 50
319.65923561886621
 51
26.780775736758809
  0
LINE
  5
50EE
  8
0
 10
333.83584993261468
 20
28.3531675156866
 30
0.0
 11
333.83328610971472
 21
28.39518017818661
 31
0.0
  0
LINE
  5
50EF
  8
0
 10
333.94684528132473
 20
28.35221639104121
 30
0.0
 11
333.95175346601468
 21
28.39350026498661
 31
0.0
  0
ARC
  5
50F0
  8
0
 10
333.87975894194142
 20
28.356033576616799
 30
0.0
 40
0.0440024477195299
 50
183.73455425856301
 51
228.64016983914291
  0
ARC
  5
50F1
  8
0
 10
333.8901434776115
 20
28.367312298578121
 30
0.0
 40
0.0593309059771841
 50
228.31033496026981
 51
260.73002242222231
  0
ARC
  5
50F2
  8
0
 10
333.89182539783002
 20
28.372306950872229
 30
0.0
 40
0.0645369333191782
 50
259.97059284585009
 51
293.7709003540927
  0
ARC
  5
50F3
  8
0
 10
333.90025490769148
 20
28.356613173736051
 30
0.0
 40
0.0467973782742005
 50
292.07061931859079
 51
354.6089032123632
  0
CIRCLE
  5
50F4
  8
0
 10
333.8909390401343
 20
28.3480158860527
 30
0.0
 40
0.0166555298752413
  0
ARC
  5
50F5
  8
0
 10
333.8820148031898
 20
28.3691840804427
 30
0.0
 40
0.0552293641759222
 50
107.8497920275893
 51
151.92068328706441
  0
ARC
  5
50F6
  8
0
 10
333.89155650658017
 20
28.346856018490602
 30
0.0
 40
0.0794389175188702
 50
66.513372559220429
 51
109.4644227635596
  0
ARC
  5
50F7
  8
0
 10
333.90046503672761
 20
28.366304868015131
 30
0.0
 40
0.058052498612662
 50
27.934516089822228
 51
66.927347277579329
  0
ARC
  5
50F8
  8
0
 10
333.88256296229758
 20
28.351157952721191
 30
0.0
 40
0.0467562347019241
 50
105.0695850748681
 51
177.5366931257231
  0
ARC
  5
50F9
  8
0
 10
333.89051592821301
 20
28.334352172035981
 30
0.0
 40
0.0651359462523046
 50
50.132251168780002
 51
107.98251715040109
  0
ARC
  5
50FA
  8
0
 10
333.90437081962369
 20
28.352318076511551
 30
0.0
 40
0.0424745834202148
 50
359.86283199539753
 51
48.94176123398843
  0
ARC
  5
50FB
  8
0
 10
333.87459295756031
 20
28.376616368856642
 30
0.0
 40
0.0452865399089404
 50
155.80025865475099
 51
211.1840303444865
  0
ARC
  5
50FC
  8
0
 10
333.9181845623479
 20
28.37655752642247
 30
0.0
 40
0.0376022297732119
 50
319.65923561886621
 51
26.780775736758809
  0
LINE
  5
50FD
  8
0
 10
333.96651709141469
 20
28.631990727236602
 30
0.0
 11
333.96395326851479
 21
28.674003389736608
 31
0.0
  0
LINE
  5
50FE
  8
0
 10
334.07751244012468
 20
28.631039602591201
 30
0.0
 11
334.08242062481469
 21
28.672323476536612
 31
0.0
  0
ARC
  5
50FF
  8
0
 10
334.01042610074143
 20
28.6348567881668
 30
0.0
 40
0.0440024477195299
 50
183.73455425856301
 51
228.64016983914291
  0
ARC
  5
5100
  8
0
 10
334.02081063641162
 20
28.646135510128119
 30
0.0
 40
0.0593309059771841
 50
228.31033496026981
 51
260.73002242222231
  0
ARC
  5
5101
  8
0
 10
334.02249255663003
 20
28.651130162422231
 30
0.0
 40
0.0645369333191782
 50
259.97059284585009
 51
293.7709003540927
  0
ARC
  5
5102
  8
0
 10
334.0309220664916
 20
28.635436385286042
 30
0.0
 40
0.0467973782742005
 50
292.07061931859079
 51
354.6089032123632
  0
CIRCLE
  5
5103
  8
0
 10
334.02160619893431
 20
28.626839097602691
 30
0.0
 40
0.0166555298752413
  0
ARC
  5
5104
  8
0
 10
334.01268196198981
 20
28.648007291992698
 30
0.0
 40
0.0552293641759222
 50
107.8497920275893
 51
151.92068328706441
  0
ARC
  5
5105
  8
0
 10
334.0222236653803
 20
28.6256792300406
 30
0.0
 40
0.0794389175188702
 50
66.513372559220429
 51
109.4644227635596
  0
ARC
  5
5106
  8
0
 10
334.03113219552762
 20
28.645128079565129
 30
0.0
 40
0.058052498612662
 50
27.934516089822228
 51
66.927347277579329
  0
ARC
  5
5107
  8
0
 10
334.01323012109771
 20
28.629981164271189
 30
0.0
 40
0.0467562347019241
 50
105.0695850748681
 51
177.5366931257231
  0
ARC
  5
5108
  8
0
 10
334.02118308701301
 20
28.613175383585979
 30
0.0
 40
0.0651359462523046
 50
50.132251168780002
 51
107.98251715040109
  0
ARC
  5
5109
  8
0
 10
334.0350379784237
 20
28.631141288061549
 30
0.0
 40
0.0424745834202148
 50
359.86283199539753
 51
48.94176123398843
  0
ARC
  5
510A
  8
0
 10
334.0052601163602
 20
28.65543958040664
 30
0.0
 40
0.0452865399089404
 50
155.80025865475099
 51
211.1840303444865
  0
ARC
  5
510B
  8
0
 10
334.04885172114791
 20
28.655380737972461
 30
0.0
 40
0.0376022297732119
 50
319.65923561886621
 51
26.780775736758809
  0
LINE
  5
510C
  8
0
 10
334.17238973726472
 20
28.893256919636599
 30
0.0
 11
334.16982591436471
 21
28.935269582136609
 31
0.0
  0
LINE
  5
510D
  8
0
 10
334.28338508597471
 20
28.892305794991199
 30
0.0
 11
334.28829327066472
 21
28.933589668936609
 31
0.0
  0
ARC
  5
510E
  8
0
 10
334.21629874659141
 20
28.896122980566801
 30
0.0
 40
0.0440024477195299
 50
183.73455425856301
 51
228.64016983914291
  0
ARC
  5
510F
  8
0
 10
334.2266832822616
 20
28.907401702528119
 30
0.0
 40
0.0593309059771841
 50
228.31033496026981
 51
260.73002242222231
  0
ARC
  5
5110
  8
0
 10
334.22836520248001
 20
28.912396354822221
 30
0.0
 40
0.0645369333191782
 50
259.97059284585009
 51
293.7709003540927
  0
ARC
  5
5111
  8
0
 10
334.23679471234158
 20
28.896702577686039
 30
0.0
 40
0.0467973782742005
 50
292.07061931859079
 51
354.6089032123632
  0
CIRCLE
  5
5112
  8
0
 10
334.22747884478429
 20
28.888105290002699
 30
0.0
 40
0.0166555298752413
  0
ARC
  5
5113
  8
0
 10
334.21855460783979
 20
28.909273484392699
 30
0.0
 40
0.0552293641759222
 50
107.8497920275893
 51
151.92068328706441
  0
ARC
  5
5114
  8
0
 10
334.22809631123022
 20
28.886945422440601
 30
0.0
 40
0.0794389175188702
 50
66.513372559220429
 51
109.4644227635596
  0
ARC
  5
5115
  8
0
 10
334.2370048413776
 20
28.90639427196513
 30
0.0
 40
0.058052498612662
 50
27.934516089822228
 51
66.927347277579329
  0
ARC
  5
5116
  8
0
 10
334.21910276694757
 20
28.89124735667119
 30
0.0
 40
0.0467562347019241
 50
105.0695850748681
 51
177.5366931257231
  0
ARC
  5
5117
  8
0
 10
334.22705573286299
 20
28.87444157598598
 30
0.0
 40
0.0651359462523046
 50
50.132251168780002
 51
107.98251715040109
  0
ARC
  5
5118
  8
0
 10
334.24091062427368
 20
28.89240748046155
 30
0.0
 40
0.0424745834202148
 50
359.86283199539753
 51
48.94176123398843
  0
ARC
  5
5119
  8
0
 10
334.2111327622103
 20
28.91670577280664
 30
0.0
 40
0.0452865399089404
 50
155.80025865475099
 51
211.1840303444865
  0
ARC
  5
511A
  8
0
 10
334.25472436699789
 20
28.916646930372469
 30
0.0
 40
0.0376022297732119
 50
319.65923561886621
 51
26.780775736758809
  0
LINE
  5
511B
  8
0
 10
334.43889642621468
 20
29.246353676886599
 30
0.0
 11
334.43633260331472
 21
29.288366339386609
 31
0.0
  0
LINE
  5
511C
  8
0
 10
334.54989177492467
 20
29.245402552241199
 30
0.0
 11
334.55479995961468
 21
29.286686426186609
 31
0.0
  0
ARC
  5
511D
  8
0
 10
334.48280543554142
 20
29.249219737816802
 30
0.0
 40
0.0440024477195299
 50
183.73455425856301
 51
228.64016983914291
  0
ARC
  5
511E
  8
0
 10
334.49318997121162
 20
29.26049845977812
 30
0.0
 40
0.0593309059771841
 50
228.31033496026981
 51
260.73002242222231
  0
ARC
  5
511F
  8
0
 10
334.49487189143002
 20
29.265493112072232
 30
0.0
 40
0.0645369333191782
 50
259.97059284585009
 51
293.7709003540927
  0
ARC
  5
5120
  8
0
 10
334.50330140129159
 20
29.249799334936039
 30
0.0
 40
0.0467973782742005
 50
292.07061931859079
 51
354.6089032123632
  0
CIRCLE
  5
5121
  8
0
 10
334.4939855337343
 20
29.241202047252699
 30
0.0
 40
0.0166555298752413
  0
ARC
  5
5122
  8
0
 10
334.48506129678981
 20
29.262370241642699
 30
0.0
 40
0.0552293641759222
 50
107.8497920275893
 51
151.92068328706441
  0
ARC
  5
5123
  8
0
 10
334.49460300018029
 20
29.240042179690601
 30
0.0
 40
0.0794389175188702
 50
66.513372559220429
 51
109.4644227635596
  0
ARC
  5
5124
  8
0
 10
334.50351153032761
 20
29.25949102921513
 30
0.0
 40
0.058052498612662
 50
27.934516089822228
 51
66.927347277579329
  0
ARC
  5
5125
  8
0
 10
334.4856094558977
 20
29.244344113921191
 30
0.0
 40
0.0467562347019241
 50
105.0695850748681
 51
177.5366931257231
  0
ARC
  5
5126
  8
0
 10
334.49356242181301
 20
29.22753833323598
 30
0.0
 40
0.0651359462523046
 50
50.132251168780002
 51
107.98251715040109
  0
ARC
  5
5127
  8
0
 10
334.50741731322381
 20
29.24550423771155
 30
0.0
 40
0.0424745834202148
 50
359.86283199539753
 51
48.94176123398843
  0
ARC
  5
5128
  8
0
 10
334.4776394511602
 20
29.269802530056641
 30
0.0
 40
0.0452865399089404
 50
155.80025865475099
 51
211.1840303444865
  0
ARC
  5
5129
  8
0
 10
334.52123105594791
 20
29.269743687622469
 30
0.0
 40
0.0376022297732119
 50
319.65923561886621
 51
26.780775736758809
  0
LINE
  5
512A
  8
0
 10
333.56577127151468
 20
28.559432454686601
 30
0.0
 11
333.56320744861472
 21
28.601445117186611
 31
0.0
  0
LINE
  5
512B
  8
0
 10
333.67676662022473
 20
28.558481330041211
 30
0.0
 11
333.68167480491468
 21
28.59976520398661
 31
0.0
  0
ARC
  5
512C
  8
0
 10
333.60968028084142
 20
28.562298515616799
 30
0.0
 40
0.0440024477195299
 50
183.73455425856301
 51
228.64016983914291
  0
ARC
  5
512D
  8
0
 10
333.62006481651161
 20
28.573577237578121
 30
0.0
 40
0.0593309059771841
 50
228.31033496026981
 51
260.73002242222231
  0
ARC
  5
512E
  8
0
 10
333.62174673673002
 20
28.578571889872229
 30
0.0
 40
0.0645369333191782
 50
259.97059284585009
 51
293.7709003540927
  0
ARC
  5
512F
  8
0
 10
333.63017624659147
 20
28.562878112736051
 30
0.0
 40
0.0467973782742005
 50
292.07061931859079
 51
354.6089032123632
  0
CIRCLE
  5
5130
  8
0
 10
333.6208603790343
 20
28.5542808250527
 30
0.0
 40
0.0166555298752413
  0
ARC
  5
5131
  8
0
 10
333.6119361420898
 20
28.575449019442701
 30
0.0
 40
0.0552293641759222
 50
107.8497920275893
 51
151.92068328706441
  0
ARC
  5
5132
  8
0
 10
333.62147784548017
 20
28.553120957490599
 30
0.0
 40
0.0794389175188702
 50
66.513372559220429
 51
109.4644227635596
  0
ARC
  5
5133
  8
0
 10
333.63038637562761
 20
28.572569807015132
 30
0.0
 40
0.058052498612662
 50
27.934516089822228
 51
66.927347277579329
  0
ARC
  5
5134
  8
0
 10
333.61248430119758
 20
28.557422891721188
 30
0.0
 40
0.0467562347019241
 50
105.0695850748681
 51
177.5366931257231
  0
ARC
  5
5135
  8
0
 10
333.620437267113
 20
28.540617111035981
 30
0.0
 40
0.0651359462523046
 50
50.132251168780002
 51
107.98251715040109
  0
ARC
  5
5136
  8
0
 10
333.63429215852381
 20
28.558583015511552
 30
0.0
 40
0.0424745834202148
 50
359.86283199539753
 51
48.94176123398843
  0
ARC
  5
5137
  8
0
 10
333.60451429646031
 20
28.582881307856638
 30
0.0
 40
0.0452865399089404
 50
155.80025865475099
 51
211.1840303444865
  0
ARC
  5
5138
  8
0
 10
333.64810590124779
 20
28.582822465422471
 30
0.0
 40
0.0376022297732119
 50
319.65923561886621
 51
26.780775736758809
  0
LINE
  5
5139
  8
0
 10
333.71380354611472
 20
28.943771506236612
 30
0.0
 11
333.7112397232147
 21
28.985784168736611
 31
0.0
  0
LINE
  5
513A
  8
0
 10
333.82479889482471
 20
28.942820381591211
 30
0.0
 11
333.82970707951461
 21
28.984104255536611
 31
0.0
  0
ARC
  5
513B
  8
0
 10
333.7577125554414
 20
28.9466375671668
 30
0.0
 40
0.0440024477195299
 50
183.73455425856301
 51
228.64016983914291
  0
ARC
  5
513C
  8
0
 10
333.7680970911116
 20
28.957916289128121
 30
0.0
 40
0.0593309059771841
 50
228.31033496026981
 51
260.73002242222231
  0
ARC
  5
513D
  8
0
 10
333.76977901133
 20
28.962910941422219
 30
0.0
 40
0.0645369333191782
 50
259.97059284585009
 51
293.7709003540927
  0
ARC
  5
513E
  8
0
 10
333.77820852119157
 20
28.947217164286041
 30
0.0
 40
0.0467973782742005
 50
292.07061931859079
 51
354.6089032123632
  0
CIRCLE
  5
513F
  8
0
 10
333.76889265363428
 20
28.938619876602701
 30
0.0
 40
0.0166555298752413
  0
ARC
  5
5140
  8
0
 10
333.75996841668979
 20
28.959788070992701
 30
0.0
 40
0.0552293641759222
 50
107.8497920275893
 51
151.92068328706441
  0
ARC
  5
5141
  8
0
 10
333.76951012008021
 20
28.937460009040599
 30
0.0
 40
0.0794389175188702
 50
66.513372559220429
 51
109.4644227635596
  0
ARC
  5
5142
  8
0
 10
333.77841865022759
 20
28.956908858565129
 30
0.0
 40
0.058052498612662
 50
27.934516089822228
 51
66.927347277579329
  0
ARC
  5
5143
  8
0
 10
333.76051657579762
 20
28.941761943271189
 30
0.0
 40
0.0467562347019241
 50
105.0695850748681
 51
177.5366931257231
  0
ARC
  5
5144
  8
0
 10
333.76846954171299
 20
28.924956162585978
 30
0.0
 40
0.0651359462523046
 50
50.132251168780002
 51
107.98251715040109
  0
ARC
  5
5145
  8
0
 10
333.78232443312368
 20
28.942922067061549
 30
0.0
 40
0.0424745834202148
 50
359.86283199539753
 51
48.94176123398843
  0
ARC
  5
5146
  8
0
 10
333.75254657106029
 20
28.967220359406639
 30
0.0
 40
0.0452865399089404
 50
155.80025865475099
 51
211.1840303444865
  0
ARC
  5
5147
  8
0
 10
333.79613817584789
 20
28.967161516972471
 30
0.0
 40
0.0376022297732119
 50
319.65923561886621
 51
26.780775736758809
  0
LINE
  5
5148
  8
0
 10
334.0290733392647
 20
29.267537679886601
 30
0.0
 11
334.02650951636468
 21
29.309550342386611
 31
0.0
  0
LINE
  5
5149
  8
0
 10
334.14006868797469
 20
29.266586555241201
 30
0.0
 11
334.1449768726647
 21
29.307870429186611
 31
0.0
  0
ARC
  5
514A
  8
0
 10
334.07298234859149
 20
29.2704037408168
 30
0.0
 40
0.0440024477195299
 50
183.73455425856301
 51
228.64016983914291
  0
ARC
  5
514B
  8
0
 10
334.08336688426158
 20
29.281682462778122
 30
0.0
 40
0.0593309059771841
 50
228.31033496026981
 51
260.73002242222231
  0
ARC
  5
514C
  8
0
 10
334.08504880447998
 20
29.286677115072219
 30
0.0
 40
0.0645369333191782
 50
259.97059284585009
 51
293.7709003540927
  0
ARC
  5
514D
  8
0
 10
334.09347831434161
 20
29.270983337936041
 30
0.0
 40
0.0467973782742005
 50
292.07061931859079
 51
354.6089032123632
  0
CIRCLE
  5
514E
  8
0
 10
334.08416244678432
 20
29.262386050252701
 30
0.0
 40
0.0166555298752413
  0
ARC
  5
514F
  8
0
 10
334.07523820983982
 20
29.283554244642701
 30
0.0
 40
0.0552293641759222
 50
107.8497920275893
 51
151.92068328706441
  0
ARC
  5
5150
  8
0
 10
334.08477991323031
 20
29.261226182690599
 30
0.0
 40
0.0794389175188702
 50
66.513372559220429
 51
109.4644227635596
  0
ARC
  5
5151
  8
0
 10
334.09368844337769
 20
29.280675032215129
 30
0.0
 40
0.058052498612662
 50
27.934516089822228
 51
66.927347277579329
  0
ARC
  5
5152
  8
0
 10
334.07578636894772
 20
29.265528116921189
 30
0.0
 40
0.0467562347019241
 50
105.0695850748681
 51
177.5366931257231
  0
ARC
  5
5153
  8
0
 10
334.08373933486303
 20
29.248722336235979
 30
0.0
 40
0.0651359462523046
 50
50.132251168780002
 51
107.98251715040109
  0
ARC
  5
5154
  8
0
 10
334.09759422627371
 20
29.266688240711549
 30
0.0
 40
0.0424745834202148
 50
359.86283199539753
 51
48.94176123398843
  0
ARC
  5
5155
  8
0
 10
334.06781636421027
 20
29.290986533056639
 30
0.0
 40
0.0452865399089404
 50
155.80025865475099
 51
211.1840303444865
  0
ARC
  5
5156
  8
0
 10
334.11140796899792
 20
29.290927690622471
 30
0.0
 40
0.0376022297732119
 50
319.65923561886621
 51
26.780775736758809
  0
LINE
  5
5157
  8
0
 10
333.38247334281471
 20
28.799382974886601
 30
0.0
 11
333.37990951991469
 21
28.841395637386611
 31
0.0
  0
LINE
  5
5158
  8
0
 10
333.49346869152458
 20
28.798431850241201
 30
0.0
 11
333.49837687621471
 21
28.839715724186611
 31
0.0
  0
ARC
  5
5159
  8
0
 10
333.4263823521415
 20
28.8022490358168
 30
0.0
 40
0.0440024477195299
 50
183.73455425856301
 51
228.64016983914291
  0
ARC
  5
515A
  8
0
 10
333.43676688781159
 20
28.813527757778111
 30
0.0
 40
0.0593309059771841
 50
228.31033496026981
 51
260.73002242222231
  0
ARC
  5
515B
  8
0
 10
333.43844880802999
 20
28.81852241007223
 30
0.0
 40
0.0645369333191782
 50
259.97059284585009
 51
293.7709003540927
  0
ARC
  5
515C
  8
0
 10
333.44687831789162
 20
28.802828632936041
 30
0.0
 40
0.0467973782742005
 50
292.07061931859079
 51
354.6089032123632
  0
CIRCLE
  5
515D
  8
0
 10
333.43756245033433
 20
28.794231345252701
 30
0.0
 40
0.0166555298752413
  0
ARC
  5
515E
  8
0
 10
333.42863821338977
 20
28.815399539642691
 30
0.0
 40
0.0552293641759222
 50
107.8497920275893
 51
151.92068328706441
  0
ARC
  5
515F
  8
0
 10
333.43817991678031
 20
28.793071477690599
 30
0.0
 40
0.0794389175188702
 50
66.513372559220429
 51
109.4644227635596
  0
ARC
  5
5160
  8
0
 10
333.44708844692758
 20
28.812520327215129
 30
0.0
 40
0.058052498612662
 50
27.934516089822228
 51
66.927347277579329
  0
ARC
  5
5161
  8
0
 10
333.42918637249761
 20
28.797373411921189
 30
0.0
 40
0.0467562347019241
 50
105.0695850748681
 51
177.5366931257231
  0
ARC
  5
5162
  8
0
 10
333.43713933841298
 20
28.780567631235979
 30
0.0
 40
0.0651359462523046
 50
50.132251168780002
 51
107.98251715040109
  0
ARC
  5
5163
  8
0
 10
333.45099422982372
 20
28.798533535711549
 30
0.0
 40
0.0424745834202148
 50
359.86283199539753
 51
48.94176123398843
  0
ARC
  5
5164
  8
0
 10
333.42121636776028
 20
28.822831828056639
 30
0.0
 40
0.0452865399089404
 50
155.80025865475099
 51
211.1840303444865
  0
ARC
  5
5165
  8
0
 10
333.46480797254787
 20
28.822772985622471
 30
0.0
 40
0.0376022297732119
 50
319.65923561886621
 51
26.780775736758809
  0
LINE
  5
5166
  8
0
 10
333.25617764606471
 20
29.0637580583366
 30
0.0
 11
333.2536138231647
 21
29.10577072083661
 31
0.0
  0
LINE
  5
5167
  8
0
 10
333.36717299477459
 20
29.062806933691199
 30
0.0
 11
333.37208117946471
 21
29.104090807636609
 31
0.0
  0
ARC
  5
5168
  8
0
 10
333.3000866553914
 20
29.066624119266798
 30
0.0
 40
0.0440024477195299
 50
183.73455425856301
 51
228.64016983914291
  0
ARC
  5
5169
  8
0
 10
333.31047119106159
 20
29.077902841228109
 30
0.0
 40
0.0593309059771841
 50
228.31033496026981
 51
260.73002242222231
  0
ARC
  5
516A
  8
0
 10
333.31215311128
 20
29.082897493522221
 30
0.0
 40
0.0645369333191782
 50
259.97059284585009
 51
293.7709003540927
  0
ARC
  5
516B
  8
0
 10
333.32058262114163
 20
29.06720371638604
 30
0.0
 40
0.0467973782742005
 50
292.07061931859079
 51
354.6089032123632
  0
CIRCLE
  5
516C
  8
0
 10
333.31126675358428
 20
29.058606428702689
 30
0.0
 40
0.0166555298752413
  0
ARC
  5
516D
  8
0
 10
333.30234251663978
 20
29.079774623092689
 30
0.0
 40
0.0552293641759222
 50
107.8497920275893
 51
151.92068328706441
  0
ARC
  5
516E
  8
0
 10
333.31188422003032
 20
29.057446561140601
 30
0.0
 40
0.0794389175188702
 50
66.513372559220429
 51
109.4644227635596
  0
ARC
  5
516F
  8
0
 10
333.32079275017759
 20
29.076895410665131
 30
0.0
 40
0.058052498612662
 50
27.934516089822228
 51
66.927347277579329
  0
ARC
  5
5170
  8
0
 10
333.30289067574762
 20
29.061748495371191
 30
0.0
 40
0.0467562347019241
 50
105.0695850748681
 51
177.5366931257231
  0
ARC
  5
5171
  8
0
 10
333.31084364166298
 20
29.04494271468598
 30
0.0
 40
0.0651359462523046
 50
50.132251168780002
 51
107.98251715040109
  0
ARC
  5
5172
  8
0
 10
333.32469853307367
 20
29.062908619161551
 30
0.0
 40
0.0424745834202148
 50
359.86283199539753
 51
48.94176123398843
  0
ARC
  5
5173
  8
0
 10
333.29492067101029
 20
29.087206911506641
 30
0.0
 40
0.0452865399089404
 50
155.80025865475099
 51
211.1840303444865
  0
ARC
  5
5174
  8
0
 10
333.33851227579783
 20
29.087148069072459
 30
0.0
 40
0.0376022297732119
 50
319.65923561886621
 51
26.780775736758809
  0
LINE
  5
5175
  8
0
 10
333.62799900951461
 20
29.29817452578661
 30
0.0
 11
333.62543518661471
 21
29.34018718828661
 31
0.0
  0
LINE
  5
5176
  8
0
 10
333.7389943582246
 20
29.297223401141199
 30
0.0
 11
333.74390254291473
 21
29.338507275086609
 31
0.0
  0
ARC
  5
5177
  8
0
 10
333.67190801884141
 20
29.301040586716798
 30
0.0
 40
0.0440024477195299
 50
183.73455425856301
 51
228.64016983914291
  0
ARC
  5
5178
  8
0
 10
333.6822925545116
 20
29.312319308678109
 30
0.0
 40
0.0593309059771841
 50
228.31033496026981
 51
260.73002242222231
  0
ARC
  5
5179
  8
0
 10
333.68397447473001
 20
29.317313960972228
 30
0.0
 40
0.0645369333191782
 50
259.97059284585009
 51
293.7709003540927
  0
ARC
  5
517A
  8
0
 10
333.69240398459158
 20
29.30162018383605
 30
0.0
 40
0.0467973782742005
 50
292.07061931859079
 51
354.6089032123632
  0
CIRCLE
  5
517B
  8
0
 10
333.68308811703429
 20
29.293022896152699
 30
0.0
 40
0.0166555298752413
  0
ARC
  5
517C
  8
0
 10
333.67416388008979
 20
29.314191090542689
 30
0.0
 40
0.0552293641759222
 50
107.8497920275893
 51
151.92068328706441
  0
ARC
  5
517D
  8
0
 10
333.68370558348022
 20
29.291863028590601
 30
0.0
 40
0.0794389175188702
 50
66.513372559220429
 51
109.4644227635596
  0
ARC
  5
517E
  8
0
 10
333.6926141136276
 20
29.311311878115131
 30
0.0
 40
0.058052498612662
 50
27.934516089822228
 51
66.927347277579329
  0
ARC
  5
517F
  8
0
 10
333.67471203919757
 20
29.296164962821191
 30
0.0
 40
0.0467562347019241
 50
105.0695850748681
 51
177.5366931257231
  0
ARC
  5
5180
  8
0
 10
333.68266500511299
 20
29.27935918213598
 30
0.0
 40
0.0651359462523046
 50
50.132251168780002
 51
107.98251715040109
  0
ARC
  5
5181
  8
0
 10
333.69651989652368
 20
29.297325086611551
 30
0.0
 40
0.0424745834202148
 50
359.86283199539753
 51
48.94176123398843
  0
ARC
  5
5182
  8
0
 10
333.6667420344603
 20
29.321623378956641
 30
0.0
 40
0.0452865399089404
 50
155.80025865475099
 51
211.1840303444865
  0
ARC
  5
5183
  8
0
 10
333.71033363924778
 20
29.32156453652247
 30
0.0
 40
0.0376022297732119
 50
319.65923561886621
 51
26.780775736758809
  0
LINE
  5
5184
  8
0
 10
333.21715127481468
 20
29.340038142986611
 30
0.0
 11
333.21458745191472
 21
29.38205080548661
 31
0.0
  0
LINE
  5
5185
  8
0
 10
333.32814662352467
 20
29.3390870183412
 30
0.0
 11
333.33305480821468
 21
29.38037089228661
 31
0.0
  0
ARC
  5
5186
  8
0
 10
333.26106028414142
 20
29.342904203916799
 30
0.0
 40
0.0440024477195299
 50
183.73455425856301
 51
228.64016983914291
  0
ARC
  5
5187
  8
0
 10
333.27144481981162
 20
29.354182925878121
 30
0.0
 40
0.0593309059771841
 50
228.31033496026981
 51
260.73002242222231
  0
ARC
  5
5188
  8
0
 10
333.27312674003002
 20
29.359177578172229
 30
0.0
 40
0.0645369333191782
 50
259.97059284585009
 51
293.7709003540927
  0
ARC
  5
5189
  8
0
 10
333.28155624989148
 20
29.343483801036051
 30
0.0
 40
0.0467973782742005
 50
292.07061931859079
 51
354.6089032123632
  0
CIRCLE
  5
518A
  8
0
 10
333.2722403823343
 20
29.3348865133527
 30
0.0
 40
0.0166555298752413
  0
ARC
  5
518B
  8
0
 10
333.26331614538981
 20
29.3560547077427
 30
0.0
 40
0.0552293641759222
 50
107.8497920275893
 51
151.92068328706441
  0
ARC
  5
518C
  8
0
 10
333.27285784878018
 20
29.333726645790598
 30
0.0
 40
0.0794389175188702
 50
66.513372559220429
 51
109.4644227635596
  0
ARC
  5
518D
  8
0
 10
333.28176637892761
 20
29.353175495315131
 30
0.0
 40
0.058052498612662
 50
27.934516089822228
 51
66.927347277579329
  0
ARC
  5
518E
  8
0
 10
333.2638643044977
 20
29.338028580021192
 30
0.0
 40
0.0467562347019241
 50
105.0695850748681
 51
177.5366931257231
  0
ARC
  5
518F
  8
0
 10
333.27181727041301
 20
29.321222799335981
 30
0.0
 40
0.0651359462523046
 50
50.132251168780002
 51
107.98251715040109
  0
ARC
  5
5190
  8
0
 10
333.2856721618237
 20
29.339188703811551
 30
0.0
 40
0.0424745834202148
 50
359.86283199539753
 51
48.94176123398843
  0
ARC
  5
5191
  8
0
 10
333.25589429976031
 20
29.363486996156642
 30
0.0
 40
0.0452865399089404
 50
155.80025865475099
 51
211.1840303444865
  0
ARC
  5
5192
  8
0
 10
333.29948590454779
 20
29.36342815372247
 30
0.0
 40
0.0376022297732119
 50
319.65923561886621
 51
26.780775736758809
  0
LINE
  5
5193
  8
0
 10
333.25589230576469
 20
29.616637124036611
 30
0.0
 11
333.25332848286467
 21
29.658649786536611
 31
0.0
  0
LINE
  5
5194
  8
0
 10
333.36688765447468
 20
29.6156859993912
 30
0.0
 11
333.37179583916469
 21
29.65696987333661
 31
0.0
  0
ARC
  5
5195
  8
0
 10
333.29980131509137
 20
29.619503184966799
 30
0.0
 40
0.0440024477195299
 50
183.73455425856321
 51
228.64016983914291
  0
ARC
  5
5196
  8
0
 10
333.31018585076163
 20
29.630781906928121
 30
0.0
 40
0.0593309059771841
 50
228.31033496026981
 51
260.73002242222231
  0
ARC
  5
5197
  8
0
 10
333.31186777097997
 20
29.635776559222229
 30
0.0
 40
0.0645369333191782
 50
259.97059284585009
 51
293.7709003540927
  0
ARC
  5
5198
  8
0
 10
333.3202972808416
 20
29.620082782086051
 30
0.0
 40
0.0467973782742005
 50
292.07061931859079
 51
354.6089032123632
  0
CIRCLE
  5
5199
  8
0
 10
333.31098141328431
 20
29.6114854944027
 30
0.0
 40
0.0166555298752413
  0
ARC
  5
519A
  8
0
 10
333.30205717633982
 20
29.632653688792701
 30
0.0
 40
0.0552293641759222
 50
107.8497920275893
 51
151.92068328706441
  0
ARC
  5
519B
  8
0
 10
333.31159887973018
 20
29.610325626840599
 30
0.0
 40
0.0794389175188702
 50
66.513372559220429
 51
109.4644227635596
  0
ARC
  5
519C
  8
0
 10
333.32050740987762
 20
29.629774476365132
 30
0.0
 40
0.058052498612662
 50
27.934516089822228
 51
66.927347277579329
  0
ARC
  5
519D
  8
0
 10
333.30260533544771
 20
29.614627561071192
 30
0.0
 40
0.0467562347019241
 50
105.0695850748681
 51
177.5366931257231
  0
ARC
  5
519E
  8
0
 10
333.31055830136302
 20
29.597821780385981
 30
0.0
 40
0.0651359462523046
 50
50.132251168780002
 51
107.98251715040109
  0
ARC
  5
519F
  8
0
 10
333.3244131927737
 20
29.615787684861552
 30
0.0
 40
0.0424745834202148
 50
359.86283199539753
 51
48.94176123398843
  0
ARC
  5
51A0
  8
0
 10
333.29463533071032
 20
29.640085977206638
 30
0.0
 40
0.0452865399089404
 50
155.80025865475099
 51
211.1840303444865
  0
ARC
  5
51A1
  8
0
 10
333.33822693549791
 20
29.64002713477247
 30
0.0
 40
0.0376022297732119
 50
319.65923561886621
 51
26.780775736758809
  0
LINE
  5
51A2
  8
0
 10
333.71484370431472
 20
29.652930994386612
 30
0.0
 11
333.7122798814147
 21
29.694943656886611
 31
0.0
  0
LINE
  5
51A3
  8
0
 10
333.82583905302459
 20
29.651979869741201
 30
0.0
 11
333.83074723771472
 21
29.693263743686611
 31
0.0
  0
ARC
  5
51A4
  8
0
 10
333.7587527136414
 20
29.6557970553168
 30
0.0
 40
0.0440024477195299
 50
183.73455425856321
 51
228.64016983914291
  0
ARC
  5
51A5
  8
0
 10
333.7691372493116
 20
29.667075777278122
 30
0.0
 40
0.0593309059771841
 50
228.31033496026981
 51
260.73002242222231
  0
ARC
  5
51A6
  8
0
 10
333.77081916953
 20
29.67207042957223
 30
0.0
 40
0.0645369333191782
 50
259.97059284585009
 51
293.7709003540927
  0
ARC
  5
51A7
  8
0
 10
333.77924867939163
 20
29.656376652436052
 30
0.0
 40
0.0467973782742005
 50
292.07061931859079
 51
354.6089032123632
  0
CIRCLE
  5
51A8
  8
0
 10
333.76993281183428
 20
29.647779364752701
 30
0.0
 40
0.0166555298752413
  0
ARC
  5
51A9
  8
0
 10
333.76100857488979
 20
29.668947559142701
 30
0.0
 40
0.0552293641759222
 50
107.8497920275893
 51
151.92068328706441
  0
ARC
  5
51AA
  8
0
 10
333.77055027828021
 20
29.646619497190599
 30
0.0
 40
0.0794389175188702
 50
66.513372559220429
 51
109.4644227635596
  0
ARC
  5
51AB
  8
0
 10
333.77945880842759
 20
29.666068346715129
 30
0.0
 40
0.058052498612662
 50
27.934516089822228
 51
66.927347277579329
  0
ARC
  5
51AC
  8
0
 10
333.76155673399762
 20
29.650921431421189
 30
0.0
 40
0.0467562347019241
 50
105.0695850748681
 51
177.5366931257231
  0
ARC
  5
51AD
  8
0
 10
333.76950969991299
 20
29.634115650735978
 30
0.0
 40
0.0651359462523046
 50
50.132251168780002
 51
107.98251715040109
  0
ARC
  5
51AE
  8
0
 10
333.78336459132368
 20
29.652081555211549
 30
0.0
 40
0.0424745834202148
 50
359.86283199539753
 51
48.94176123398843
  0
ARC
  5
51AF
  8
0
 10
333.75358672926029
 20
29.676379847556639
 30
0.0
 40
0.0452865399089404
 50
155.80025865475099
 51
211.1840303444865
  0
ARC
  5
51B0
  8
0
 10
333.79717833404783
 20
29.676321005122471
 30
0.0
 40
0.0376022297732119
 50
319.65923561886621
 51
26.780775736758809
  0
LINE
  5
51B1
  8
0
 10
334.17350097371468
 20
29.641439977986611
 30
0.0
 11
334.17093715081472
 21
29.68345264048661
 31
0.0
  0
LINE
  5
51B2
  8
0
 10
334.28449632242467
 20
29.640488853341211
 30
0.0
 11
334.28940450711468
 21
29.68177272728661
 31
0.0
  0
ARC
  5
51B3
  8
0
 10
334.21740998304142
 20
29.644306038916799
 30
0.0
 40
0.0440024477195299
 50
183.73455425856321
 51
228.64016983914291
  0
ARC
  5
51B4
  8
0
 10
334.22779451871162
 20
29.655584760878121
 30
0.0
 40
0.0593309059771841
 50
228.31033496026981
 51
260.73002242222231
  0
ARC
  5
51B5
  8
0
 10
334.22947643893002
 20
29.660579413172218
 30
0.0
 40
0.0645369333191782
 50
259.97059284585009
 51
293.7709003540927
  0
ARC
  5
51B6
  8
0
 10
334.23790594879148
 20
29.64488563603604
 30
0.0
 40
0.0467973782742005
 50
292.07061931859079
 51
354.6089032123632
  0
CIRCLE
  5
51B7
  8
0
 10
334.2285900812343
 20
29.6362883483527
 30
0.0
 40
0.0166555298752413
  0
ARC
  5
51B8
  8
0
 10
334.21966584428981
 20
29.6574565427427
 30
0.0
 40
0.0552293641759222
 50
107.8497920275893
 51
151.92068328706441
  0
ARC
  5
51B9
  8
0
 10
334.22920754768018
 20
29.635128480790598
 30
0.0
 40
0.0794389175188702
 50
66.513372559220429
 51
109.4644227635596
  0
ARC
  5
51BA
  8
0
 10
334.23811607782761
 20
29.654577330315131
 30
0.0
 40
0.058052498612662
 50
27.934516089822228
 51
66.927347277579329
  0
ARC
  5
51BB
  8
0
 10
334.22021400339759
 20
29.639430415021192
 30
0.0
 40
0.0467562347019241
 50
105.0695850748681
 51
177.5366931257231
  0
ARC
  5
51BC
  8
0
 10
334.22816696931301
 20
29.622624634335981
 30
0.0
 40
0.0651359462523046
 50
50.132251168780002
 51
107.98251715040109
  0
ARC
  5
51BD
  8
0
 10
334.24202186072381
 20
29.640590538811551
 30
0.0
 40
0.0424745834202148
 50
359.86283199539753
 51
48.94176123398843
  0
ARC
  5
51BE
  8
0
 10
334.2122439986602
 20
29.664888831156642
 30
0.0
 40
0.0452865399089404
 50
155.80025865475099
 51
211.1840303444865
  0
ARC
  5
51BF
  8
0
 10
334.25583560344791
 20
29.66482998872247
 30
0.0
 40
0.0376022297732119
 50
319.65923561886621
 51
26.780775736758809
  0
LINE
  5
51C0
  8
0
 10
333.37818526766472
 20
29.880235849236598
 30
0.0
 11
333.3756214447647
 21
29.922248511736608
 31
0.0
  0
LINE
  5
51C1
  8
0
 10
333.48918061637471
 20
29.879284724591201
 30
0.0
 11
333.49408880106472
 21
29.920568598536612
 31
0.0
  0
ARC
  5
51C2
  8
0
 10
333.4220942769914
 20
29.883101910166801
 30
0.0
 40
0.0440024477195299
 50
183.73455425856321
 51
228.64016983914291
  0
ARC
  5
51C3
  8
0
 10
333.4324788126616
 20
29.894380632128119
 30
0.0
 40
0.0593309059771841
 50
228.31033496026981
 51
260.73002242222231
  0
ARC
  5
51C4
  8
0
 10
333.43416073288
 20
29.899375284422231
 30
0.0
 40
0.0645369333191782
 50
259.97059284585009
 51
293.7709003540927
  0
ARC
  5
51C5
  8
0
 10
333.44259024274157
 20
29.883681507286038
 30
0.0
 40
0.0467973782742005
 50
292.07061931859079
 51
354.6089032123632
  0
CIRCLE
  5
51C6
  8
0
 10
333.43327437518428
 20
29.875084219602691
 30
0.0
 40
0.0166555298752413
  0
ARC
  5
51C7
  8
0
 10
333.42435013823979
 20
29.896252413992698
 30
0.0
 40
0.0552293641759222
 50
107.8497920275893
 51
151.92068328706441
  0
ARC
  5
51C8
  8
0
 10
333.43389184163021
 20
29.8739243520406
 30
0.0
 40
0.0794389175188702
 50
66.513372559220429
 51
109.4644227635596
  0
ARC
  5
51C9
  8
0
 10
333.44280037177759
 20
29.893373201565129
 30
0.0
 40
0.058052498612662
 50
27.934516089822228
 51
66.927347277579329
  0
ARC
  5
51CA
  8
0
 10
333.42489829734762
 20
29.87822628627119
 30
0.0
 40
0.0467562347019241
 50
105.0695850748681
 51
177.5366931257231
  0
ARC
  5
51CB
  8
0
 10
333.43285126326299
 20
29.861420505585979
 30
0.0
 40
0.0651359462523046
 50
50.132251168780002
 51
107.98251715040109
  0
ARC
  5
51CC
  8
0
 10
333.44670615467368
 20
29.879386410061549
 30
0.0
 40
0.0424745834202148
 50
359.86283199539753
 51
48.94176123398843
  0
ARC
  5
51CD
  8
0
 10
333.41692829261029
 20
29.90368470240664
 30
0.0
 40
0.0452865399089404
 50
155.80025865475099
 51
211.1840303444865
  0
ARC
  5
51CE
  8
0
 10
333.46051989739777
 20
29.903625859972461
 30
0.0
 40
0.0376022297732119
 50
319.65923561886621
 51
26.780775736758809
  0
LINE
  5
51CF
  8
0
 10
333.57103539341472
 20
30.121823288236602
 30
0.0
 11
333.5684715705147
 21
30.163835950736608
 31
0.0
  0
LINE
  5
51D0
  8
0
 10
333.68203074212471
 20
30.120872163591201
 30
0.0
 11
333.68693892681472
 21
30.162156037536612
 31
0.0
  0
ARC
  5
51D1
  8
0
 10
333.6149444027414
 20
30.1246893491668
 30
0.0
 40
0.0440024477195299
 50
183.73455425856321
 51
228.64016983914291
  0
ARC
  5
51D2
  8
0
 10
333.6253289384116
 20
30.135968071128119
 30
0.0
 40
0.0593309059771841
 50
228.31033496026981
 51
260.73002242222231
  0
ARC
  5
51D3
  8
0
 10
333.62701085863
 20
30.14096272342222
 30
0.0
 40
0.0645369333191782
 50
259.97059284585009
 51
293.7709003540927
  0
ARC
  5
51D4
  8
0
 10
333.63544036849157
 20
30.125268946286042
 30
0.0
 40
0.0467973782742005
 50
292.07061931859079
 51
354.6089032123632
  0
CIRCLE
  5
51D5
  8
0
 10
333.62612450093428
 20
30.116671658602701
 30
0.0
 40
0.0166555298752413
  0
ARC
  5
51D6
  8
0
 10
333.61720026398979
 20
30.137839852992698
 30
0.0
 40
0.0552293641759222
 50
107.8497920275893
 51
151.92068328706441
  0
ARC
  5
51D7
  8
0
 10
333.62674196738021
 20
30.1155117910406
 30
0.0
 40
0.0794389175188702
 50
66.513372559220429
 51
109.4644227635596
  0
ARC
  5
51D8
  8
0
 10
333.63565049752759
 20
30.134960640565129
 30
0.0
 40
0.058052498612662
 50
27.934516089822228
 51
66.927347277579329
  0
ARC
  5
51D9
  8
0
 10
333.61774842309762
 20
30.119813725271189
 30
0.0
 40
0.0467562347019241
 50
105.0695850748681
 51
177.5366931257231
  0
ARC
  5
51DA
  8
0
 10
333.62570138901299
 20
30.103007944585979
 30
0.0
 40
0.0651359462523046
 50
50.132251168780002
 51
107.98251715040109
  0
ARC
  5
51DB
  8
0
 10
333.63955628042368
 20
30.120973849061549
 30
0.0
 40
0.0424745834202148
 50
359.86283199539753
 51
48.94176123398843
  0
ARC
  5
51DC
  8
0
 10
333.60977841836029
 20
30.14527214140664
 30
0.0
 40
0.0452865399089404
 50
155.80025865475099
 51
211.1840303444865
  0
ARC
  5
51DD
  8
0
 10
333.65337002314777
 20
30.145213298972472
 30
0.0
 40
0.0376022297732119
 50
319.65923561886621
 51
26.780775736758809
  0
LINE
  5
51DE
  8
0
 10
333.95719601036473
 20
29.965252176286601
 30
0.0
 11
333.95463218746471
 21
30.007264838786611
 31
0.0
  0
LINE
  5
51DF
  8
0
 10
334.06819135907472
 20
29.964301051641201
 30
0.0
 11
334.07309954376473
 21
30.005584925586611
 31
0.0
  0
ARC
  5
51E0
  8
0
 10
334.00110501969141
 20
29.9681182372168
 30
0.0
 40
0.0440024477195299
 50
183.73455425856321
 51
228.64016983914291
  0
ARC
  5
51E1
  8
0
 10
334.01148955536161
 20
29.979396959178111
 30
0.0
 40
0.0593309059771841
 50
228.31033496026981
 51
260.73002242222231
  0
ARC
  5
51E2
  8
0
 10
334.01317147558001
 20
29.984391611472219
 30
0.0
 40
0.0645369333191782
 50
259.97059284585009
 51
293.7709003540927
  0
ARC
  5
51E3
  8
0
 10
334.02160098544158
 20
29.968697834336041
 30
0.0
 40
0.0467973782742005
 50
292.07061931859079
 51
354.6089032123632
  0
CIRCLE
  5
51E4
  8
0
 10
334.01228511788429
 20
29.960100546652701
 30
0.0
 40
0.0166555298752413
  0
ARC
  5
51E5
  8
0
 10
334.00336088093979
 20
29.98126874104269
 30
0.0
 40
0.0552293641759222
 50
107.8497920275893
 51
151.92068328706441
  0
ARC
  5
51E6
  8
0
 10
334.01290258433022
 20
29.958940679090599
 30
0.0
 40
0.0794389175188702
 50
66.513372559220429
 51
109.4644227635596
  0
ARC
  5
51E7
  8
0
 10
334.0218111144776
 20
29.978389528615129
 30
0.0
 40
0.058052498612662
 50
27.934516089822228
 51
66.927347277579329
  0
ARC
  5
51E8
  8
0
 10
334.00390904004757
 20
29.963242613321189
 30
0.0
 40
0.0467562347019241
 50
105.0695850748681
 51
177.5366931257231
  0
ARC
  5
51E9
  8
0
 10
334.011862005963
 20
29.946436832635982
 30
0.0
 40
0.0651359462523046
 50
50.132251168780002
 51
107.98251715040109
  0
ARC
  5
51EA
  8
0
 10
334.02571689737368
 20
29.964402737111548
 30
0.0
 40
0.0424745834202148
 50
359.86283199539753
 51
48.94176123398843
  0
ARC
  5
51EB
  8
0
 10
333.9959390353103
 20
29.988701029456639
 30
0.0
 40
0.0452865399089404
 50
155.80025865475099
 51
211.1840303444865
  0
ARC
  5
51EC
  8
0
 10
334.03953064009778
 20
29.988642187022471
 30
0.0
 40
0.0376022297732119
 50
319.65923561886621
 51
26.780775736758809
  0
LINE
  5
51ED
  8
0
 10
334.55135307051472
 20
29.915602089086601
 30
0.0
 11
334.54878924761471
 21
29.957614751586611
 31
0.0
  0
LINE
  5
51EE
  8
0
 10
334.6623484192246
 20
29.914650964441201
 30
0.0
 11
334.66725660391461
 21
29.955934838386611
 31
0.0
  0
ARC
  5
51EF
  8
0
 10
334.5952620798414
 20
29.9184681500168
 30
0.0
 40
0.0440024477195299
 50
183.73455425856321
 51
228.64016983914291
  0
ARC
  5
51F0
  8
0
 10
334.6056466155116
 20
29.929746871978121
 30
0.0
 40
0.0593309059771841
 50
228.31033496026981
 51
260.73002242222231
  0
ARC
  5
51F1
  8
0
 10
334.60732853573001
 20
29.934741524272219
 30
0.0
 40
0.0645369333191782
 50
259.97059284585009
 51
293.7709003540927
  0
ARC
  5
51F2
  8
0
 10
334.61575804559158
 20
29.919047747136041
 30
0.0
 40
0.0467973782742005
 50
292.07061931859079
 51
354.6089032123632
  0
CIRCLE
  5
51F3
  8
0
 10
334.60644217803429
 20
29.910450459452701
 30
0.0
 40
0.0166555298752413
  0
ARC
  5
51F4
  8
0
 10
334.59751794108979
 20
29.931618653842701
 30
0.0
 40
0.0552293641759222
 50
107.8497920275893
 51
151.92068328706441
  0
ARC
  5
51F5
  8
0
 10
334.60705964448027
 20
29.909290591890599
 30
0.0
 40
0.0794389175188702
 50
66.513372559220429
 51
109.4644227635596
  0
ARC
  5
51F6
  8
0
 10
334.6159681746276
 20
29.928739441415129
 30
0.0
 40
0.058052498612662
 50
27.934516089822228
 51
66.927347277579329
  0
ARC
  5
51F7
  8
0
 10
334.59806610019763
 20
29.913592526121189
 30
0.0
 40
0.0467562347019241
 50
105.0695850748681
 51
177.5366931257231
  0
ARC
  5
51F8
  8
0
 10
334.60601906611299
 20
29.896786745435978
 30
0.0
 40
0.0651359462523046
 50
50.132251168780002
 51
107.98251715040109
  0
ARC
  5
51F9
  8
0
 10
334.61987395752368
 20
29.914752649911549
 30
0.0
 40
0.0424745834202148
 50
359.86283199539753
 51
48.94176123398843
  0
ARC
  5
51FA
  8
0
 10
334.5900960954603
 20
29.939050942256639
 30
0.0
 40
0.0452865399089404
 50
155.80025865475099
 51
211.1840303444865
  0
ARC
  5
51FB
  8
0
 10
334.63368770024789
 20
29.938992099822471
 30
0.0
 40
0.0376022297732119
 50
319.65923561886621
 51
26.780775736758809
  0
LINE
  5
51FC
  8
0
 10
334.76096667571471
 20
29.644214593086598
 30
0.0
 11
334.7584028528147
 21
29.686227255586608
 31
0.0
  0
LINE
  5
51FD
  8
0
 10
334.8719620244247
 20
29.643263468441202
 30
0.0
 11
334.87687020911471
 21
29.684547342386612
 31
0.0
  0
ARC
  5
51FE
  8
0
 10
334.8048756850414
 20
29.647080654016801
 30
0.0
 40
0.0440024477195299
 50
183.73455425856321
 51
228.64016983914291
  0
ARC
  5
51FF
  8
0
 10
334.81526022071159
 20
29.658359375978119
 30
0.0
 40
0.0593309059771841
 50
228.31033496026981
 51
260.73002242222231
  0
ARC
  5
5200
  8
0
 10
334.81694214093
 20
29.663354028272231
 30
0.0
 40
0.0645369333191782
 50
259.97059284585009
 51
293.7709003540927
  0
ARC
  5
5201
  8
0
 10
334.82537165079162
 20
29.647660251136038
 30
0.0
 40
0.0467973782742005
 50
292.07061931859079
 51
354.6089032123632
  0
CIRCLE
  5
5202
  8
0
 10
334.81605578323428
 20
29.639062963452702
 30
0.0
 40
0.0166555298752413
  0
ARC
  5
5203
  8
0
 10
334.80713154628978
 20
29.660231157842698
 30
0.0
 40
0.0552293641759222
 50
107.8497920275893
 51
151.92068328706441
  0
ARC
  5
5204
  8
0
 10
334.81667324968021
 20
29.6379030958906
 30
0.0
 40
0.0794389175188702
 50
66.513372559220429
 51
109.4644227635596
  0
ARC
  5
5205
  8
0
 10
334.82558177982759
 20
29.65735194541513
 30
0.0
 40
0.058052498612662
 50
27.934516089822228
 51
66.927347277579329
  0
ARC
  5
5206
  8
0
 10
334.80767970539762
 20
29.64220503012119
 30
0.0
 40
0.0467562347019241
 50
105.0695850748681
 51
177.5366931257231
  0
ARC
  5
5207
  8
0
 10
334.81563267131298
 20
29.625399249435979
 30
0.0
 40
0.0651359462523046
 50
50.132251168780002
 51
107.98251715040109
  0
ARC
  5
5208
  8
0
 10
334.82948756272373
 20
29.643365153911549
 30
0.0
 40
0.0424745834202148
 50
359.86283199539753
 51
48.94176123398843
  0
ARC
  5
5209
  8
0
 10
334.79970970066029
 20
29.66766344625664
 30
0.0
 40
0.0452865399089404
 50
155.80025865475099
 51
211.1840303444865
  0
ARC
  5
520A
  8
0
 10
334.84330130544782
 20
29.667604603822468
 30
0.0
 40
0.0376022297732119
 50
319.65923561886621
 51
26.780775736758809
  0
LINE
  5
520B
  8
0
 10
333.83335309651471
 20
30.327122102636611
 30
0.0
 11
333.8307892736147
 21
30.369134765136611
 31
0.0
  0
LINE
  5
520C
  8
0
 10
333.94434844522459
 20
30.3261709779912
 30
0.0
 11
333.94925662991471
 21
30.367454851936611
 31
0.0
  0
ARC
  5
520D
  8
0
 10
333.8772621058414
 20
30.329988163566799
 30
0.0
 40
0.0440024477195299
 50
183.73455425856321
 51
228.64016983914291
  0
ARC
  5
520E
  8
0
 10
333.88764664151159
 20
30.341266885528121
 30
0.0
 40
0.0593309059771841
 50
228.31033496026981
 51
260.73002242222231
  0
ARC
  5
520F
  8
0
 10
333.88932856173
 20
30.34626153782223
 30
0.0
 40
0.0645369333191782
 50
259.97059284585009
 51
293.7709003540927
  0
ARC
  5
5210
  8
0
 10
333.89775807159162
 20
30.330567760686051
 30
0.0
 40
0.0467973782742005
 50
292.07061931859079
 51
354.6089032123632
  0
CIRCLE
  5
5211
  8
0
 10
333.88844220403428
 20
30.3219704730027
 30
0.0
 40
0.0166555298752413
  0
ARC
  5
5212
  8
0
 10
333.87951796708978
 20
30.343138667392701
 30
0.0
 40
0.0552293641759222
 50
107.8497920275893
 51
151.92068328706441
  0
ARC
  5
5213
  8
0
 10
333.88905967048032
 20
30.320810605440599
 30
0.0
 40
0.0794389175188702
 50
66.513372559220429
 51
109.4644227635596
  0
ARC
  5
5214
  8
0
 10
333.89796820062759
 20
30.340259454965128
 30
0.0
 40
0.058052498612662
 50
27.934516089822228
 51
66.927347277579329
  0
ARC
  5
5215
  8
0
 10
333.88006612619762
 20
30.325112539671188
 30
0.0
 40
0.0467562347019241
 50
105.0695850748681
 51
177.5366931257231
  0
ARC
  5
5216
  8
0
 10
333.88801909211298
 20
30.308306758985982
 30
0.0
 40
0.0651359462523046
 50
50.132251168780002
 51
107.98251715040109
  0
ARC
  5
5217
  8
0
 10
333.90187398352373
 20
30.326272663461548
 30
0.0
 40
0.0424745834202148
 50
359.86283199539753
 51
48.94176123398843
  0
ARC
  5
5218
  8
0
 10
333.87209612146029
 20
30.350570955806639
 30
0.0
 40
0.0452865399089404
 50
155.80025865475099
 51
211.1840303444865
  0
ARC
  5
5219
  8
0
 10
333.91568772624782
 20
30.350512113372471
 30
0.0
 40
0.0376022297732119
 50
319.65923561886621
 51
26.780775736758809
  0
LINE
  5
521A
  8
0
 10
334.35209175856471
 20
30.196477380136599
 30
0.0
 11
334.3495279356647
 21
30.238490042636609
 31
0.0
  0
LINE
  5
521B
  8
0
 10
334.46308710727459
 20
30.195526255491199
 30
0.0
 11
334.46799529196471
 21
30.236810129436609
 31
0.0
  0
ARC
  5
521C
  8
0
 10
334.39600076789139
 20
30.199343441066802
 30
0.0
 40
0.0440024477195299
 50
183.73455425856321
 51
228.64016983914291
  0
ARC
  5
521D
  8
0
 10
334.40638530356159
 20
30.21062216302812
 30
0.0
 40
0.0593309059771841
 50
228.31033496026981
 51
260.73002242222231
  0
ARC
  5
521E
  8
0
 10
334.40806722377999
 20
30.215616815322232
 30
0.0
 40
0.0645369333191782
 50
259.97059284585009
 51
293.7709003540927
  0
ARC
  5
521F
  8
0
 10
334.41649673364151
 20
30.199923038186039
 30
0.0
 40
0.0467973782742005
 50
292.07061931859079
 51
354.6089032123632
  0
CIRCLE
  5
5220
  8
0
 10
334.40718086608427
 20
30.191325750502688
 30
0.0
 40
0.0166555298752413
  0
ARC
  5
5221
  8
0
 10
334.39825662913978
 20
30.212493944892699
 30
0.0
 40
0.0552293641759222
 50
107.8497920275893
 51
151.92068328706441
  0
ARC
  5
5222
  8
0
 10
334.40779833253021
 20
30.190165882940601
 30
0.0
 40
0.0794389175188702
 50
66.513372559220429
 51
109.4644227635596
  0
ARC
  5
5223
  8
0
 10
334.41670686267759
 20
30.209614732465131
 30
0.0
 40
0.058052498612662
 50
27.934516089822228
 51
66.927347277579329
  0
ARC
  5
5224
  8
0
 10
334.39880478824762
 20
30.194467817171191
 30
0.0
 40
0.0467562347019241
 50
105.0695850748681
 51
177.5366931257231
  0
ARC
  5
5225
  8
0
 10
334.40675775416298
 20
30.17766203648598
 30
0.0
 40
0.0651359462523046
 50
50.132251168780002
 51
107.98251715040109
  0
ARC
  5
5226
  8
0
 10
334.42061264557373
 20
30.19562794096155
 30
0.0
 40
0.0424745834202148
 50
359.86283199539753
 51
48.94176123398843
  0
ARC
  5
5227
  8
0
 10
334.39083478351029
 20
30.219926233306641
 30
0.0
 40
0.0452865399089404
 50
155.80025865475099
 51
211.1840303444865
  0
ARC
  5
5228
  8
0
 10
334.43442638829782
 20
30.219867390872469
 30
0.0
 40
0.0376022297732119
 50
319.65923561886621
 51
26.780775736758809
  0
LINE
  5
5229
  8
0
 10
335.07734546861468
 20
30.0157171760866
 30
0.0
 11
335.07478164571472
 21
30.05772983858661
 31
0.0
  0
LINE
  5
522A
  8
0
 10
335.18834081732467
 20
30.0147660514412
 30
0.0
 11
335.19324900201468
 21
30.05604992538661
 31
0.0
  0
ARC
  5
522B
  8
0
 10
335.12125447794142
 20
30.018583237016799
 30
0.0
 40
0.0440024477195299
 50
183.73455425856321
 51
228.64016983914291
  0
ARC
  5
522C
  8
0
 10
335.13163901361162
 20
30.02986195897812
 30
0.0
 40
0.0593309059771841
 50
228.31033496026981
 51
260.73002242222231
  0
ARC
  5
522D
  8
0
 10
335.13332093383002
 20
30.034856611272222
 30
0.0
 40
0.0645369333191782
 50
259.97059284585009
 51
293.7709003540927
  0
ARC
  5
522E
  8
0
 10
335.14175044369148
 20
30.01916283413604
 30
0.0
 40
0.0467973782742005
 50
292.07061931859079
 51
354.6089032123632
  0
CIRCLE
  5
522F
  8
0
 10
335.1324345761343
 20
30.010565546452689
 30
0.0
 40
0.0166555298752413
  0
ARC
  5
5230
  8
0
 10
335.12351033918981
 20
30.0317337408427
 30
0.0
 40
0.0552293641759222
 50
107.8497920275893
 51
151.92068328706441
  0
ARC
  5
5231
  8
0
 10
335.13305204258018
 20
30.009405678890602
 30
0.0
 40
0.0794389175188702
 50
66.513372559220429
 51
109.4644227635596
  0
ARC
  5
5232
  8
0
 10
335.14196057272761
 20
30.028854528415131
 30
0.0
 40
0.058052498612662
 50
27.934516089822228
 51
66.927347277579329
  0
ARC
  5
5233
  8
0
 10
335.12405849829759
 20
30.013707613121191
 30
0.0
 40
0.0467562347019241
 50
105.0695850748681
 51
177.5366931257231
  0
ARC
  5
5234
  8
0
 10
335.13201146421301
 20
29.996901832435981
 30
0.0
 40
0.0651359462523046
 50
50.132251168780002
 51
107.98251715040109
  0
ARC
  5
5235
  8
0
 10
335.14586635562381
 20
30.014867736911551
 30
0.0
 40
0.0424745834202148
 50
359.86283199539753
 51
48.94176123398843
  0
ARC
  5
5236
  8
0
 10
335.11608849356031
 20
30.039166029256641
 30
0.0
 40
0.0452865399089404
 50
155.80025865475099
 51
211.1840303444865
  0
ARC
  5
5237
  8
0
 10
335.15968009834779
 20
30.039107186822459
 30
0.0
 40
0.0376022297732119
 50
319.65923561886621
 51
26.780775736758809
  0
LINE
  5
5238
  8
0
 10
334.14024618566469
 20
30.4920610247366
 30
0.0
 11
334.13768236276468
 21
30.53407368723661
 31
0.0
  0
LINE
  5
5239
  8
0
 10
334.25124153437469
 20
30.49110990009121
 30
0.0
 11
334.25614971906469
 21
30.53239377403661
 31
0.0
  0
ARC
  5
523A
  8
0
 10
334.18415519499138
 20
30.494927085666799
 30
0.0
 40
0.0440024477195299
 50
183.73455425856321
 51
228.64016983914291
  0
ARC
  5
523B
  8
0
 10
334.19453973066157
 20
30.50620580762812
 30
0.0
 40
0.0593309059771841
 50
228.31033496026981
 51
260.73002242222231
  0
ARC
  5
523C
  8
0
 10
334.19622165087998
 20
30.511200459922222
 30
0.0
 40
0.0645369333191782
 50
259.97059284585009
 51
293.7709003540927
  0
ARC
  5
523D
  8
0
 10
334.20465116074149
 20
30.49550668278604
 30
0.0
 40
0.0467973782742005
 50
292.07061931859079
 51
354.6089032123632
  0
CIRCLE
  5
523E
  8
0
 10
334.19533529318431
 20
30.4869093951027
 30
0.0
 40
0.0166555298752413
  0
ARC
  5
523F
  8
0
 10
334.18641105623982
 20
30.5080775894927
 30
0.0
 40
0.0552293641759222
 50
107.8497920275893
 51
151.92068328706441
  0
ARC
  5
5240
  8
0
 10
334.19595275963019
 20
30.485749527540602
 30
0.0
 40
0.0794389175188702
 50
66.513372559220429
 51
109.4644227635596
  0
ARC
  5
5241
  8
0
 10
334.20486128977763
 20
30.505198377065131
 30
0.0
 40
0.058052498612662
 50
27.934516089822228
 51
66.927347277579329
  0
ARC
  5
5242
  8
0
 10
334.1869592153476
 20
30.490051461771191
 30
0.0
 40
0.0467562347019241
 50
105.0695850748681
 51
177.5366931257231
  0
ARC
  5
5243
  8
0
 10
334.19491218126302
 20
30.473245681085981
 30
0.0
 40
0.0651359462523046
 50
50.132251168780002
 51
107.98251715040109
  0
ARC
  5
5244
  8
0
 10
334.20876707267371
 20
30.491211585561551
 30
0.0
 40
0.0424745834202148
 50
359.86283199539753
 51
48.94176123398843
  0
ARC
  5
5245
  8
0
 10
334.17898921061033
 20
30.515509877906641
 30
0.0
 40
0.0452865399089404
 50
155.80025865475099
 51
211.1840303444865
  0
ARC
  5
5246
  8
0
 10
334.22258081539792
 20
30.51545103547247
 30
0.0
 40
0.0376022297732119
 50
319.65923561886621
 51
26.780775736758809
  0
LINE
  5
5247
  8
0
 10
334.81363882591472
 20
30.318639668736601
 30
0.0
 11
334.81107500301471
 21
30.360652331236611
 31
0.0
  0
LINE
  5
5248
  8
0
 10
334.92463417462471
 20
30.317688544091201
 30
0.0
 11
334.92954235931472
 21
30.358972418036611
 31
0.0
  0
ARC
  5
5249
  8
0
 10
334.85754783524141
 20
30.3215057296668
 30
0.0
 40
0.0440024477195299
 50
183.73455425856321
 51
228.64016983914291
  0
ARC
  5
524A
  8
0
 10
334.8679323709116
 20
30.332784451628122
 30
0.0
 40
0.0593309059771841
 50
228.31033496026981
 51
260.73002242222231
  0
ARC
  5
524B
  8
0
 10
334.86961429113001
 20
30.33777910392223
 30
0.0
 40
0.0645369333191782
 50
259.97059284585009
 51
293.7709003540927
  0
ARC
  5
524C
  8
0
 10
334.87804380099158
 20
30.322085326786041
 30
0.0
 40
0.0467973782742005
 50
292.07061931859079
 51
354.6089032123632
  0
CIRCLE
  5
524D
  8
0
 10
334.86872793343429
 20
30.31348803910269
 30
0.0
 40
0.0166555298752413
  0
ARC
  5
524E
  8
0
 10
334.85980369648979
 20
30.334656233492701
 30
0.0
 40
0.0552293641759222
 50
107.8497920275893
 51
151.92068328706441
  0
ARC
  5
524F
  8
0
 10
334.86934539988022
 20
30.312328171540599
 30
0.0
 40
0.0794389175188702
 50
66.513372559220429
 51
109.4644227635596
  0
ARC
  5
5250
  8
0
 10
334.8782539300276
 20
30.331777021065129
 30
0.0
 40
0.058052498612662
 50
27.934516089822228
 51
66.927347277579329
  0
ARC
  5
5251
  8
0
 10
334.86035185559763
 20
30.316630105771189
 30
0.0
 40
0.0467562347019241
 50
105.0695850748681
 51
177.5366931257231
  0
ARC
  5
5252
  8
0
 10
334.86830482151299
 20
30.299824325085979
 30
0.0
 40
0.0651359462523046
 50
50.132251168780002
 51
107.98251715040109
  0
ARC
  5
5253
  8
0
 10
334.88215971292379
 20
30.317790229561549
 30
0.0
 40
0.0424745834202148
 50
359.86283199539753
 51
48.94176123398843
  0
ARC
  5
5254
  8
0
 10
334.8523818508603
 20
30.342088521906639
 30
0.0
 40
0.0452865399089404
 50
155.80025865475099
 51
211.1840303444865
  0
ARC
  5
5255
  8
0
 10
334.89597345564778
 20
30.342029679472461
 30
0.0
 40
0.0376022297732119
 50
319.65923561886621
 51
26.780775736758809
  0
LINE
  5
5256
  8
0
 10
334.49385354441472
 20
30.603134837586602
 30
0.0
 11
334.4912897215147
 21
30.645147500086608
 31
0.0
  0
LINE
  5
5257
  8
0
 10
334.60484889312471
 20
30.602183712941201
 30
0.0
 11
334.60975707781472
 21
30.643467586886612
 31
0.0
  0
ARC
  5
5258
  8
0
 10
334.5377625537414
 20
30.6060008985168
 30
0.0
 40
0.0440024477195299
 50
183.73455425856321
 51
228.64016983914291
  0
ARC
  5
5259
  8
0
 10
334.5481470894116
 20
30.617279620478111
 30
0.0
 40
0.0593309059771841
 50
228.31033496026981
 51
260.73002242222231
  0
ARC
  5
525A
  8
0
 10
334.54982900963
 20
30.62227427277222
 30
0.0
 40
0.0645369333191782
 50
259.97059284585009
 51
293.7709003540927
  0
ARC
  5
525B
  8
0
 10
334.55825851949157
 20
30.606580495636042
 30
0.0
 40
0.0467973782742005
 50
292.07061931859079
 51
354.6089032123632
  0
CIRCLE
  5
525C
  8
0
 10
334.54894265193428
 20
30.597983207952701
 30
0.0
 40
0.0166555298752413
  0
ARC
  5
525D
  8
0
 10
334.54001841498979
 20
30.619151402342691
 30
0.0
 40
0.0552293641759222
 50
107.8497920275893
 51
151.92068328706441
  0
ARC
  5
525E
  8
0
 10
334.54956011838021
 20
30.5968233403906
 30
0.0
 40
0.0794389175188702
 50
66.513372559220429
 51
109.4644227635596
  0
ARC
  5
525F
  8
0
 10
334.55846864852759
 20
30.616272189915129
 30
0.0
 40
0.058052498612662
 50
27.934516089822228
 51
66.927347277579329
  0
ARC
  5
5260
  8
0
 10
334.54056657409762
 20
30.601125274621189
 30
0.0
 40
0.0467562347019241
 50
105.0695850748681
 51
177.5366931257231
  0
ARC
  5
5261
  8
0
 10
334.54851954001299
 20
30.584319493935979
 30
0.0
 40
0.0651359462523046
 50
50.132251168780002
 51
107.98251715040109
  0
ARC
  5
5262
  8
0
 10
334.56237443142379
 20
30.602285398411549
 30
0.0
 40
0.0424745834202148
 50
359.86283199539753
 51
48.94176123398843
  0
ARC
  5
5263
  8
0
 10
334.53259656936029
 20
30.62658369075664
 30
0.0
 40
0.0452865399089404
 50
155.80025865475099
 51
211.1840303444865
  0
ARC
  5
5264
  8
0
 10
334.57618817414777
 20
30.626524848322472
 30
0.0
 40
0.0376022297732119
 50
319.65923561886621
 51
26.780775736758809
  0
LINE
  5
5265
  8
0
 10
334.8857556623646
 20
30.6627342044866
 30
0.0
 11
334.8831918394647
 21
30.704746866986611
 31
0.0
  0
LINE
  5
5266
  8
0
 10
334.99675101107471
 20
30.6617830798412
 30
0.0
 11
335.00165919576472
 21
30.70306695378661
 31
0.0
  0
ARC
  5
5267
  8
0
 10
334.9296646716914
 20
30.665600265416799
 30
0.0
 40
0.0440024477195299
 50
183.73455425856321
 51
228.64016983914291
  0
ARC
  5
5268
  8
0
 10
334.9400492073616
 20
30.676878987378121
 30
0.0
 40
0.0593309059771841
 50
228.31033496026981
 51
260.73002242222231
  0
ARC
  5
5269
  8
0
 10
334.94173112758
 20
30.681873639672229
 30
0.0
 40
0.0645369333191782
 50
259.97059284585009
 51
293.7709003540927
  0
ARC
  5
526A
  8
0
 10
334.95016063744163
 20
30.66617986253604
 30
0.0
 40
0.0467973782742005
 50
292.07061931859079
 51
354.6089032123632
  0
CIRCLE
  5
526B
  8
0
 10
334.94084476988428
 20
30.65758257485269
 30
0.0
 40
0.0166555298752413
  0
ARC
  5
526C
  8
0
 10
334.93192053293978
 20
30.67875076924269
 30
0.0
 40
0.0552293641759222
 50
107.8497920275893
 51
151.92068328706441
  0
ARC
  5
526D
  8
0
 10
334.94146223633032
 20
30.656422707290599
 30
0.0
 40
0.0794389175188702
 50
66.513372559220429
 51
109.4644227635596
  0
ARC
  5
526E
  8
0
 10
334.95037076647759
 20
30.675871556815132
 30
0.0
 40
0.058052498612662
 50
27.934516089822228
 51
66.927347277579329
  0
ARC
  5
526F
  8
0
 10
334.93246869204768
 20
30.660724641521188
 30
0.0
 40
0.0467562347019241
 50
105.0695850748681
 51
177.5366931257231
  0
ARC
  5
5270
  8
0
 10
334.94042165796299
 20
30.643918860835981
 30
0.0
 40
0.0651359462523046
 50
50.132251168780002
 51
107.98251715040109
  0
ARC
  5
5271
  8
0
 10
334.95427654937367
 20
30.661884765311552
 30
0.0
 40
0.0424745834202148
 50
359.86283199539753
 51
48.94176123398843
  0
ARC
  5
5272
  8
0
 10
334.92449868731029
 20
30.686183057656638
 30
0.0
 40
0.0452865399089404
 50
155.80025865475099
 51
211.1840303444865
  0
ARC
  5
5273
  8
0
 10
334.96809029209783
 20
30.68612421522246
 30
0.0
 40
0.0376022297732119
 50
319.65923561886621
 51
26.780775736758809
  0
ARC
  5
5274
  8
0
 10
335.02948626932749
 20
31.435901483644241
 30
0.0
 40
4.0103169583580183
 50
271.53254958801591
 51
291.73047539089839
  0
ARC
  5
5275
  8
0
 10
334.93608065737521
 20
32.461199210910081
 30
0.0
 40
4.6281878081967847
 50
272.4849097717381
 51
282.45669361512768
  0
ARC
  5
5276
  8
0
 10
335.09856536288447
 20
29.884024904891589
 30
0.0
 40
0.9325360475562128
 50
272.3462338881447
 51
281.34371434192451
  0
ARC
  5
5277
  8
0
 10
335.08457910621678
 20
28.75671684723849
 30
0.0
 40
0.8266268007100185
 50
67.861973004969144
 51
86.38207137528093
  0
ARC
  5
5278
  8
0
 10
335.04854577791008
 20
25.6458246206433
 30
0.0
 40
5.5224656183263097
 50
84.955903361242434
 51
89.084926454885135
  0
ARC
  5
5279
  8
0
 10
335.04435633292093
 20
26.723558333173361
 30
0.0
 40
4.3287207805161536
 50
76.978563357163424
 51
88.777078247182246
  0
ARC
  5
527A
  8
0
 10
335.07217930701319
 20
27.644322904998919
 30
0.0
 40
3.3573959804061309
 50
67.350423451295839
 51
88.898141914386215
  0
ARC
  5
527B
  8
0
 10
335.11917377073348
 20
27.940132642445089
 30
0.0
 40
4.1187710216844948
 50
82.919315367126444
 51
89.755615327573807
  0
ENDSEC
  0
EOF
