  0
SECTION
  2
HEADER
  9
$ACADVER
  1
AC1009
  9
$DWGCODEPAGE
  3
ansi_1252
  9
$INSBASE
 10
0.0
 20
0.0
 30
0.0
  9
$EXTMIN
 10
1.000000000000000E+20
 20
1.000000000000000E+20
 30
1.000000000000000E+20
  9
$EXTMAX
 10
0.0
 20
0.0
 30
0.0
  9
$LIMMIN
 10
0.0
 20
0.0
  9
$LIMMAX
 10
144.0
 20
108.0
  9
$ORTHOMODE
 70
     1
  9
$REGENMODE
 70
     1
  9
$FILLMODE
 70
     1
  9
$QTEXTMODE
 70
     0
  9
$MIRRTEXT
 70
     1
  9
$DRAGMODE
 70
     2
  9
$LTSCALE
 40
4.0
  9
$OSMODE
 70
    37
  9
$ATTMODE
 70
     1
  9
$TEXTSIZE
 40
0.003
  9
$TRACEWID
 40
0.05
  9
$TEXTSTYLE
  7
STANDARD
  9
$CLAYER
  8
0
  9
$CELTYPE
  6
CONTINUOUS
  9
$CECOLOR
 62
   256
  9
$DIMSCALE
 40
1.0
  9
$DIMASZ
 40
0.18
  9
$DIMEXO
 40
0.0625
  9
$DIMDLI
 40
0.38
  9
$DIMRND
 40
0.0
  9
$DIMDLE
 40
0.0
  9
$DIMEXE
 40
0.18
  9
$DIMTP
 40
0.0
  9
$DIMTM
 40
0.0
  9
$DIMTXT
 40
0.18
  9
$DIMCEN
 40
0.09
  9
$DIMTSZ
 40
0.0
  9
$DIMTOL
 70
     0
  9
$DIMLIM
 70
     0
  9
$DIMTIH
 70
     1
  9
$DIMTOH
 70
     1
  9
$DIMSE1
 70
     0
  9
$DIMSE2
 70
     0
  9
$DIMTAD
 70
     0
  9
$DIMZIN
 70
     0
  9
$DIMBLK
  1

  9
$DIMASO
 70
     1
  9
$DIMSHO
 70
     1
  9
$DIMPOST
  1

  9
$DIMAPOST
  1

  9
$DIMALT
 70
     0
  9
$DIMALTD
 70
     2
  9
$DIMALTF
 40
25.4
  9
$DIMLFAC
 40
1.0
  9
$DIMTOFL
 70
     0
  9
$DIMTVP
 40
0.0
  9
$DIMTIX
 70
     0
  9
$DIMSOXD
 70
     0
  9
$DIMSAH
 70
     0
  9
$DIMBLK1
  1

  9
$DIMBLK2
  1

  9
$DIMSTYLE
  2
STANDARD
  9
$DIMCLRD
 70
     0
  9
$DIMCLRE
 70
     0
  9
$DIMCLRT
 70
     0
  9
$DIMTFAC
 40
1.0
  9
$DIMGAP
 40
0.09
  9
$LUNITS
 70
     2
  9
$LUPREC
 70
     4
  9
$SKETCHINC
 40
0.1
  9
$FILLETRAD
 40
0.0
  9
$AUNITS
 70
     0
  9
$AUPREC
 70
     0
  9
$MENU
  1
acad
  9
$ELEVATION
 40
0.0
  9
$PELEVATION
 40
0.0
  9
$THICKNESS
 40
0.0
  9
$LIMCHECK
 70
     0
  9
$CHAMFERA
 40
0.0
  9
$CHAMFERB
 40
0.0
  9
$SKPOLY
 70
     0
  9
$TDCREATE
 40
2453705.585327627
  9
$TDUPDATE
 40
2453705.599570787
  9
$TDINDWG
 40
0.0142433449
  9
$TDUSRTIMER
 40
0.0142433449
  9
$USRTIMER
 70
     1
  9
$ANGBASE
 50
0.0
  9
$ANGDIR
 70
     0
  9
$PDMODE
 70
     3
  9
$PDSIZE
 40
-2.0
  9
$PLINEWID
 40
0.0
  9
$COORDS
 70
     1
  9
$SPLFRAME
 70
     0
  9
$SPLINETYPE
 70
     6
  9
$SPLINESEGS
 70
     8
  9
$ATTDIA
 70
     0
  9
$ATTREQ
 70
     1
  9
$HANDLING
 70
     1
  9
$HANDSEED
  5
115
  9
$SURFTAB1
 70
     6
  9
$SURFTAB2
 70
     6
  9
$SURFTYPE
 70
     6
  9
$SURFU
 70
     6
  9
$SURFV
 70
     6
  9
$UCSNAME
  2

  9
$UCSORG
 10
0.0
 20
0.0
 30
0.0
  9
$UCSXDIR
 10
1.0
 20
0.0
 30
0.0
  9
$UCSYDIR
 10
0.0
 20
1.0
 30
0.0
  9
$PUCSNAME
  2

  9
$PUCSORG
 10
0.0
 20
0.0
 30
0.0
  9
$PUCSXDIR
 10
1.0
 20
0.0
 30
0.0
  9
$PUCSYDIR
 10
0.0
 20
1.0
 30
0.0
  9
$USERI1
 70
     0
  9
$USERI2
 70
     0
  9
$USERI3
 70
     0
  9
$USERI4
 70
     0
  9
$USERI5
 70
     0
  9
$USERR1
 40
0.0
  9
$USERR2
 40
0.0
  9
$USERR3
 40
0.0
  9
$USERR4
 40
0.0
  9
$USERR5
 40
0.0
  9
$WORLDVIEW
 70
     1
  9
$SHADEDGE
 70
     3
  9
$SHADEDIF
 70
    70
  9
$TILEMODE
 70
     1
  9
$MAXACTVP
 70
    16
  9
$PLIMCHECK
 70
     0
  9
$PEXTMIN
 10
1.000000000000000E+20
 20
1.000000000000000E+20
 30
1.000000000000000E+20
  9
$PEXTMAX
 10
-1.000000000000000E+20
 20
-1.000000000000000E+20
 30
-1.000000000000000E+20
  9
$PLIMMIN
 10
0.0
 20
0.0
  9
$PLIMMAX
 10
12.0
 20
9.0
  9
$UNITMODE
 70
     0
  9
$VISRETAIN
 70
     0
  9
$PLINEGEN
 70
     1
  9
$PSLTSCALE
 70
     0
  0
ENDSEC
  0
SECTION
  2
TABLES
  0
TABLE
  2
VPORT
 70
     1
  0
VPORT
  2
*ACTIVE
 70
     0
 10
0.0
 20
0.0
 11
1.0
 21
1.0
 12
-0.1883201057589545
 22
-4.093050334870437
 13
0.0
 23
0.0
 14
1.0
 24
1.0
 15
0.0
 25
0.0
 16
0.0
 26
0.0
 36
1.0
 17
0.0
 27
0.0
 37
0.0
 40
27.68263322061728
 41
1.455696202531646
 42
50.0
 43
0.0
 44
0.0
 50
0.0
 51
0.0
 71
     0
 72
   100
 73
     1
 74
     1
 75
     0
 76
     0
 77
     0
 78
     0
  0
ENDTAB
  0
TABLE
  2
LTYPE
 70
     1
  0
LTYPE
  2
CONTINUOUS
 70
     0
  3
Solid line
 72
    65
 73
     0
 40
0.0
  0
ENDTAB
  0
TABLE
  2
LAYER
 70
     1
  0
LAYER
  2
0
 70
     0
 62
     7
  6
CONTINUOUS
  0
ENDTAB
  0
TABLE
  2
STYLE
 70
     1
  0
STYLE
  2
STANDARD
 70
     0
 40
0.0
 41
1.0
 50
0.0
 71
     0
 42
0.003
  3
txt
  4

  0
ENDTAB
  0
TABLE
  2
VIEW
 70
     0
  0
ENDTAB
  0
TABLE
  2
UCS
 70
     0
  0
ENDTAB
  0
TABLE
  2
APPID
 70
     1
  0
APPID
  2
ACAD
 70
     0
  0
ENDTAB
  0
TABLE
  2
DIMSTYLE
 70
     1
  0
DIMSTYLE
  2
STANDARD
 70
     0
  3

  4

  5

  6

  7

 40
1.0
 41
0.18
 42
0.0625
 43
0.38
 44
0.18
 45
0.0
 46
0.0
 47
0.0
 48
0.0
140
0.18
141
0.09
142
0.0
143
25.4
144
1.0
145
0.0
146
1.0
147
0.09
 71
     0
 72
     0
 73
     1
 74
     1
 75
     0
 76
     0
 77
     0
 78
     0
170
     0
171
     2
172
     0
173
     0
174
     0
175
     0
176
     0
177
     0
178
     0
  0
ENDTAB
  0
ENDSEC
  0
SECTION
  2
BLOCKS
  0
BLOCK
  8
0
  2
$MODEL_SPACE
 70
     2
 10
0.0
 20
0.0
 30
0.0
  3
$MODEL_SPACE
  1

  0
ENDBLK
  5
9
  8
0
  0
BLOCK
 67
     1
  8
0
  2
$PAPER_SPACE
 70
     0
 10
0.0
 20
0.0
 30
0.0
  3
$PAPER_SPACE
  1

  0
ENDBLK
  5
E
 67
     1
  8
0
  0
ENDSEC
  0
SECTION
  2
ENTITIES
  0
POLYLINE
  5
24
  8
0
 66
     1
 10
0.0
 20
0.0
 30
0.0
  0
VERTEX
  5
4A
  8
0
 10
-4.197955680872495
 20
-7.917035780691624
 30
0.0
  0
VERTEX
  5
4B
  8
0
 10
-4.422553998979467
 20
-8.288831911870201
 30
0.0
  0
VERTEX
  5
4C
  8
0
 10
-4.612418207573432
 20
-8.679835047932139
 30
0.0
  0
VERTEX
  5
4D
  8
0
 10
-4.767496763870287
 20
-9.086797357148274
 30
0.0
  0
VERTEX
  5
4E
  8
0
 10
-4.887738125085931
 20
-9.50647100778944
 30
0.0
  0
VERTEX
  5
4F
  8
0
 10
-4.973090748436257
 20
-9.935608168126464
 30
0.0
  0
VERTEX
  5
50
  8
0
 10
-5.023503091137164
 20
-10.37096100643018
 30
0.0
  0
VERTEX
  5
51
  8
0
 10
-5.03892361040455
 20
-10.80928169097141
 30
0.0
  0
VERTEX
  5
52
  8
0
 10
-5.019300763454309
 20
-11.24732239002099
 30
0.0
  0
VERTEX
  5
53
  8
0
 10
-4.964583007502339
 20
-11.68183527184976
 30
0.0
  0
VERTEX
  5
54
  8
0
 10
-4.874718799764537
 20
-12.10957250472854
 30
0.0
  0
VERTEX
  5
55
  8
0
 10
-4.7496565974568
 20
-12.52728625692816
 30
0.0
  0
VERTEX
  5
56
  8
0
 10
-4.589344857795026
 20
-12.93172869671946
 30
0.0
  0
VERTEX
  5
57
  8
0
 10
-4.393732037995108
 20
-13.31965199237327
 30
0.0
  0
VERTEX
  5
58
  8
0
 10
-4.162766595272947
 20
-13.68780831216042
 30
0.0
  0
VERTEX
  5
59
  8
0
 10
-3.896396986844437
 20
-14.03294982435173
 30
0.0
  0
VERTEX
  5
5A
  8
0
 10
-3.594571669925476
 20
-14.35182869721805
 30
0.0
  0
SEQEND
  5
5B
  8
0
  0
POLYLINE
  5
25
  8
0
 66
     1
 10
0.0
 20
0.0
 30
0.0
  0
VERTEX
  5
5C
  8
0
 10
-4.304601307087774
 20
-7.116433381038849
 30
0.0
  0
VERTEX
  5
5D
  8
0
 10
-4.60251987195492
 20
-7.553285414442712
 30
0.0
  0
VERTEX
  5
5E
  8
0
 10
-4.862973832405157
 20
-8.013391515782772
 30
0.0
  0
VERTEX
  5
5F
  8
0
 10
-5.084092376274175
 20
-8.493412221712676
 30
0.0
  0
VERTEX
  5
60
  8
0
 10
-5.26400469139767
 20
-8.99000806888607
 30
0.0
  0
VERTEX
  5
61
  8
0
 10
-5.400839965611333
 20
-9.499839593956599
 30
0.0
  0
VERTEX
  5
62
  8
0
 10
-5.492727386750859
 20
-10.01956733357791
 30
0.0
  0
VERTEX
  5
63
  8
0
 10
-5.537796142651941
 20
-10.54585182440365
 30
0.0
  0
VERTEX
  5
64
  8
0
 10
-5.534175421150273
 20
-11.07535360308746
 30
0.0
  0
VERTEX
  5
65
  8
0
 10
-5.48217829694214
 20
-11.59068769150436
 30
0.0
  0
VERTEX
  5
66
  8
0
 10
-5.383482137670325
 20
-12.09798619624602
 30
0.0
  0
VERTEX
  5
67
  8
0
 10
-5.2399730274346
 20
-12.59399874026062
 30
0.0
  0
VERTEX
  5
68
  8
0
 10
-5.053537050334743
 20
-13.0754749464963
 30
0.0
  0
VERTEX
  5
69
  8
0
 10
-4.826060290470531
 20
-13.53916443790122
 30
0.0
  0
VERTEX
  5
6A
  8
0
 10
-4.559428831941738
 20
-13.98181683742356
 30
0.0
  0
VERTEX
  5
6B
  8
0
 10
-4.255528758848142
 20
-14.40018176801145
 30
0.0
  0
VERTEX
  5
6C
  8
0
 10
-3.916246155289517
 20
-14.79100885261307
 30
0.0
  0
SEQEND
  5
6D
  8
0
  0
POLYLINE
  5
26
  8
0
 66
     1
 10
0.0
 20
0.0
 30
0.0
  0
VERTEX
  5
6E
  8
0
 10
4.235954025724727
 20
-7.917035780691624
 30
0.0
  0
VERTEX
  5
6F
  8
0
 10
4.461768477793509
 20
-8.291194660668277
 30
0.0
  0
VERTEX
  5
70
  8
0
 10
4.652428205777733
 20
-8.684839576526221
 30
0.0
  0
VERTEX
  5
71
  8
0
 10
4.807878485239958
 20
-9.094650473005476
 30
0.0
  0
VERTEX
  5
72
  8
0
 10
4.92806459174274
 20
-9.517307294846065
 30
0.0
  0
VERTEX
  5
73
  8
0
 10
5.012931800848636
 20
-9.949489986788004
 30
0.0
  0
VERTEX
  5
74
  8
0
 10
5.062425388120205
 20
-10.38787849357131
 30
0.0
  0
VERTEX
  5
75
  8
0
 10
5.07649062912
 20
-10.82915275993602
 30
0.0
  0
VERTEX
  5
76
  8
0
 10
5.055072799410582
 20
-11.26999273062213
 30
0.0
  0
VERTEX
  5
77
  8
0
 10
4.998117174554507
 20
-11.70707835036967
 30
0.0
  0
VERTEX
  5
78
  8
0
 10
4.905569030114332
 20
-12.13708956391867
 30
0.0
  0
VERTEX
  5
79
  8
0
 10
4.777373641652614
 20
-12.55670631600913
 30
0.0
  0
VERTEX
  5
7A
  8
0
 10
4.613476284731909
 20
-12.96260855138109
 30
0.0
  0
VERTEX
  5
7B
  8
0
 10
4.413822234914775
 20
-13.35147621477456
 30
0.0
  0
VERTEX
  5
7C
  8
0
 10
4.17835676776377
 20
-13.71998925092955
 30
0.0
  0
VERTEX
  5
7D
  8
0
 10
3.907025158841451
 20
-14.0648276045861
 30
0.0
  0
VERTEX
  5
7E
  8
0
 10
3.599772683710374
 20
-14.38267122048422
 30
0.0
  0
SEQEND
  5
7F
  8
0
  0
POLYLINE
  5
27
  8
0
 66
     1
 10
0.0
 20
0.0
 30
0.0
  0
VERTEX
  5
80
  8
0
 10
4.342599651940004
 20
-7.116433381038849
 30
0.0
  0
VERTEX
  5
81
  8
0
 10
4.640526701216059
 20
-7.553276081592912
 30
0.0
  0
VERTEX
  5
82
  8
0
 10
4.900999327365893
 20
-8.013357578147138
 30
0.0
  0
VERTEX
  5
83
  8
0
 10
5.12213653693451
 20
-8.493343498000517
 30
0.0
  0
VERTEX
  5
84
  8
0
 10
5.302057336466914
 20
-8.989899468452041
 30
0.0
  0
VERTEX
  5
85
  8
0
 10
5.438880732508106
 20
-9.499691116800701
 30
0.0
  0
VERTEX
  5
86
  8
0
 10
5.53072573160309
 20
-10.01938407034549
 30
0.0
  0
VERTEX
  5
87
  8
0
 10
5.575711340296871
 20
-10.54564395638539
 30
0.0
  0
VERTEX
  5
88
  8
0
 10
5.571956565134449
 20
-11.0751364022194
 30
0.0
  0
VERTEX
  5
89
  8
0
 10
5.519967925335223
 20
-11.59047091485675
 30
0.0
  0
VERTEX
  5
8A
  8
0
 10
5.421290431763004
 20
-12.09777238914153
 30
0.0
  0
VERTEX
  5
8B
  8
0
 10
5.277799987226877
 20
-12.59379299334459
 30
0.0
  0
VERTEX
  5
8C
  8
0
 10
5.091372494535934
 20
-13.07528489573674
 30
0.0
  0
VERTEX
  5
8D
  8
0
 10
4.863883856499261
 20
-13.53900026458883
 30
0.0
  0
VERTEX
  5
8E
  8
0
 10
4.597209975925951
 20
-13.98169126817168
 30
0.0
  0
VERTEX
  5
8F
  8
0
 10
4.293226755625089
 20
-14.40011007475613
 30
0.0
  0
VERTEX
  5
90
  8
0
 10
3.953810098405767
 20
-14.791008852613
 30
0.0
  0
SEQEND
  5
91
  8
0
  0
POLYLINE
  5
28
  8
0
 66
     1
 10
0.0
 20
0.0
 30
0.0
  0
VERTEX
  5
92
  8
0
 10
-3.931233014900274
 20
-14.8029549006569
 30
0.0
  0
VERTEX
  5
93
  8
0
 10
-3.746897777431699
 20
-14.99570778534149
 30
0.0
  0
VERTEX
  5
94
  8
0
 10
-3.553819356584697
 20
-15.17666469026795
 30
0.0
  0
VERTEX
  5
95
  8
0
 10
-3.143377591276638
 20
-15.50326819318797
 30
0.0
  0
VERTEX
  5
96
  8
0
 10
-2.703796972018552
 20
-15.78292067409993
 30
0.0
  0
VERTEX
  5
97
  8
0
 10
-2.23896675185289
 20
-16.01577739768681
 30
0.0
  0
VERTEX
  5
98
  8
0
 10
-1.752776183822106
 20
-16.2019936286316
 30
0.0
  0
VERTEX
  5
99
  8
0
 10
-1.249114520968653
 20
-16.34172463161725
 30
0.0
  0
VERTEX
  5
9A
  8
0
 10
-0.7318710163349834
 20
-16.43512567132677
 30
0.0
  0
VERTEX
  5
9B
  8
0
 10
-0.2049349229635509
 20
-16.48235201244311
 30
0.0
  0
SEQEND
  5
9C
  8
0
  0
POLYLINE
  5
29
  8
0
 66
     1
 10
0.0
 20
0.0
 30
0.0
  0
VERTEX
  5
9D
  8
0
 10
-5.051989494066939
 20
-13.68198122062218
 30
0.0
  0
VERTEX
  5
9E
  8
0
 10
-5.052772445925829
 20
-13.75104855133473
 30
0.0
  0
VERTEX
  5
9F
  8
0
 10
-5.06524765564413
 20
-13.81090690461992
 30
0.0
  0
VERTEX
  5
A0
  8
0
 10
-5.087744437053162
 20
-13.86155628047775
 30
0.0
  0
VERTEX
  5
A1
  8
0
 10
-5.118592103984251
 20
-13.90299667890823
 30
0.0
  0
VERTEX
  5
A2
  8
0
 10
-5.198657349737879
 20
-13.95825054348711
 30
0.0
  0
VERTEX
  5
A3
  8
0
 10
-5.292077903555592
 20
-13.97666849835655
 30
0.0
  0
VERTEX
  5
A4
  8
0
 10
-5.385488276087961
 20
-13.95825054351657
 30
0.0
  0
VERTEX
  5
A5
  8
0
 10
-5.465522977985565
 20
-13.90299667896716
 30
0.0
  0
VERTEX
  5
A6
  8
0
 10
-5.496347737024634
 20
-13.86155628055142
 30
0.0
  0
VERTEX
  5
A7
  8
0
 10
-5.518816519898978
 20
-13.81090690470832
 30
0.0
  0
VERTEX
  5
A8
  8
0
 10
-5.531258640439918
 20
-13.75104855143787
 30
0.0
  0
VERTEX
  5
A9
  8
0
 10
-5.532003412478775
 20
-13.68198122074005
 30
0.0
  0
SEQEND
  5
AA
  8
0
  0
POLYLINE
  5
2A
  8
0
 66
     1
 10
0.0
 20
0.0
 30
0.0
  0
VERTEX
  5
AB
  8
0
 10
3.969014158884449
 20
-14.8029549006569
 30
0.0
  0
VERTEX
  5
AC
  8
0
 10
3.764609317282873
 20
-15.01559136880943
 30
0.0
  0
VERTEX
  5
AD
  8
0
 10
3.549869511136843
 20
-15.21341533167214
 30
0.0
  0
VERTEX
  5
AE
  8
0
 10
3.32543520726364
 20
-15.39653496545859
 30
0.0
  0
VERTEX
  5
AF
  8
0
 10
3.091946872480547
 20
-15.56505844638233
 30
0.0
  0
VERTEX
  5
B0
  8
0
 10
2.850044973604844
 20
-15.7190939506569
 30
0.0
  0
VERTEX
  5
B1
  8
0
 10
2.600369977453816
 20
-15.85874965449586
 30
0.0
  0
VERTEX
  5
B2
  8
0
 10
2.343562350844744
 20
-15.98413373411275
 30
0.0
  0
VERTEX
  5
B3
  8
0
 10
2.08026256059491
 20
-16.09535436572113
 30
0.0
  0
VERTEX
  5
B4
  8
0
 10
1.811111073521598
 20
-16.19251972553455
 30
0.0
  0
VERTEX
  5
B5
  8
0
 10
1.536748356442087
 20
-16.27573798976655
 30
0.0
  0
VERTEX
  5
B6
  8
0
 10
0.9749510995336046
 20
-16.40076593634051
 30
0.0
  0
VERTEX
  5
B7
  8
0
 10
0.3999945244077194
 20
-16.4713036151514
 30
0.0
  0
VERTEX
  5
B8
  8
0
 10
-0.1829976343973098
 20
-16.48821643590764
 30
0.0
  0
SEQEND
  5
B9
  8
0
  0
POLYLINE
  5
2B
  8
0
 66
     1
 10
0.0
 20
0.0
 30
0.0
  0
VERTEX
  5
BA
  8
0
 10
3.595211464960838
 20
-14.37593799405968
 30
0.0
  0
VERTEX
  5
BB
  8
0
 10
3.405923188654731
 20
-14.57210882287278
 30
0.0
  0
VERTEX
  5
BC
  8
0
 10
3.207098542792519
 20
-14.75458231589175
 30
0.0
  0
VERTEX
  5
BD
  8
0
 10
2.999331542052724
 20
-14.92346696749546
 30
0.0
  0
VERTEX
  5
BE
  8
0
 10
2.78321620111387
 20
-15.07887127206281
 30
0.0
  0
VERTEX
  5
BF
  8
0
 10
2.559346534654478
 20
-15.22090372397267
 30
0.0
  0
VERTEX
  5
C0
  8
0
 10
2.328316557353072
 20
-15.34967281760393
 30
0.0
  0
VERTEX
  5
C1
  8
0
 10
1.847151728938305
 20
-15.56785490754618
 30
0.0
  0
VERTEX
  5
C2
  8
0
 10
1.34447383329775
 20
-15.73428549692064
 30
0.0
  0
VERTEX
  5
C3
  8
0
 10
0.8250349878595868
 20
-15.84983254075837
 30
0.0
  0
VERTEX
  5
C4
  8
0
 10
0.2935873100519965
 20
-15.91536399409045
 30
0.0
  0
VERTEX
  5
C5
  8
0
 10
-0.2451170826968408
 20
-15.93174781194794
 30
0.0
  0
SEQEND
  5
C6
  8
0
  0
POLYLINE
  5
2C
  8
0
 66
     1
 10
0.0
 20
0.0
 30
0.0
  0
VERTEX
  5
C7
  8
0
 10
-3.610861734518329
 20
-14.37593799405968
 30
0.0
  0
VERTEX
  5
C8
  8
0
 10
-3.264307144060771
 20
-14.71794366868515
 30
0.0
  0
VERTEX
  5
C9
  8
0
 10
-2.887715200750388
 20
-15.01720319435674
 30
0.0
  0
VERTEX
  5
CA
  8
0
 10
-2.484606085842228
 20
-15.27387438108012
 30
0.0
  0
VERTEX
  5
CB
  8
0
 10
-2.058499980591338
 20
-15.48811503886092
 30
0.0
  0
VERTEX
  5
CC
  8
0
 10
-1.612917066252768
 20
-15.66008297770481
 30
0.0
  0
VERTEX
  5
CD
  8
0
 10
-1.151377524081562
 20
-15.78993600761742
 30
0.0
  0
VERTEX
  5
CE
  8
0
 10
-0.6774015353327696
 20
-15.87783193860441
 30
0.0
  0
VERTEX
  5
CF
  8
0
 10
-0.1945092812614376
 20
-15.92392858067143
 30
0.0
  0
SEQEND
  5
D0
  8
0
  0
POLYLINE
  5
2D
  8
0
 66
     1
 10
0.0
 20
0.0
 30
0.0
  0
VERTEX
  5
D1
  8
0
 10
5.08998783891917
 20
-13.68198122062218
 30
0.0
  0
VERTEX
  5
D2
  8
0
 10
5.090734997177981
 20
-13.75108434493481
 30
0.0
  0
VERTEX
  5
D3
  8
0
 10
5.103183640090888
 20
-13.81096926502539
 30
0.0
  0
VERTEX
  5
D4
  8
0
 10
5.125662126993213
 20
-13.86163693538993
 30
0.0
  0
VERTEX
  5
D5
  8
0
 10
5.156498817220275
 20
-13.90308831052444
 30
0.0
  0
VERTEX
  5
D6
  8
0
 10
5.23656024498989
 20
-13.95834599308733
 30
0.0
  0
VERTEX
  5
D7
  8
0
 10
5.329994798082295
 20
-13.97674994868208
 30
0.0
  0
VERTEX
  5
D8
  8
0
 10
5.423429351180048
 20
-13.95830781327672
 30
0.0
  0
VERTEX
  5
D9
  8
0
 10
5.503490778965711
 20
-13.90302722283925
 30
0.0
  0
VERTEX
  5
DA
  8
0
 10
5.534327469204809
 20
-13.86157489322348
 30
0.0
  0
VERTEX
  5
DB
  8
0
 10
5.556805956121844
 20
-13.81091581333769
 30
0.0
  0
VERTEX
  5
DC
  8
0
 10
5.569254599052135
 20
-13.75105093767788
 30
0.0
  0
VERTEX
  5
DD
  8
0
 10
5.570001757331005
 20
-13.68198122074005
 30
0.0
  0
SEQEND
  5
DE
  8
0
  0
POLYLINE
  5
2E
  8
0
 66
     1
 10
0.0
 20
0.0
 30
0.0
  0
VERTEX
  5
DF
  8
0
 10
-3.290490454136384
 20
-3.91380658155968
 30
0.0
  0
VERTEX
  5
E0
  8
0
 10
-3.263562637143586
 20
-4.438520608244075
 30
0.0
  0
VERTEX
  5
E1
  8
0
 10
-3.275680069939497
 20
-4.960938753878536
 30
0.0
  0
VERTEX
  5
E2
  8
0
 10
-3.327158372535415
 20
-5.478805862575883
 30
0.0
  0
VERTEX
  5
E3
  8
0
 10
-3.41831316494264
 20
-5.989866778448932
 30
0.0
  0
VERTEX
  5
E4
  8
0
 10
-3.549460067172468
 20
-6.491866345610503
 30
0.0
  0
VERTEX
  5
E5
  8
0
 10
-3.720914699236199
 20
-6.982549408173413
 30
0.0
  0
VERTEX
  5
E6
  8
0
 10
-3.932992681145133
 20
-7.459660810250483
 30
0.0
  0
VERTEX
  5
E7
  8
0
 10
-4.186009632910566
 20
-7.920945395954531
 30
0.0
  0
SEQEND
  5
E8
  8
0
  0
POLYLINE
  5
2F
  8
0
 66
     1
 10
0.0
 20
0.0
 30
0.0
 70
     1
  0
VERTEX
  5
E9
  8
0
 10
-6.172963174101662
 20
-0.4438055135041257
 30
0.0
  0
VERTEX
  5
EA
  8
0
 10
2.648867282842781
 20
-0.4438055135041257
 30
0.0
  0
VERTEX
  5
EB
  8
0
 10
4.863881735273337
 20
-0.4438055135041257
 30
0.0
  0
VERTEX
  5
EC
  8
0
 10
5.927297185273337
 20
-0.4438055135041257
 30
0.0
  0
VERTEX
  5
ED
  8
0
 10
6.098560069735143
 20
-0.4439955642636742
 30
0.0
  0
VERTEX
  5
EE
  8
0
 10
6.173385768780281
 20
-0.5619627857263474
 30
0.0
  0
VERTEX
  5
EF
  8
0
 10
6.150986929262052
 20
-0.6861202319286044
 30
0.0
  0
VERTEX
  5
F0
  8
0
 10
6.039155632321948
 20
-0.7107453803444024
 30
0.0
  0
VERTEX
  5
F1
  8
0
 10
1.667770961835838
 20
-0.7107453803444024
 30
0.0
  0
VERTEX
  5
F2
  8
0
 10
-2.561781541809996
 20
-0.7107453803444024
 30
0.0
  0
VERTEX
  5
F3
  8
0
 10
-4.676014791462773
 20
-0.7107453803444024
 30
0.0
  0
VERTEX
  5
F4
  8
0
 10
-5.733348617157217
 20
-0.7107453803444024
 30
0.0
  0
VERTEX
  5
F5
  8
0
 10
-6.155804305525274
 20
-0.703143349962458
 30
0.0
  0
SEQEND
  5
F6
  8
0
  0
POLYLINE
  5
30
  8
0
 66
     1
 10
0.0
 20
0.0
 30
0.0
  0
VERTEX
  5
F7
  8
0
 10
-3.770938774275274
 20
-3.913589380691626
 30
0.0
  0
VERTEX
  5
F8
  8
0
 10
-3.751653288606751
 20
-4.324189380230429
 30
0.0
  0
VERTEX
  5
F9
  8
0
 10
-3.755894220395627
 20
-4.734557755406214
 30
0.0
  0
VERTEX
  5
FA
  8
0
 10
-3.784198632725643
 20
-5.143342939880276
 30
0.0
  0
VERTEX
  5
FB
  8
0
 10
-3.837103588680544
 20
-5.549193367313905
 30
0.0
  0
VERTEX
  5
FC
  8
0
 10
-3.915146151344069
 20
-5.950757471368401
 30
0.0
  0
VERTEX
  5
FD
  8
0
 10
-4.01886338379996
 20
-6.346683685705054
 30
0.0
  0
VERTEX
  5
FE
  8
0
 10
-4.148792349131961
 20
-6.735620443985161
 30
0.0
  0
VERTEX
  5
FF
  8
0
 10
-4.305470110423812
 20
-7.116216179870011
 30
0.0
  0
SEQEND
  5
100
  8
0
  0
POLYLINE
  5
31
  8
0
 66
     1
 10
0.0
 20
0.0
 30
0.0
  0
VERTEX
  5
101
  8
0
 10
3.328488798988615
 20
-3.913589380691626
 30
0.0
  0
VERTEX
  5
102
  8
0
 10
3.30149904581079
 20
-4.43835685915214
 30
0.0
  0
VERTEX
  5
103
  8
0
 10
3.313590176939082
 20
-4.960782640754625
 30
0.0
  0
VERTEX
  5
104
  8
0
 10
3.365072721739447
 20
-5.478626841547926
 30
0.0
  0
VERTEX
  5
105
  8
0
 10
3.45625720957784
 20
-5.989649577580892
 30
0.0
  0
VERTEX
  5
106
  8
0
 10
3.587454169820216
 20
-6.491610964902376
 30
0.0
  0
VERTEX
  5
107
  8
0
 10
3.758974131832529
 20
-6.982271119561224
 30
0.0
  0
VERTEX
  5
108
  8
0
 10
3.971127624980735
 20
-7.459390157606285
 30
0.0
  0
VERTEX
  5
109
  8
0
 10
4.224225178630787
 20
-7.920728195086411
 30
0.0
  0
SEQEND
  5
10A
  8
0
  0
POLYLINE
  5
32
  8
0
 66
     1
 10
0.0
 20
0.0
 30
0.0
  0
VERTEX
  5
10B
  8
0
 10
3.808937119127504
 20
-3.913589380691626
 30
0.0
  0
VERTEX
  5
10C
  8
0
 10
3.789624059130027
 20
-4.324340826929438
 30
0.0
  0
VERTEX
  5
10D
  8
0
 10
3.793916321592785
 20
-4.734710474766578
 30
0.0
  0
VERTEX
  5
10E
  8
0
 10
3.822307699114102
 20
-5.143400209640445
 30
0.0
  0
VERTEX
  5
10F
  8
0
 10
3.875291984292298
 20
-5.549111916988442
 30
0.0
  0
VERTEX
  5
110
  8
0
 10
3.953362969725697
 20
-5.950547482247971
 30
0.0
  0
VERTEX
  5
111
  8
0
 10
4.057014448012619
 20
-6.346408790856431
 30
0.0
  0
VERTEX
  5
112
  8
0
 10
4.186740211751386
 20
-6.735397728251224
 30
0.0
  0
VERTEX
  5
113
  8
0
 10
4.343034053540323
 20
-7.116216179869753
 30
0.0
  0
SEQEND
  5
114
  8
0
  0
LINE
  5
33
  8
0
 10
3.328488798988614
 20
-3.913589380691624
 30
0.0
 11
3.328488798988614
 21
-0.7107453803444024
 31
0.0
  0
LINE
  5
34
  8
0
 10
3.808937119127505
 20
-3.913589380691624
 30
0.0
 11
3.808937119127505
 21
-0.7107453803444024
 31
0.0
  0
LINE
  5
35
  8
0
 10
5.089987838919173
 20
-8.450915514372181
 30
0.0
 11
5.089987838919173
 21
-0.7107453803444024
 31
0.0
  0
LINE
  5
36
  8
0
 10
5.57043615905806
 20
-13.68198122062218
 30
0.0
 11
5.57043615905806
 21
-0.7107453803444024
 31
0.0
  0
LINE
  5
37
  8
0
 10
-5.051989494066939
 20
-8.450915514372181
 30
0.0
 11
-5.051989494066939
 21
-0.7107453803444024
 31
0.0
  0
LINE
  5
38
  8
0
 10
-3.290490454136384
 20
-3.913589380691624
 30
0.0
 11
-3.290490454136384
 21
-0.7107453803444024
 31
0.0
  0
LINE
  5
39
  8
0
 10
-3.770938774275274
 20
-3.913589380691624
 30
0.0
 11
-3.770938774275274
 21
-0.7107453803444024
 31
0.0
  0
LINE
  5
3A
  8
0
 10
-5.532437814205828
 20
-13.68198122062218
 30
0.0
 11
-5.532437814205828
 21
-0.7107453803444024
 31
0.0
  0
LINE
  5
3B
  8
0
 10
-5.051989494066939
 20
-13.68198122062218
 30
0.0
 11
-5.051989494066939
 21
-13.09510447513607
 31
0.0
  0
LINE
  5
3C
  8
0
 10
5.089987838919173
 20
-13.68198122062218
 30
0.0
 11
5.089987838919173
 21
-13.09510447513607
 31
0.0
  0
LINE
  5
3D
  8
0
 10
-4.731618213684994
 20
-0.7107453803444024
 30
0.0
 11
-4.731618213684994
 21
-0.4438055135041239
 31
0.0
  0
LINE
  5
3E
  8
0
 10
-2.756827921323884
 20
-0.7107453803444024
 30
0.0
 11
-2.756827921323884
 21
-0.4438055135041239
 31
0.0
  0
ATTDEF
  5
3F
  8
0
  6
CONTINUOUS
 10
-0.0018
 20
-0.0165
 30
0.0
 40
0.003
  1

  3

  2
MATERIAL
 70
     2
  0
ATTDEF
  5
40
  8
0
  6
CONTINUOUS
 10
-0.0018
 20
-0.0132
 30
0.0
 40
0.003
  1
ACCESSORY
  3

  2
PRODUCT
 70
     2
  0
ATTDEF
  5
41
  8
0
  6
CONTINUOUS
 10
-0.0018
 20
-0.0098
 30
0.0
 40
0.003
  1
VESSELS
  3

  2
TRADENAME
 70
     2
  0
ATTDEF
  5
42
  8
0
  6
CONTINUOUS
 10
-0.0018
 20
-0.0065
 30
0.0
 40
0.003
  1
K-9655
  3

  2
MODELNUMBER
 70
     2
  0
LINE
  5
43
  8
0
 10
2.794826266176116
 20
-0.7107453803444024
 30
0.0
 11
2.794826266176116
 21
-0.4438055135041239
 31
0.0
  0
LINE
  5
44
  8
0
 10
4.769833759405282
 20
-0.7107453803444024
 30
0.0
 11
4.769833759405282
 21
-0.4438055135041239
 31
0.0
  0
ENDSEC
  0
EOF
