  0
SECTION
  2
HEADER
  9
$ACADVER
  1
AC1009
  9
$INSBASE
 10
233.15145371518591
 20
40.868105747727533
 30
0.0
  9
$EXTMIN
 10
225.87577476248589
 20
40.86116123929925
 30
0.0
  9
$EXTMAX
 10
240.4271326678859
 20
58.911156230009617
 30
0.0
  9
$LIMMIN
 10
0.0
 20
0.0
  9
$LIMMAX
 10
11.692913385800001
 20
8.2677165353999982
  9
$ORTHOMODE
 70
     1
  9
$REGENMODE
 70
     1
  9
$FILLMODE
 70
     1
  9
$QTEXTMODE
 70
     0
  9
$MIRRTEXT
 70
     0
  9
$DRAGMODE
 70
     2
  9
$LTSCALE
 40
0.6431102362
  9
$OSMODE
 70
  3071
  9
$ATTMODE
 70
     1
  9
$TEXTSIZE
 40
0.2
  9
$TRACEWID
 40
0.05
  9
$TEXTSTYLE
  7
STANDARD
  9
$CLAYER
  8
0
  9
$CELTYPE
  6
BYLAYER
  9
$CECOLOR
 62
   256
  9
$DIMSCALE
 40
1.0
  9
$DIMASZ
 40
0.1875
  9
$DIMEXO
 40
0.0625
  9
$DIMDLI
 40
0.4443307087
  9
$DIMRND
 40
0.0
  9
$DIMDLE
 40
0.0
  9
$DIMEXE
 40
0.125
  9
$DIMTP
 40
0.01
  9
$DIMTM
 40
0.01
  9
$DIMTXT
 40
2.0
  9
$DIMCEN
 40
0.1052362205
  9
$DIMTSZ
 40
0.0
  9
$DIMTOL
 70
     1
  9
$DIMLIM
 70
     0
  9
$DIMTIH
 70
     1
  9
$DIMTOH
 70
     1
  9
$DIMSE1
 70
     0
  9
$DIMSE2
 70
     0
  9
$DIMTAD
 70
     0
  9
$DIMZIN
 70
     0
  9
$DIMBLK
  1

  9
$DIMASO
 70
     1
  9
$DIMSHO
 70
     1
  9
$DIMPOST
  1
\X
  9
$DIMAPOST
  1

  9
$DIMALT
 70
     1
  9
$DIMALTD
 70
     2
  9
$DIMALTF
 40
25.399999999999999
  9
$DIMLFAC
 40
1.0
  9
$DIMTOFL
 70
     0
  9
$DIMTVP
 40
0.0
  9
$DIMTIX
 70
     0
  9
$DIMSOXD
 70
     0
  9
$DIMSAH
 70
     0
  9
$DIMBLK1
  1

  9
$DIMBLK2
  1

  9
$DIMSTYLE
  2
STANDARD
  9
$DIMCLRD
 70
     0
  9
$DIMCLRE
 70
     0
  9
$DIMCLRT
 70
     0
  9
$DIMTFAC
 40
1.0
  9
$DIMGAP
 40
0.09
  9
$LUNITS
 70
     2
  9
$LUPREC
 70
     4
  9
$SKETCHINC
 40
0.1
  9
$FILLETRAD
 40
0.0
  9
$AUNITS
 70
     0
  9
$AUPREC
 70
     0
  9
$MENU
  1
.
  9
$ELEVATION
 40
0.0
  9
$PELEVATION
 40
0.0
  9
$THICKNESS
 40
0.0
  9
$LIMCHECK
 70
     0
  9
$BLIPMODE
 70
     0
  9
$CHAMFERA
 40
0.0
  9
$CHAMFERB
 40
0.0
  9
$SKPOLY
 70
     0
  9
$TDCREATE
 40
2458060.4683680669
  9
$TDUPDATE
 40
2458488.8312792592
  9
$TDINDWG
 40
0.2358343403
  9
$TDUSRTIMER
 40
0.2358343403
  9
$USRTIMER
 70
     1
  9
$ANGBASE
 50
0.0
  9
$ANGDIR
 70
     0
  9
$PDMODE
 70
     0
  9
$PDSIZE
 40
0.3125
  9
$PLINEWID
 40
0.0
  9
$COORDS
 70
     1
  9
$SPLFRAME
 70
     0
  9
$SPLINETYPE
 70
     6
  9
$SPLINESEGS
 70
     8
  9
$ATTDIA
 70
     1
  9
$ATTREQ
 70
     1
  9
$HANDLING
 70
     1
  9
$HANDSEED
  5
3F83
  9
$SURFTAB1
 70
     6
  9
$SURFTAB2
 70
     6
  9
$SURFTYPE
 70
     6
  9
$SURFU
 70
     6
  9
$SURFV
 70
     6
  9
$UCSNAME
  2

  9
$UCSORG
 10
0.0
 20
0.0
 30
0.0
  9
$UCSXDIR
 10
1.0
 20
0.0
 30
0.0
  9
$UCSYDIR
 10
0.0
 20
1.0
 30
0.0
  9
$PUCSNAME
  2

  9
$PUCSORG
 10
0.0
 20
0.0
 30
0.0
  9
$PUCSXDIR
 10
1.0
 20
0.0
 30
0.0
  9
$PUCSYDIR
 10
0.0
 20
1.0
 30
0.0
  9
$USERI1
 70
     0
  9
$USERI2
 70
     0
  9
$USERI3
 70
     0
  9
$USERI4
 70
     0
  9
$USERI5
 70
     0
  9
$USERR1
 40
0.0
  9
$USERR2
 40
0.0
  9
$USERR3
 40
0.0
  9
$USERR4
 40
0.0
  9
$USERR5
 40
0.0
  9
$WORLDVIEW
 70
     1
  9
$SHADEDGE
 70
     3
  9
$SHADEDIF
 70
    70
  9
$TILEMODE
 70
     1
  9
$MAXACTVP
 70
    64
  9
$PLIMCHECK
 70
     0
  9
$PEXTMIN
 10
1.0000000000000000E+020
 20
1.0000000000000000E+020
 30
1.0000000000000000E+020
  9
$PEXTMAX
 10
-1.0000000000000000E+020
 20
-1.0000000000000000E+020
 30
-1.0000000000000000E+020
  9
$PLIMMIN
 10
0.0
 20
0.0
  9
$PLIMMAX
 10
12.0
 20
9.0
  9
$UNITMODE
 70
     0
  9
$VISRETAIN
 70
     1
  9
$PLINEGEN
 70
     0
  9
$PSLTSCALE
 70
     1
  0
ENDSEC
  0
SECTION
  2
TABLES
  0
TABLE
  2
VPORT
 70
     1
  0
VPORT
  2
*ACTIVE
 70
     0
 10
0.0
 20
0.0
 11
1.0
 21
1.0
 12
0.0
 22
0.0
 13
0.0
 23
0.0
 14
1.0
 24
1.0
 15
0.0
 25
0.0
 16
-0.0000000000000284
 26
0.0
 36
65.607168415479634
 17
233.15145371518591
 27
49.886158734654451
 37
0.0
 40
23.19010785601527
 41
2.1150837988826812
 42
50.0
 43
0.0
 44
0.0
 50
0.0
 51
0.0
 71
     0
 72
   100
 73
     1
 74
     1
 75
     0
 76
     0
 77
     0
 78
     0
  0
ENDTAB
  0
TABLE
  2
LTYPE
 70
     2
  0
LTYPE
  2
CONTINUOUS
 70
     0
  3
Solid line
 72
    65
 73
     0
 40
0.0
  0
LTYPE
  2
PHANTOM2
 70
     0
  3
___ _ _ ___ _ _ ___ _ _ ___ _ _
 72
    65
 73
     6
 40
1.25
 49
0.625
 49
-0.125
 49
0.125
 49
-0.125
 49
0.125
 49
-0.125
  0
ENDTAB
  0
TABLE
  2
LAYER
 70
     2
  0
LAYER
  2
0
 70
     0
 62
   255
  6
CONTINUOUS
  0
LAYER
  2
DEFPOINTS
 70
     0
 62
     7
  6
CONTINUOUS
  0
ENDTAB
  0
TABLE
  2
STYLE
 70
     1
  0
STYLE
  2
STANDARD
 70
     0
 40
0.0
 41
0.8
 50
0.0
 71
     0
 42
0.2
  3
txt
  4

  0
ENDTAB
  0
TABLE
  2
VIEW
 70
     0
  0
ENDTAB
  0
TABLE
  2
UCS
 70
     0
  0
ENDTAB
  0
TABLE
  2
APPID
 70
     9
  0
APPID
  2
ACAD
 70
     0
  0
APPID
  2
ACAD_MLEADERVER
 70
     0
  0
APPID
  2
ACAD_EXEMPT_FROM_CAD_STANDARDS
 70
     0
  0
APPID
  2
ACAD_NAV_VCDISPLAY
 70
     0
  0
APPID
  2
ACAECLAYERSTANDARD
 70
     0
  0
APPID
  2
ACCMTRANSPARENCY
 70
     0
  0
APPID
  2
ACAD_DSTYLE_DIMJAG
 70
     0
  0
APPID
  2
ACAD_DSTYLE_DIMTALN
 70
     0
  0
APPID
  2
ACDBATTR
 70
     0
  0
ENDTAB
  0
TABLE
  2
DIMSTYLE
 70
     1
  0
DIMSTYLE
  2
STANDARD
 70
     0
  3

  4

  5

  6

  7

 40
1.0
 41
0.1875
 42
0.0625
 43
0.38
 44
0.125
 45
0.0
 46
0.0
 47
0.01
 48
0.01
140
0.15625
141
0.09
142
0.0
143
25.399999999999999
144
1.0
145
0.0
146
1.0
147
0.09
 71
     1
 72
     0
 73
     1
 74
     1
 75
     0
 76
     0
 77
     0
 78
     4
170
     0
171
     2
172
     0
173
     0
174
     0
175
     0
176
     0
177
     0
178
     0
  0
ENDTAB
  0
ENDSEC
  0
SECTION
  2
BLOCKS
  0
BLOCK
  8
0
  2
$MODEL_SPACE
 70
     0
 10
0.0
 20
0.0
 30
0.0
  3
$MODEL_SPACE
  1

  0
ENDBLK
  5
21
  8
0
  0
BLOCK
 67
     1
  8
0
  2
$PAPER_SPACE
 70
     0
 10
0.0
 20
0.0
 30
0.0
  3
$PAPER_SPACE
  1

  0
ENDBLK
  5
1D
 67
     1
  8
0
  0
ENDSEC
  0
SECTION
  2
ENTITIES
  0
ATTDEF
  5
3930
  8
DEFPOINTS
 10
233.14574298445569
 20
40.866161239299252
 30
0.0
 40
0.001
  1
K-96057
  3

  2
MODELNUMBER
 70
     0
1001
ACDBATTR
1070
     0
1070
     1
  0
ATTDEF
  5
3931
  8
DEFPOINTS
 10
233.14574298445569
 20
40.864494572632587
 30
0.0
 40
0.001
  1
HIGHCLIFF
  3

  2
TRADENAME
 70
     0
1001
ACDBATTR
1070
     0
1070
     1
  0
ATTDEF
  5
3932
  8
DEFPOINTS
 10
233.14574298445569
 20
40.862827905965922
 30
0.0
 40
0.001
  1
BOWL
  3

  2
PRODUCT
 70
     0
1001
ACDBATTR
1070
     0
1070
     1
  0
ATTDEF
  5
3933
  8
DEFPOINTS
 10
233.14574298445569
 20
40.86116123929925
 30
0.0
 40
0.001
  1
VITREOUS CHINA
  3

  2
MATERIAL
 70
     0
1001
ACDBATTR
1070
     0
1070
     1
  0
LINE
  5
3DD1
  8
0
 10
228.28211170428591
 20
40.868105747727533
 30
0.0
 11
238.02079572608591
 21
40.868105747727533
 31
0.0
  0
LINE
  5
3DD2
  8
0
 10
228.28211170428591
 20
40.868105747727533
 30
0.0
 11
229.06272146608589
 21
50.561447272727527
 31
0.0
  0
ARC
  5
3DD3
  8
0
 10
228.82320028819981
 20
50.582111228027109
 30
0.0
 40
0.2404108851624247
 50
355.06919117864118
 51
50.750443957222473
  0
ARC
  5
3DD4
  8
0
 10
234.04554236539059
 20
57.562935849302008
 30
0.0
 40
8.4778864155740319
 50
195.4944841109801
 51
233.26934429006289
  0
LINE
  5
3DD5
  8
0
 10
225.87577476248589
 20
55.298105747527543
 30
0.0
 11
240.4271326678859
 21
55.298105747655292
 31
0.0
  0
ARC
  5
3DD6
  8
0
 10
367.13553017579659
 20
49.848063525405053
 30
0.0
 40
141.36485227824929
 50
177.0442421450733
 51
177.79052700021171
  0
ARC
  5
3DD7
  8
0
 10
226.20700727217661
 20
57.10810494071054
 30
0.0
 40
0.2500008070501747
 50
90.0009335951964
 51
173.2434428896172
  0
ARC
  5
3DD8
  8
0
 10
229.3455521494237
 20
54.540117802516782
 30
0.0
 40
3.7899610355422482
 50
264.39379219058958
 51
278.73152142308481
  0
ARC
  5
3DD9
  8
0
 10
228.32116711211961
 20
59.634016767015659
 30
0.0
 40
8.9835167907741376
 50
280.25751713811428
 51
285.33046800521367
  0
ARC
  5
3DDA
  8
0
 10
232.95534929064581
 20
41.81800573885652
 30
0.0
 40
9.4268406385244941
 50
99.280117672997363
 51
103.86541044918729
  0
ARC
  5
3DDB
  8
0
 10
232.93677165958019
 20
41.77675262295196
 30
0.0
 40
9.4645909522464464
 50
94.248053364929675
 51
99.128853639155494
  0
ARC
  5
3DDC
  8
0
 10
233.17079406167969
 20
39.370083857695121
 30
0.0
 40
11.88211078589741
 50
90.093259584739542
 51
94.513778625732115
  0
ARC
  5
3DDD
  8
0
 10
229.48456245102781
 20
55.458522321764129
 30
0.0
 40
3.4528490889174388
 50
90.639665188868591
 51
94.487206393205255
  0
ARC
  5
3DDE
  8
0
 10
229.2466119489861
 20
58.450997807329827
 30
0.0
 40
0.4509403009247276
 50
94.093276349881776
 51
118.956983116068
  0
ARC
  5
3DDF
  8
0
 10
229.16866513242829
 20
58.619435780166
 30
0.0
 40
0.2661565858656208
 50
121.831527915585
 51
144.594808624249
  0
ARC
  5
3DE0
  8
0
 10
228.15709510366619
 20
60.788912898730572
 30
0.0
 40
2.1662838844778238
 50
279.2385551863353
 51
291.51952112053272
  0
ARC
  5
3DE1
  8
0
 10
224.51229728740719
 20
81.568254987538552
 30
0.0
 40
23.262711095320501
 50
275.23411903099662
 51
279.88261835040129
  0
ARC
  5
3DE2
  8
0
 10
228.3186747216113
 20
39.17192554088146
 30
0.0
 40
19.304229454084059
 50
95.005208386424457
 51
95.843942997744577
  0
ARC
  5
3DE3
  8
0
 10
226.3657694080942
 20
58.119595084492921
 30
0.0
 40
0.2565455734934728
 50
92.823579873274355
 51
169.44085996571911
  0
LINE
  5
3DE4
  8
0
 10
226.1135681048859
 20
58.166607146127532
 30
0.0
 11
226.0146560045859
 21
57.605624559327531
 31
0.0
  0
LINE
  5
3DE5
  8
0
 10
226.0146560045859
 20
57.605624559327531
 30
0.0
 11
226.01465605298591
 21
57.590606675327528
 31
0.0
  0
ARC
  5
3DE6
  8
0
 10
226.07465462761581
 20
57.590604315741778
 30
0.0
 40
0.0599985746762487
 50
179.99774670805539
 51
269.97299964792649
  0
LINE
  5
3DE7
  8
0
 10
226.07462635358181
 20
57.530605747727527
 30
0.0
 11
231.5626149672384
 21
57.530605747727527
 31
0.0
  0
ARC
  5
3DE8
  8
0
 10
227.58123581725459
 20
207.3646876735406
 30
0.0
 40
148.99857848757711
 50
269.79963340913901
 51
270.77575463893947
  0
ARC
  5
3DE9
  8
0
 10
230.352508994027
 20
79.985174599711229
 30
0.0
 40
21.618560452628721
 50
268.00133721230651
 51
272.0994644600251
  0
ARC
  5
3DEA
  8
0
 10
231.17926242405909
 20
57.753015305970941
 30
0.0
 40
0.6290722962042814
 50
83.878684054130801
 51
93.168562397140533
  0
ARC
  5
3DEB
  8
0
 10
231.23134941289351
 20
58.083356893677973
 30
0.0
 40
0.2955245474114583
 50
10.11626064621613
 51
87.091837911039036
  0
LINE
  5
3DEC
  8
0
 10
231.52227954978591
 20
58.135264634627532
 30
0.0
 11
231.6030320266859
 21
57.602317096327532
 31
0.0
  0
LINE
  5
3DED
  8
0
 10
231.6030320266859
 20
57.602317096327532
 30
0.0
 11
231.60303255033341
 21
57.587361674394721
 31
0.0
  0
ARC
  5
3DEE
  8
0
 10
231.5436886017475
 20
57.58685302012573
 30
0.0
 40
0.0593461284578218
 50
288.59731621469729
 51
0.4910867892808292
  0
ARC
  5
3DEF
  8
0
 10
225.9314985219832
 20
49.45755529531499
 30
0.0
 40
8.9806730740057326
 50
82.780032009649645
 51
85.038782475424881
  0
ARC
  5
3DF0
  8
0
 10
226.7187492332146
 20
56.688036674403548
 30
0.0
 40
1.7165779427799179
 50
90.353453619883965
 51
92.814793078750128
  0
ARC
  5
3DF1
  8
0
 10
226.27721471925901
 20
57.34695435287383
 30
0.0
 40
0.1836516867882513
 50
3.4811612233804961
 51
90.102160492902684
  0
ARC
  5
3DF2
  8
0
 10
228.3392731872878
 20
57.313788581091167
 30
0.0
 40
0.1811474860016454
 50
89.693725055072989
 51
165.8390338051785
  0
ARC
  5
3DF3
  8
0
 10
228.22941303048589
 20
57.340605747727537
 30
0.0
 40
0.1899999999999949
 50
5.284732954533415
 51
90.0
  0
ARC
  5
3DF4
  8
0
 10
230.02682427444179
 20
57.35131801880646
 30
0.0
 40
0.0792887446710506
 50
152.92762679007629
 51
175.08902776119129
  0
ARC
  5
3DF5
  8
0
 10
230.7018113291962
 20
55.27236997075309
 30
0.0
 40
2.2426031844535159
 50
97.858793233304894
 51
109.4184933064231
  0
ARC
  5
3DF6
  8
0
 10
257.70703359654919
 20
-792.83494322803813
 30
0.0
 40
850.76735804232646
 50
91.760999291254976
 51
91.839660513297886
  0
LINE
  5
3DF7
  8
0
 10
238.02079572608591
 20
40.868105747727533
 30
0.0
 11
237.2401859642859
 21
50.561447272727527
 31
0.0
  0
ARC
  5
3DF8
  8
0
 10
237.47970714217209
 20
50.582111228027109
 30
0.0
 40
0.2404108851624247
 50
129.2495560427775
 51
184.93080882135851
  0
ARC
  5
3DF9
  8
0
 10
232.25736506521309
 20
57.562935849079501
 30
0.0
 40
8.4778864152570463
 50
306.73065570957971
 51
344.50551589088309
  0
ARC
  5
3DFA
  8
0
 10
99.16737713782058
 20
49.848063519760082
 30
0.0
 40
141.36485239513979
 50
2.2094730003020149
 51
2.9557578547713921
  0
ARC
  5
3DFB
  8
0
 10
240.09590015819529
 20
57.10810494071054
 30
0.0
 40
0.2500008070501747
 50
6.7565571103827784
 51
89.999066404800317
  0
ARC
  5
3DFC
  8
0
 10
236.95735528094809
 20
54.540117802516782
 30
0.0
 40
3.7899610355422482
 50
261.2684785769153
 51
275.60620780941042
  0
ARC
  5
3DFD
  8
0
 10
237.98174031825229
 20
59.634016767015659
 30
0.0
 40
8.9835167907741376
 50
254.6695319947863
 51
259.74248286188572
  0
ARC
  5
3DFE
  8
0
 10
233.34755813972609
 20
41.81800573885652
 30
0.0
 40
9.4268406385244941
 50
76.134589550809352
 51
80.719882327002637
  0
ARC
  5
3DFF
  8
0
 10
233.3661357707916
 20
41.77675262295196
 30
0.0
 40
9.4645909522464464
 50
80.871146360841195
 51
85.751946635070325
  0
ARC
  5
3E00
  8
0
 10
233.1321133686921
 20
39.370083857695121
 30
0.0
 40
11.88211078589741
 50
85.486221374271153
 51
89.906740415260458
  0
ARC
  5
3E01
  8
0
 10
236.818344979344
 20
55.458522321764221
 30
0.0
 40
3.4528490889173531
 50
85.51279360679473
 51
89.360334811134663
  0
ARC
  5
3E02
  8
0
 10
237.05629548138569
 20
58.450997807329827
 30
0.0
 40
0.4509403009247276
 50
61.043016883932012
 51
85.906723650114955
  0
ARC
  5
3E03
  8
0
 10
237.1342422979435
 20
58.619435780166
 30
0.0
 40
0.2661565858656208
 50
35.405191375751002
 51
58.168472084414958
  0
ARC
  5
3E04
  8
0
 10
238.1458123267056
 20
60.788912898730572
 30
0.0
 40
2.1662838844778238
 50
248.48047887946731
 51
260.76144481366799
  0
ARC
  5
3E05
  8
0
 10
241.7906101429646
 20
81.568254987538552
 30
0.0
 40
23.262711095320501
 50
260.11738164959542
 51
264.76588096900338
  0
ARC
  5
3E06
  8
0
 10
237.98423270876049
 20
39.17192554088146
 30
0.0
 40
19.304229454084059
 50
84.156057002258734
 51
84.994791613575543
  0
ARC
  5
3E07
  8
0
 10
239.93713802227759
 20
58.119595084492921
 30
0.0
 40
0.2565455734934728
 50
10.55914003428091
 51
87.17642012672566
  0
LINE
  5
3E08
  8
0
 10
240.189339325486
 20
58.166607146127532
 30
0.0
 11
240.28825142578589
 21
57.605624559327531
 31
0.0
  0
LINE
  5
3E09
  8
0
 10
240.28825142578589
 20
57.605624559327531
 30
0.0
 11
240.28825137738599
 21
57.590606675327528
 31
0.0
  0
ARC
  5
3E0A
  8
0
 10
240.22825280275609
 20
57.590604315741778
 30
0.0
 40
0.0599985746762487
 50
270.0270003520734
 51
0.0022532919445884
  0
LINE
  5
3E0B
  8
0
 10
240.22828107679001
 20
57.530605747727527
 30
0.0
 11
239.48011393407941
 21
57.530605747727527
 31
0.0
  0
LINE
  5
3E0C
  8
0
 10
237.67509768519631
 20
57.530605747727527
 30
0.0
 11
234.7402924631335
 21
57.530605747727527
 31
0.0
  0
ARC
  5
3E0D
  8
0
 10
238.72167161311719
 20
207.3646876735406
 30
0.0
 40
148.99857848757711
 50
269.22424536106053
 51
270.2003665908577
  0
ARC
  5
3E0E
  8
0
 10
235.9503984363449
 20
79.985174599711229
 30
0.0
 40
21.618560452628721
 50
267.9005355399749
 51
271.99866278769019
  0
ARC
  5
3E0F
  8
0
 10
235.12364500631281
 20
57.753015305970941
 30
0.0
 40
0.6290722962042814
 50
86.831437602859467
 51
96.121315945865931
  0
ARC
  5
3E10
  8
0
 10
235.0715580174784
 20
58.083356893677973
 30
0.0
 40
0.2955245474114583
 50
92.908162088960964
 51
169.88373935378391
  0
LINE
  5
3E11
  8
0
 10
234.780627880586
 20
58.135264634627532
 30
0.0
 11
234.69987540368589
 21
57.602317096327532
 31
0.0
  0
LINE
  5
3E12
  8
0
 10
234.69987540368589
 20
57.602317096327532
 30
0.0
 11
234.69987488003841
 21
57.587361674394721
 31
0.0
  0
ARC
  5
3E13
  8
0
 10
234.7592188286244
 20
57.58685302012573
 30
0.0
 40
0.0593461284578218
 50
179.5089132107191
 51
251.40268378530271
  0
ARC
  5
3E14
  8
0
 10
240.37140890838859
 20
49.45755529531499
 30
0.0
 40
8.9806730740057326
 50
94.96121752457185
 51
97.219967990347044
  0
ARC
  5
3E15
  8
0
 10
239.58415819715731
 20
56.688036674403548
 30
0.0
 40
1.7165779427799179
 50
87.185206921249886
 51
89.64654638011605
  0
ARC
  5
3E16
  8
0
 10
240.0256927111129
 20
57.34695435287383
 30
0.0
 40
0.1836516867882513
 50
89.897839507097345
 51
176.5188387766195
  0
ARC
  5
3E17
  8
0
 10
237.96363424308399
 20
57.313788581091167
 30
0.0
 40
0.1811474860016454
 50
14.16096619482154
 51
90.306274944926983
  0
ARC
  5
3E18
  8
0
 10
238.0734943998859
 20
57.340605747727537
 30
0.0
 40
0.1899999999999949
 50
118.7973598037721
 51
174.71526704546631
  0
ARC
  5
3E19
  8
0
 10
236.27608315593011
 20
57.35131801880646
 30
0.0
 40
0.0792887446710506
 50
4.910972238808414
 51
27.07237320992369
  0
ARC
  5
3E1A
  8
0
 10
235.60109610117561
 20
55.27236997075309
 30
0.0
 40
2.2426031844535159
 50
70.581506693576856
 51
82.141206766691823
  0
ARC
  5
3E1B
  8
0
 10
208.59587383382271
 20
-792.83494322803813
 30
0.0
 40
850.76735804232646
 50
88.160339486702114
 51
88.239000708741784
  0
LINE
  5
3E1C
  8
0
 10
226.20700319858591
 20
57.358105747727521
 30
0.0
 11
238.55884057960651
 21
57.358105747727521
 31
0.0
  0
LINE
  5
3E1D
  8
0
 10
239.4548935561898
 20
57.358105747727521
 30
0.0
 11
240.09590423178591
 21
57.358105747727521
 31
0.0
  0
LINE
  5
3E1E
  8
0
 10
229.44601473421559
 20
58.911156230009617
 30
0.0
 11
236.85689269615631
 21
58.911156230009617
 31
0.0
  0
ARC
  5
3E1F
  8
0
 10
239.12096303904571
 20
57.589535570683189
 30
0.0
 40
0.2576288524249304
 50
338.89118734183438
 51
63.894597378960917
  0
ARC
  5
3E20
  8
0
 10
239.18373319761079
 20
57.627588761374199
 30
0.0
 40
0.2205664545083244
 50
262.04083731452891
 51
323.61696640475139
  0
ARC
  5
3E21
  8
0
 10
239.69435676950209
 20
60.083622708991037
 30
0.0
 40
2.7286772530582848
 50
245.1419751135717
 51
258.5609757513987
  0
ARC
  5
3E22
  8
0
 10
237.2000799461718
 20
54.23000571579724
 30
0.0
 40
3.6365046218968282
 50
68.255332033613769
 51
78.336245939673404
  0
LINE
  5
3E23
  8
0
 10
237.9352640405813
 20
57.791419790628261
 30
0.0
 11
237.76174772012149
 21
57.823222634021683
 31
0.0
  0
ARC
  5
3E24
  8
0
 10
237.85149156535331
 20
58.043732621738172
 30
0.0
 40
0.2380727041046922
 50
185.40956788733521
 51
247.854506019669
  0
LINE
  5
3E25
  8
0
 10
237.61447918101419
 20
58.021288421827528
 30
0.0
 11
239.050314637887
 21
58.021287973227537
 31
0.0
  0
ARC
  5
3E26
  8
0
 10
239.04883856590661
 20
57.888784529662139
 30
0.0
 40
0.1325116649400318
 50
52.158764186585728
 51
89.361758499906273
  0
ARC
  5
3E27
  8
0
 10
238.98952631530571
 20
57.790791865976551
 30
0.0
 40
0.2466420153478132
 50
7.0076603768414403
 51
55.244410396610732
  0
ARC
  5
3E28
  8
0
 10
239.32162806308671
 20
57.9913343278455
 30
0.0
 40
0.1915083036248104
 50
179.37275938896181
 51
242.87931138448309
  0
ARC
  5
3E29
  8
0
 10
239.10109819478541
 20
57.453427245171788
 30
0.0
 40
0.3908620266620716
 50
22.919420962360629
 51
70.070962746457667
  0
ARC
  5
3E2A
  8
0
 10
239.13308277037339
 20
57.482611289795891
 30
0.0
 40
0.3503342640611056
 50
346.46644187511748
 51
20.559747254197848
  0
ARC
  5
3E2B
  8
0
 10
239.20445898304149
 20
57.494218718051712
 30
0.0
 40
0.2850337104948101
 50
294.86420865153673
 51
340.83133661370113
  0
ARC
  5
3E2C
  8
0
 10
239.1308242999369
 20
57.763470875609812
 30
0.0
 40
0.5622074031595665
 50
249.87020439987029
 51
290.12979560012963
  0
ARC
  5
3E2D
  8
0
 10
225.54348144500079
 20
16.497203531167941
 30
0.0
 40
42.883713730902677
 50
71.800310731288931
 51
72.680316429857029
  0
ARC
  5
3E2E
  8
0
 10
237.64752952926389
 20
55.154996788500164
 30
0.0
 40
2.3757689135062878
 50
73.806588304740927
 51
89.335131281244259
  0
ARC
  5
3E2F
  8
0
 10
237.3336144227905
 20
57.585300850501142
 30
0.0
 40
0.055289839707343
 50
278.4113845410314
 51
5.5054503904720589
  0
LINE
  5
3E30
  8
0
 10
237.38864921468701
 20
57.590605382127542
 30
0.0
 11
237.38769801188701
 21
57.605606592727533
 31
0.0
  0
LINE
  5
3E31
  8
0
 10
237.38769801188701
 20
57.605606592727533
 30
0.0
 11
237.35995332988699
 21
57.745240161627542
 31
0.0
  0
ARC
  5
3E32
  8
0
 10
237.72690127528369
 20
57.696413738848747
 30
0.0
 40
0.370182136511498
 50
127.6200703864013
 51
172.42069397449779
  0
ARC
  5
3E33
  8
0
 10
237.6100936362466
 20
57.817589679351457
 30
0.0
 40
0.2037459464363471
 50
88.766637485179245
 51
122.3957996540172
  0
ENDSEC
  0
EOF
