  0
SECTION
  2
HEADER
  9
$ACADVER
  1
AC1009
  9
$INSBASE
 10
4696.8467437512681499
 20
246.7742659138021111
 30
0.0
  9
$EXTMIN
 10
4696.3941878068180813
 20
204.706973180267596
 30
0.0
  9
$EXTMAX
 10
4697.2994618386319416
 20
246.7787003069788057
 30
0.0
  9
$LIMMIN
 10
0.0
 20
0.0
  9
$LIMMAX
 10
11.6929133858000007
 20
8.2677165353999982
  9
$ORTHOMODE
 70
     0
  9
$REGENMODE
 70
     1
  9
$FILLMODE
 70
     1
  9
$QTEXTMODE
 70
     0
  9
$MIRRTEXT
 70
     0
  9
$DRAGMODE
 70
     2
  9
$LTSCALE
 40
0.6431102362
  9
$OSMODE
 70
   575
  9
$ATTMODE
 70
     1
  9
$TEXTSIZE
 40
0.2
  9
$TRACEWID
 40
0.05
  9
$TEXTSTYLE
  7
STANDARD
  9
$CLAYER
  8
0
  9
$CELTYPE
  6
BYLAYER
  9
$CECOLOR
 62
   256
  9
$DIMSCALE
 40
1.0
  9
$DIMASZ
 40
0.1875
  9
$DIMEXO
 40
0.0625
  9
$DIMDLI
 40
0.4443307087
  9
$DIMRND
 40
0.0
  9
$DIMDLE
 40
0.0
  9
$DIMEXE
 40
0.125
  9
$DIMTP
 40
0.01
  9
$DIMTM
 40
0.01
  9
$DIMTXT
 40
2.0
  9
$DIMCEN
 40
0.1052362205
  9
$DIMTSZ
 40
0.0
  9
$DIMTOL
 70
     1
  9
$DIMLIM
 70
     0
  9
$DIMTIH
 70
     1
  9
$DIMTOH
 70
     1
  9
$DIMSE1
 70
     0
  9
$DIMSE2
 70
     0
  9
$DIMTAD
 70
     0
  9
$DIMZIN
 70
     0
  9
$DIMBLK
  1

  9
$DIMASO
 70
     1
  9
$DIMSHO
 70
     1
  9
$DIMPOST
  1
\X
  9
$DIMAPOST
  1

  9
$DIMALT
 70
     1
  9
$DIMALTD
 70
     2
  9
$DIMALTF
 40
25.3999999999999986
  9
$DIMLFAC
 40
1.0
  9
$DIMTOFL
 70
     0
  9
$DIMTVP
 40
0.0
  9
$DIMTIX
 70
     0
  9
$DIMSOXD
 70
     0
  9
$DIMSAH
 70
     0
  9
$DIMBLK1
  1

  9
$DIMBLK2
  1

  9
$DIMSTYLE
  2
STANDARD
  9
$DIMCLRD
 70
     0
  9
$DIMCLRE
 70
     0
  9
$DIMCLRT
 70
     0
  9
$DIMTFAC
 40
1.0
  9
$DIMGAP
 40
0.09
  9
$LUNITS
 70
     2
  9
$LUPREC
 70
     4
  9
$SKETCHINC
 40
0.1
  9
$FILLETRAD
 40
0.0
  9
$AUNITS
 70
     0
  9
$AUPREC
 70
     0
  9
$MENU
  1
.
  9
$ELEVATION
 40
0.0
  9
$PELEVATION
 40
0.0
  9
$THICKNESS
 40
0.0
  9
$LIMCHECK
 70
     0
  9
$BLIPMODE
 70
     0
  9
$CHAMFERA
 40
0.0
  9
$CHAMFERB
 40
0.0
  9
$SKPOLY
 70
     0
  9
$TDCREATE
 40
2458060.468368056230247
  9
$TDUPDATE
 40
2459579.8228819449432194
  9
$TDINDWG
 40
0.4143126157
  9
$TDUSRTIMER
 40
0.4143126157
  9
$USRTIMER
 70
     1
  9
$ANGBASE
 50
0.0
  9
$ANGDIR
 70
     0
  9
$PDMODE
 70
     0
  9
$PDSIZE
 40
0.3125
  9
$PLINEWID
 40
0.0
  9
$COORDS
 70
     1
  9
$SPLFRAME
 70
     0
  9
$SPLINETYPE
 70
     6
  9
$SPLINESEGS
 70
     8
  9
$ATTDIA
 70
     1
  9
$ATTREQ
 70
     1
  9
$HANDLING
 70
     1
  9
$HANDSEED
  5
A9BD
  9
$SURFTAB1
 70
     6
  9
$SURFTAB2
 70
     6
  9
$SURFTYPE
 70
     6
  9
$SURFU
 70
     6
  9
$SURFV
 70
     6
  9
$UCSNAME
  2

  9
$UCSORG
 10
0.0
 20
0.0
 30
0.0
  9
$UCSXDIR
 10
1.0
 20
0.0
 30
0.0
  9
$UCSYDIR
 10
0.0
 20
1.0
 30
0.0
  9
$PUCSNAME
  2

  9
$PUCSORG
 10
0.0
 20
0.0
 30
0.0
  9
$PUCSXDIR
 10
1.0
 20
0.0
 30
0.0
  9
$PUCSYDIR
 10
0.0
 20
1.0
 30
0.0
  9
$USERI1
 70
     0
  9
$USERI2
 70
     0
  9
$USERI3
 70
     0
  9
$USERI4
 70
     0
  9
$USERI5
 70
     0
  9
$USERR1
 40
0.0
  9
$USERR2
 40
0.0
  9
$USERR3
 40
0.0
  9
$USERR4
 40
0.0
  9
$USERR5
 40
0.0
  9
$WORLDVIEW
 70
     1
  9
$SHADEDGE
 70
     3
  9
$SHADEDIF
 70
    70
  9
$TILEMODE
 70
     1
  9
$MAXACTVP
 70
    64
  9
$PLIMCHECK
 70
     0
  9
$PEXTMIN
 10
1.0000000000000000E+20
 20
1.0000000000000000E+20
 30
1.0000000000000000E+20
  9
$PEXTMAX
 10
-1.0000000000000000E+20
 20
-1.0000000000000000E+20
 30
-1.0000000000000000E+20
  9
$PLIMMIN
 10
0.0
 20
0.0
  9
$PLIMMAX
 10
12.0
 20
9.0
  9
$UNITMODE
 70
     0
  9
$VISRETAIN
 70
     1
  9
$PLINEGEN
 70
     0
  9
$PSLTSCALE
 70
     1
  0
ENDSEC
  0
SECTION
  2
TABLES
  0
TABLE
  2
VPORT
 70
     1
  0
VPORT
  2
*ACTIVE
 70
     0
 10
0.0
 20
0.0
 11
1.0
 21
1.0
 12
893.3027574314271533
 22
99.7475745393242335
 13
0.0
 23
0.0
 14
1.0
 24
1.0
 15
0.0
 25
0.0
 16
0.0
 26
0.0
 36
17.1152628219792007
 17
3803.5440673828129547
 27
125.9952621967499056
 37
0.0
 40
59.4658619744798287
 41
2.469551282051281
 42
50.0
 43
0.0
 44
0.0
 50
0.0
 51
0.0
 71
     0
 72
   100
 73
     1
 74
     1
 75
     0
 76
     0
 77
     0
 78
     0
  0
ENDTAB
  0
TABLE
  2
LTYPE
 70
     2
  0
LTYPE
  2
CONTINUOUS
 70
     0
  3
Solid line
 72
    65
 73
     0
 40
0.0
  0
LTYPE
  2
PHANTOM2
 70
     0
  3
___ _ _ ___ _ _ ___ _ _ ___ _ _
 72
    65
 73
     6
 40
1.25
 49
0.625
 49
-0.125
 49
0.125
 49
-0.125
 49
0.125
 49
-0.125
  0
ENDTAB
  0
TABLE
  2
LAYER
 70
     2
  0
LAYER
  2
0
 70
     0
 62
   255
  6
CONTINUOUS
  0
LAYER
  2
DEFPOINTS
 70
     0
 62
     7
  6
CONTINUOUS
  0
ENDTAB
  0
TABLE
  2
STYLE
 70
     1
  0
STYLE
  2
STANDARD
 70
     0
 40
0.0
 41
0.8
 50
0.0
 71
     0
 42
0.2
  3
txt
  4

  0
ENDTAB
  0
TABLE
  2
VIEW
 70
     0
  0
ENDTAB
  0
TABLE
  2
UCS
 70
     0
  0
ENDTAB
  0
TABLE
  2
APPID
 70
     9
  0
APPID
  2
ACAD
 70
     0
  0
APPID
  2
ACAD_MLEADERVER
 70
     0
  0
APPID
  2
ACAD_EXEMPT_FROM_CAD_STANDARDS
 70
     0
  0
APPID
  2
ACAD_NAV_VCDISPLAY
 70
     0
  0
APPID
  2
ACAECLAYERSTANDARD
 70
     0
  0
APPID
  2
ACCMTRANSPARENCY
 70
     0
  0
APPID
  2
ACAD_DSTYLE_DIMJAG
 70
     0
  0
APPID
  2
ACAD_DSTYLE_DIMTALN
 70
     0
  0
APPID
  2
ACDBATTR
 70
     0
  0
ENDTAB
  0
TABLE
  2
DIMSTYLE
 70
     1
  0
DIMSTYLE
  2
STANDARD
 70
     0
  3

  4

  5

  6

  7

 40
1.0
 41
0.1875
 42
0.0625
 43
0.38
 44
0.125
 45
0.0
 46
0.0
 47
0.01
 48
0.01
140
0.15625
141
0.09
142
0.0
143
25.3999999999999986
144
1.0
145
0.0
146
1.0
147
0.09
 71
     1
 72
     0
 73
     1
 74
     1
 75
     0
 76
     0
 77
     0
 78
     4
170
     0
171
     2
172
     0
173
     0
174
     0
175
     0
176
     0
177
     0
178
     0
  0
ENDTAB
  0
ENDSEC
  0
SECTION
  2
BLOCKS
  0
BLOCK
  8
0
  2
$MODEL_SPACE
 70
     0
 10
0.0
 20
0.0
 30
0.0
  3
$MODEL_SPACE
  1

  0
ENDBLK
  5
21
  8
0
  0
BLOCK
 67
     1
  8
0
  2
$PAPER_SPACE
 70
     0
 10
0.0
 20
0.0
 30
0.0
  3
$PAPER_SPACE
  1

  0
ENDBLK
  5
1D
 67
     1
  8
0
  0
BLOCK
  8
0
  2
_FILLED
 70
     0
 10
0.0
 20
0.0
 30
0.0
  3
_FILLED
  1

  0
SOLID
  5
A8E5
  8
0
  6
BYBLOCK
 62
     0
 10
0.0
 20
0.0
 30
0.0
 11
-1.0
 21
0.1666666667
 31
0.0
 12
-1.0
 22
-0.1666666667
 32
0.0
 13
-1.0
 23
-0.1666666667
 33
0.0
  0
ENDBLK
  5
A8E6
  8
0
  6
BYBLOCK
 62
     0
  0
ENDSEC
  0
SECTION
  2
ENTITIES
  0
ATTDEF
  5
3930
  8
DEFPOINTS
 10
4696.8467338221471437
 20
246.7777003069786872
 30
0.0
 40
0.001
  1
K-9514
  3

  2
MODELNUMBER
 70
     0
1001
ACDBATTR
1070
     0
1070
     1
  0
ATTDEF
  5
3931
  8
DEFPOINTS
 10
4696.8467338221471437
 20
246.7760336403121073
 30
0.0
 40
0.001
  1
MASTERSHOWER
  3

  2
TRADENAME
 70
     0
1001
ACDBATTR
1070
     0
1070
     1
  0
ATTDEF
  5
3932
  8
DEFPOINTS
 10
4696.8467338221471437
 20
246.7743669736454137
 30
0.0
 40
0.001
  1
SHOWER HOSE
  3

  2
PRODUCT
 70
     0
1001
ACDBATTR
1070
     0
1070
     1
  0
LINE
  5
A912
  8
0
 10
4696.5766161026976988
 20
245.3572659138021095
 30
0.0
 11
4696.5764948299756725
 21
218.6073653809039001
 31
0.0
  0
LINE
  5
A913
  8
0
 10
4696.5764948299756725
 20
218.6073653809039001
 30
0.0
 11
4696.5768678615031604
 21
204.9771672858796023
 31
0.0
  0
LINE
  5
A914
  8
0
 10
4697.1168979033982396
 20
245.3572659138021095
 30
0.0
 11
4697.1167766306762132
 21
218.6073653809039001
 31
0.0
  0
LINE
  5
A915
  8
0
 10
4697.1167766306762132
 20
218.6073653809039001
 30
0.0
 11
4697.1168757286313848
 21
204.9769771473056892
 31
0.0
  0
ARC
  5
A916
  8
0
 10
4696.8468717615933201
 20
204.9769771473056892
 30
0.0
 40
0.2700039670380931
 50
179.9596519322846007
 51
0.0000000006774327
  0
LINE
  5
A917
  8
0
 10
4696.438083906617976
 20
245.5542659138021122
 30
0.0
 11
4696.3941957245178855
 21
246.7618300689020998
 31
0.0
  0
LINE
  5
A918
  8
0
 10
4696.4727437513183759
 20
245.5542659138021122
 30
0.0
 11
4696.4727437513183759
 21
245.3585986614021124
 31
0.0
  0
LINE
  5
A919
  8
0
 10
4697.2207437513179684
 20
245.3585986613790908
 30
0.0
 11
4697.2207437513179684
 21
245.5542659138021122
 31
0.0
  0
LINE
  5
A91A
  8
0
 10
4697.2554035960192778
 20
245.5542659138021122
 30
0.0
 11
4697.2992917781175493
 21
246.7618300689020998
 31
0.0
  0
LINE
  5
A91B
  8
0
 10
4696.4828523898177082
 20
245.3572659138021095
 30
0.0
 11
4697.2106351128186361
 21
245.3572659138021095
 31
0.0
  0
LINE
  5
A91C
  8
0
 10
4696.4727437513183759
 20
245.394849417902094
 30
0.0
 11
4697.2207437513179684
 21
245.394849417902094
 31
0.0
  0
LINE
  5
A91D
  8
0
 10
4696.4380839065170221
 20
245.5542659138021122
 30
0.0
 11
4696.4727437513183759
 21
245.5542659138021122
 31
0.0
  0
LINE
  5
A91E
  8
0
 10
4697.2207437513179684
 20
245.5542659138021122
 30
0.0
 11
4697.2554035960192778
 21
245.5542659138021122
 31
0.0
  0
LINE
  5
A91F
  8
0
 10
4697.2872996957194118
 20
246.7742659138021111
 30
0.0
 11
4696.406187806816888
 21
246.7742659138021111
 31
0.0
  0
ARC
  5
A920
  8
0
 10
4697.2106354332181581
 20
245.3962659138020967
 30
0.0
 40
0.039
 50
269.9995294178817176
 51
285.0218652590506281
  0
ARC
  5
A921
  8
0
 10
4696.4828520694181861
 20
245.3962659138020967
 30
0.0
 40
0.039
 50
254.9781346764744114
 51
270.0004705821183961
  0
ARC
  5
A922
  8
0
 10
4697.2872996957194118
 20
246.7622659138021106
 30
0.0
 40
0.012
 50
357.9185360255995079
 51
90.0
  0
ARC
  5
A923
  8
0
 10
4696.406187806816888
 20
246.7622659138021106
 30
0.0
 40
0.012
 50
90.0
 51
182.0814639743989005
  0
LINE
  5
A924
  8
0
 10
4696.5569058942319316
 20
217.1168653809039881
 30
0.0
 11
4696.5765356220090325
 21
217.1168653809039881
 31
0.0
  0
LINE
  5
A925
  8
0
 10
4696.4830145327323407
 20
217.1903653809038985
 30
0.0
 11
4696.5765336104595917
 21
217.1903653809038985
 31
0.0
  0
LINE
  5
A926
  8
0
 10
4696.4729058942320989
 20
217.2279488850039968
 30
0.0
 11
4696.5765325818738347
 21
217.2279488850039968
 31
0.0
  0
LINE
  5
A927
  8
0
 10
4696.4382460495307896
 20
217.3873653809039013
 30
0.0
 11
4696.4729058942320989
 21
217.3873653809039013
 31
0.0
  0
LINE
  5
A928
  8
0
 10
4697.2209058942316915
 20
217.3873653809039013
 30
0.0
 11
4697.2555657389320913
 21
217.3873653809039013
 31
0.0
  0
LINE
  5
A929
  8
0
 10
4697.2874612101322782
 20
218.6073653809039001
 30
0.0
 11
4697.1167766306762132
 21
218.6073653809039001
 31
0.0
  0
LINE
  5
A92A
  8
0
 10
4696.4382460495307896
 20
217.3873653809039013
 30
0.0
 11
4696.3943578683320084
 21
218.5949295118039117
 31
0.0
  0
LINE
  5
A92B
  8
0
 10
4696.4729058942320989
 20
217.3873653809039013
 30
0.0
 11
4696.4729058942320989
 21
217.1916981284794019
 31
0.0
  0
LINE
  5
A92C
  8
0
 10
4696.5569058942319316
 20
217.1903653809038985
 30
0.0
 11
4696.5569058942319316
 21
217.1168653809039881
 31
0.0
  0
LINE
  5
A92D
  8
0
 10
4697.1369058942318588
 20
217.1903653809038985
 30
0.0
 11
4697.1369058942318588
 21
217.1168653809039881
 31
0.0
  0
LINE
  5
A92E
  8
0
 10
4697.2209058942316915
 20
217.1916981284794019
 30
0.0
 11
4697.2209058942316915
 21
217.3873653809039013
 31
0.0
  0
LINE
  5
A92F
  8
0
 10
4697.2555657389320913
 20
217.3873653809039013
 30
0.0
 11
4697.2994539201308726
 21
218.5949295118039117
 31
0.0
  0
ARC
  5
A930
  8
0
 10
4697.2107975761318812
 20
217.2293653809038858
 30
0.0
 40
0.039
 50
269.9995294178817176
 51
285.0218652584576944
  0
ARC
  5
A931
  8
0
 10
4696.4830142123319092
 20
217.2293653809038858
 30
0.0
 40
0.039
 50
254.9781347415392929
 51
270.0004705821183961
  0
ARC
  5
A932
  8
0
 10
4697.2874618386322254
 20
218.5953653809038997
 30
0.0
 40
0.012
 50
357.9184201868991977
 51
90.0030010072809432
  0
ARC
  5
A933
  8
0
 10
4696.4063499497324301
 20
218.5953653809038997
 30
0.0
 40
0.012
 50
89.9969989927190426
 51
182.0815798131008023
  0
LINE
  5
A934
  8
0
 10
4697.1167874671609752
 20
217.1168653809039881
 30
0.0
 11
4697.1369058942318588
 21
217.1168653809039881
 31
0.0
  0
LINE
  5
A935
  8
0
 10
4697.1167869327891822
 20
217.1903653809038985
 30
0.0
 11
4697.2107972557323592
 21
217.1903653809038985
 31
0.0
  0
LINE
  5
A936
  8
0
 10
4697.116786659544232
 20
217.2279488850039968
 30
0.0
 11
4697.2209058942316915
 21
217.2279488850039968
 31
0.0
  0
LINE
  5
A937
  8
0
 10
4696.5764948299756725
 20
218.6073653809039001
 30
0.0
 11
4696.4063505783324217
 21
218.6073653809039001
 31
0.0
  0
ENDSEC
  0
EOF
