  0
SECTION
  2
HEADER
  9
$ACADVER
  1
AC1009
  9
$INSBASE
 10
4728.5840299486999356
 20
244.9062631160053058
 30
0.0
  9
$EXTMIN
 10
4717.5227319296209316
 20
202.8299243452350993
 30
-0.0015258207003583
  9
$EXTMAX
 10
4729.38609573008398
 20
244.9108872833178054
 30
0.0000000349246037
  9
$LIMMIN
 10
0.0
 20
0.0
  9
$LIMMAX
 10
11.6929133858000007
 20
8.2677165353999982
  9
$ORTHOMODE
 70
     0
  9
$REGENMODE
 70
     1
  9
$FILLMODE
 70
     1
  9
$QTEXTMODE
 70
     0
  9
$MIRRTEXT
 70
     0
  9
$DRAGMODE
 70
     2
  9
$LTSCALE
 40
0.6431102362
  9
$OSMODE
 70
   575
  9
$ATTMODE
 70
     1
  9
$TEXTSIZE
 40
0.2
  9
$TRACEWID
 40
0.05
  9
$TEXTSTYLE
  7
STANDARD
  9
$CLAYER
  8
0
  9
$CELTYPE
  6
BYLAYER
  9
$CECOLOR
 62
   256
  9
$DIMSCALE
 40
1.0
  9
$DIMASZ
 40
0.1875
  9
$DIMEXO
 40
0.0625
  9
$DIMDLI
 40
0.4443307087
  9
$DIMRND
 40
0.0
  9
$DIMDLE
 40
0.0
  9
$DIMEXE
 40
0.125
  9
$DIMTP
 40
0.01
  9
$DIMTM
 40
0.01
  9
$DIMTXT
 40
2.0
  9
$DIMCEN
 40
0.1052362205
  9
$DIMTSZ
 40
0.0
  9
$DIMTOL
 70
     1
  9
$DIMLIM
 70
     0
  9
$DIMTIH
 70
     1
  9
$DIMTOH
 70
     1
  9
$DIMSE1
 70
     0
  9
$DIMSE2
 70
     0
  9
$DIMTAD
 70
     0
  9
$DIMZIN
 70
     0
  9
$DIMBLK
  1

  9
$DIMASO
 70
     1
  9
$DIMSHO
 70
     1
  9
$DIMPOST
  1
\X
  9
$DIMAPOST
  1

  9
$DIMALT
 70
     1
  9
$DIMALTD
 70
     2
  9
$DIMALTF
 40
25.3999999999999986
  9
$DIMLFAC
 40
1.0
  9
$DIMTOFL
 70
     0
  9
$DIMTVP
 40
0.0
  9
$DIMTIX
 70
     0
  9
$DIMSOXD
 70
     0
  9
$DIMSAH
 70
     0
  9
$DIMBLK1
  1

  9
$DIMBLK2
  1

  9
$DIMSTYLE
  2
STANDARD
  9
$DIMCLRD
 70
     0
  9
$DIMCLRE
 70
     0
  9
$DIMCLRT
 70
     0
  9
$DIMTFAC
 40
1.0
  9
$DIMGAP
 40
0.09
  9
$LUNITS
 70
     2
  9
$LUPREC
 70
     4
  9
$SKETCHINC
 40
0.1
  9
$FILLETRAD
 40
0.0
  9
$AUNITS
 70
     0
  9
$AUPREC
 70
     0
  9
$MENU
  1
.
  9
$ELEVATION
 40
0.0
  9
$PELEVATION
 40
0.0
  9
$THICKNESS
 40
0.0
  9
$LIMCHECK
 70
     0
  9
$BLIPMODE
 70
     0
  9
$CHAMFERA
 40
0.0
  9
$CHAMFERB
 40
0.0
  9
$SKPOLY
 70
     0
  9
$TDCREATE
 40
2458060.468368056230247
  9
$TDUPDATE
 40
2459579.8211342599242926
  9
$TDINDWG
 40
0.4138265046
  9
$TDUSRTIMER
 40
0.4138265046
  9
$USRTIMER
 70
     1
  9
$ANGBASE
 50
0.0
  9
$ANGDIR
 70
     0
  9
$PDMODE
 70
     0
  9
$PDSIZE
 40
0.3125
  9
$PLINEWID
 40
0.0
  9
$COORDS
 70
     1
  9
$SPLFRAME
 70
     0
  9
$SPLINETYPE
 70
     6
  9
$SPLINESEGS
 70
     8
  9
$ATTDIA
 70
     1
  9
$ATTREQ
 70
     1
  9
$HANDLING
 70
     1
  9
$HANDSEED
  5
A923
  9
$SURFTAB1
 70
     6
  9
$SURFTAB2
 70
     6
  9
$SURFTYPE
 70
     6
  9
$SURFU
 70
     6
  9
$SURFV
 70
     6
  9
$UCSNAME
  2

  9
$UCSORG
 10
0.0
 20
0.0
 30
0.0
  9
$UCSXDIR
 10
1.0
 20
0.0
 30
0.0
  9
$UCSYDIR
 10
0.0
 20
1.0
 30
0.0
  9
$PUCSNAME
  2

  9
$PUCSORG
 10
0.0
 20
0.0
 30
0.0
  9
$PUCSXDIR
 10
1.0
 20
0.0
 30
0.0
  9
$PUCSYDIR
 10
0.0
 20
1.0
 30
0.0
  9
$USERI1
 70
     0
  9
$USERI2
 70
     0
  9
$USERI3
 70
     0
  9
$USERI4
 70
     0
  9
$USERI5
 70
     0
  9
$USERR1
 40
0.0
  9
$USERR2
 40
0.0
  9
$USERR3
 40
0.0
  9
$USERR4
 40
0.0
  9
$USERR5
 40
0.0
  9
$WORLDVIEW
 70
     1
  9
$SHADEDGE
 70
     3
  9
$SHADEDIF
 70
    70
  9
$TILEMODE
 70
     1
  9
$MAXACTVP
 70
    64
  9
$PLIMCHECK
 70
     0
  9
$PEXTMIN
 10
1.0000000000000000E+20
 20
1.0000000000000000E+20
 30
1.0000000000000000E+20
  9
$PEXTMAX
 10
-1.0000000000000000E+20
 20
-1.0000000000000000E+20
 30
-1.0000000000000000E+20
  9
$PLIMMIN
 10
0.0
 20
0.0
  9
$PLIMMAX
 10
12.0
 20
9.0
  9
$UNITMODE
 70
     0
  9
$VISRETAIN
 70
     1
  9
$PLINEGEN
 70
     0
  9
$PSLTSCALE
 70
     1
  0
ENDSEC
  0
SECTION
  2
TABLES
  0
TABLE
  2
VPORT
 70
     1
  0
VPORT
  2
*ACTIVE
 70
     0
 10
0.0
 20
0.0
 11
1.0
 21
1.0
 12
919.9103463725396068
 22
97.8751435443169271
 13
0.0
 23
0.0
 14
1.0
 24
1.0
 15
0.0
 25
0.0
 16
0.0
 26
0.0
 36
17.1152628219792007
 17
3803.5440673828129547
 27
125.9952621967499056
 37
0.0
 40
50.9819281517368523
 41
2.469551282051281
 42
50.0
 43
0.0
 44
0.0
 50
0.0
 51
0.0
 71
     0
 72
   100
 73
     1
 74
     1
 75
     0
 76
     0
 77
     0
 78
     0
  0
ENDTAB
  0
TABLE
  2
LTYPE
 70
     2
  0
LTYPE
  2
CONTINUOUS
 70
     0
  3
Solid line
 72
    65
 73
     0
 40
0.0
  0
LTYPE
  2
PHANTOM2
 70
     0
  3
___ _ _ ___ _ _ ___ _ _ ___ _ _
 72
    65
 73
     6
 40
1.25
 49
0.625
 49
-0.125
 49
0.125
 49
-0.125
 49
0.125
 49
-0.125
  0
ENDTAB
  0
TABLE
  2
LAYER
 70
     2
  0
LAYER
  2
0
 70
     0
 62
   255
  6
CONTINUOUS
  0
LAYER
  2
DEFPOINTS
 70
     0
 62
     7
  6
CONTINUOUS
  0
ENDTAB
  0
TABLE
  2
STYLE
 70
     1
  0
STYLE
  2
STANDARD
 70
     0
 40
0.0
 41
0.8
 50
0.0
 71
     0
 42
0.2
  3
txt
  4

  0
ENDTAB
  0
TABLE
  2
VIEW
 70
     0
  0
ENDTAB
  0
TABLE
  2
UCS
 70
     0
  0
ENDTAB
  0
TABLE
  2
APPID
 70
     9
  0
APPID
  2
ACAD
 70
     0
  0
APPID
  2
ACAD_MLEADERVER
 70
     0
  0
APPID
  2
ACAD_EXEMPT_FROM_CAD_STANDARDS
 70
     0
  0
APPID
  2
ACAD_NAV_VCDISPLAY
 70
     0
  0
APPID
  2
ACAECLAYERSTANDARD
 70
     0
  0
APPID
  2
ACCMTRANSPARENCY
 70
     0
  0
APPID
  2
ACAD_DSTYLE_DIMJAG
 70
     0
  0
APPID
  2
ACAD_DSTYLE_DIMTALN
 70
     0
  0
APPID
  2
ACDBATTR
 70
     0
  0
ENDTAB
  0
TABLE
  2
DIMSTYLE
 70
     1
  0
DIMSTYLE
  2
STANDARD
 70
     0
  3

  4

  5

  6

  7

 40
1.0
 41
0.1875
 42
0.0625
 43
0.38
 44
0.125
 45
0.0
 46
0.0
 47
0.01
 48
0.01
140
0.15625
141
0.09
142
0.0
143
25.3999999999999986
144
1.0
145
0.0
146
1.0
147
0.09
 71
     1
 72
     0
 73
     1
 74
     1
 75
     0
 76
     0
 77
     0
 78
     4
170
     0
171
     2
172
     0
173
     0
174
     0
175
     0
176
     0
177
     0
178
     0
  0
ENDTAB
  0
ENDSEC
  0
SECTION
  2
BLOCKS
  0
BLOCK
  8
0
  2
$MODEL_SPACE
 70
     0
 10
0.0
 20
0.0
 30
0.0
  3
$MODEL_SPACE
  1

  0
ENDBLK
  5
21
  8
0
  0
BLOCK
 67
     1
  8
0
  2
$PAPER_SPACE
 70
     0
 10
0.0
 20
0.0
 30
0.0
  3
$PAPER_SPACE
  1

  0
ENDBLK
  5
1D
 67
     1
  8
0
  0
ENDSEC
  0
SECTION
  2
ENTITIES
  0
ATTDEF
  5
3930
  8
DEFPOINTS
 10
4728.584020019554373
 20
244.9096975091819104
 30
0.0
 40
0.001
  1
K-9514
  3

  2
MODELNUMBER
 70
     0
1001
ACDBATTR
1070
     0
1070
     1
  0
ATTDEF
  5
3931
  8
DEFPOINTS
 10
4728.584020019554373
 20
244.9080308425151884
 30
0.0
 40
0.001
  1
MASTERSHOWER
  3

  2
TRADENAME
 70
     0
1001
ACDBATTR
1070
     0
1070
     1
  0
ATTDEF
  5
3932
  8
DEFPOINTS
 10
4728.584020019554373
 20
244.9063641758486085
 30
0.0
 40
0.001
  1
SHOWER HOSE
  3

  2
PRODUCT
 70
     0
1001
ACDBATTR
1070
     0
1070
     1
  0
LINE
  5
A83A
  8
0
 10
4728.3139023001040187
 20
243.4892631160053043
 30
0.0
 11
4728.3137434608361218
 21
208.4530691901346131
 31
0.0
  0
LINE
  5
A83B
  8
0
 10
4728.8541841008036499
 20
243.4892631160053043
 30
0.0
 11
4728.8540252112070448
 21
208.4419677242815112
 31
0.0
  0
LINE
  5
A83C
  8
0
 10
4718.2898377795354463
 20
215.248763116005307
 30
0.0
 11
4718.2896426622455692
 21
208.3913867393301871
 31
0.0
  0
LINE
  5
A83D
  8
0
 10
4717.749900792688095
 20
215.248763116005307
 30
0.0
 11
4717.7500537929818165
 21
208.4689134770036105
 31
0.0
  0
ARC
  5
A83E
  8
0
 10
4723.3018837179743059
 20
208.391244122849713
 30
0.0
 40
5.0122410577573211
 50
179.9983697267684875
 51
0.7067507756919599
  0
ARC
  5
A83F
  8
0
 10
4723.3018837179743059
 20
208.391244122849713
 30
0.0
 40
5.552373190323034
 50
179.1984920352508084
 51
0.5234318029622554
  0
LINE
  5
A840
  8
0
 10
4717.7298679452924262
 20
215.248763116005307
 30
0.0
 11
4718.3098679452932629
 21
215.248763116005307
 31
0.0
  0
LINE
  5
A841
  8
0
 10
4717.6559765837928353
 20
215.3222631160053027
 30
0.0
 11
4718.3837593067919443
 21
215.3222631160053027
 31
0.0
  0
LINE
  5
A842
  8
0
 10
4717.645867945291684
 20
215.3598466201052872
 30
0.0
 11
4718.3938679452930955
 21
215.3598466201052872
 31
0.0
  0
LINE
  5
A843
  8
0
 10
4717.6112081005931032
 20
215.5192631160053054
 30
0.0
 11
4717.645867945291684
 21
215.5192631160053054
 31
0.0
  0
LINE
  5
A844
  8
0
 10
4718.3938679452930955
 20
215.5192631160053054
 30
0.0
 11
4718.4285277899916764
 21
215.5192631160053054
 31
0.0
  0
LINE
  5
A845
  8
0
 10
4718.4604232611927728
 20
216.7392631160053043
 30
0.0
 11
4717.5793126293929163
 21
216.7392631160053043
 31
0.0
  0
LINE
  5
A846
  8
0
 10
4717.6112081005931032
 20
215.5192631160053054
 30
0.0
 11
4717.5673199193915934
 21
216.7268272469052874
 31
0.0
  0
LINE
  5
A847
  8
0
 10
4717.645867945291684
 20
215.5192631160053054
 30
0.0
 11
4717.645867945291684
 21
215.3235958636053056
 31
0.0
  0
LINE
  5
A848
  8
0
 10
4717.7298679452924262
 20
215.3222631160053027
 30
0.0
 11
4717.7298679452924262
 21
215.248763116005307
 31
0.0
  0
LINE
  5
A849
  8
0
 10
4718.3098679452932629
 20
215.3222631160053027
 30
0.0
 11
4718.3098679452932629
 21
215.248763116005307
 31
0.0
  0
LINE
  5
A84A
  8
0
 10
4718.3938679452930955
 20
215.3235958635810903
 30
0.0
 11
4718.3938679452930955
 21
215.5192631160053054
 31
0.0
  0
LINE
  5
A84B
  8
0
 10
4718.4285277899916764
 20
215.5192631160053054
 30
0.0
 11
4718.4724159711931861
 21
216.7268272469052874
 31
0.0
  0
ARC
  5
A84C
  8
0
 10
4718.3837596271923758
 20
215.3612631160052899
 30
0.0
 40
0.039
 50
269.9995294178817176
 51
285.0218652585144241
  0
ARC
  5
A84D
  8
0
 10
4717.6559762633924038
 20
215.3612631160052899
 30
0.0
 40
0.039
 50
254.9781346764744114
 51
270.0004705821183961
  0
ARC
  5
A84E
  8
0
 10
4718.46042388969272
 20
216.7272631160053038
 30
0.0
 40
0.012
 50
357.9184201868991977
 51
90.0030010072809432
  0
ARC
  5
A84F
  8
0
 10
4717.5793120007683683
 20
216.7272631161189906
 30
0.0
 40
0.0119999999027162
 50
89.996998534357644
 51
182.0815800968103133
  0
LINE
  5
A850
  8
0
 10
4728.1753701040242959
 20
243.686263116005307
 30
0.0
 11
4728.1314819219242054
 21
244.8938272711052946
 31
0.0
  0
LINE
  5
A851
  8
0
 10
4728.2100299487246957
 20
243.686263116005307
 30
0.0
 11
4728.2100299487246957
 21
243.4905958636053072
 31
0.0
  0
LINE
  5
A852
  8
0
 10
4728.9580299487233788
 20
243.4905958635808076
 30
0.0
 11
4728.9580299487233788
 21
243.686263116005307
 31
0.0
  0
LINE
  5
A853
  8
0
 10
4728.9926897934237786
 20
243.686263116005307
 30
0.0
 11
4729.0365779755247786
 21
244.8938272711052946
 31
0.0
  0
LINE
  5
A854
  8
0
 10
4728.220138587224028
 20
243.4892631160053043
 30
0.0
 11
4728.9479213102240465
 21
243.4892631160053043
 31
0.0
  0
LINE
  5
A855
  8
0
 10
4728.2100299487246957
 20
243.5268466201052888
 30
0.0
 11
4728.9580299487233788
 21
243.5268466201052888
 31
0.0
  0
LINE
  5
A856
  8
0
 10
4728.1753701039242515
 20
243.686263116005307
 30
0.0
 11
4728.2100299487246957
 21
243.686263116005307
 31
0.0
  0
LINE
  5
A857
  8
0
 10
4728.9580299487233788
 20
243.686263116005307
 30
0.0
 11
4728.9926897934237786
 21
243.686263116005307
 31
0.0
  0
LINE
  5
A858
  8
0
 10
4729.0245858931248222
 20
244.9062631160053058
 30
0.0
 11
4728.1434740042241174
 21
244.9062631160053058
 31
0.0
  0
ARC
  5
A859
  8
0
 10
4728.9479216306235685
 20
243.5282631160052915
 30
0.0
 40
0.039
 50
269.9995294178817176
 51
285.0218652584599113
  0
ARC
  5
A85A
  8
0
 10
4728.2201382668235965
 20
243.5282631160052915
 30
0.0
 40
0.039
 50
254.9781346764744114
 51
270.0004705821183961
  0
ARC
  5
A85B
  8
0
 10
4729.0245858931248222
 20
244.8942631160053054
 30
0.0
 40
0.012
 50
357.9185360255995079
 51
90.0
  0
ARC
  5
A85C
  8
0
 10
4728.1434740041913756
 20
244.8942631160902863
 30
0.0
 40
0.0119999999149627
 50
89.999999844346803
 51
182.0814643347976016
  0
ENDSEC
  0
EOF
