  0
SECTION
  2
HEADER
  9
$ACADVER
  1
AC1009
  9
$INSBASE
 10
3669.9502280385031554
 20
146.3689511031477082
 30
0.0
  9
$EXTMIN
 10
3663.8241650463028236
 20
146.3639614257452024
 30
0.0
  9
$EXTMAX
 10
3676.0762910307030324
 20
153.6139501586926883
 30
0.0
  9
$LIMMIN
 10
0.0
 20
0.0
  9
$LIMMAX
 10
11.6929133858000007
 20
8.2677165353999982
  9
$ORTHOMODE
 70
     0
  9
$REGENMODE
 70
     1
  9
$FILLMODE
 70
     1
  9
$QTEXTMODE
 70
     0
  9
$MIRRTEXT
 70
     0
  9
$DRAGMODE
 70
     2
  9
$LTSCALE
 40
0.6431102362
  9
$OSMODE
 70
  4095
  9
$ATTMODE
 70
     1
  9
$TEXTSIZE
 40
0.2
  9
$TRACEWID
 40
0.05
  9
$TEXTSTYLE
  7
STANDARD
  9
$CLAYER
  8
0
  9
$CELTYPE
  6
BYLAYER
  9
$CECOLOR
 62
   256
  9
$DIMSCALE
 40
1.0
  9
$DIMASZ
 40
0.1875
  9
$DIMEXO
 40
0.0625
  9
$DIMDLI
 40
0.4443307087
  9
$DIMRND
 40
0.0
  9
$DIMDLE
 40
0.0
  9
$DIMEXE
 40
0.125
  9
$DIMTP
 40
0.01
  9
$DIMTM
 40
0.01
  9
$DIMTXT
 40
2.0
  9
$DIMCEN
 40
0.1052362205
  9
$DIMTSZ
 40
0.0
  9
$DIMTOL
 70
     1
  9
$DIMLIM
 70
     0
  9
$DIMTIH
 70
     1
  9
$DIMTOH
 70
     1
  9
$DIMSE1
 70
     0
  9
$DIMSE2
 70
     0
  9
$DIMTAD
 70
     0
  9
$DIMZIN
 70
     0
  9
$DIMBLK
  1

  9
$DIMASO
 70
     1
  9
$DIMSHO
 70
     1
  9
$DIMPOST
  1
\X
  9
$DIMAPOST
  1

  9
$DIMALT
 70
     1
  9
$DIMALTD
 70
     2
  9
$DIMALTF
 40
25.3999999999999986
  9
$DIMLFAC
 40
1.0
  9
$DIMTOFL
 70
     0
  9
$DIMTVP
 40
0.0
  9
$DIMTIX
 70
     0
  9
$DIMSOXD
 70
     0
  9
$DIMSAH
 70
     0
  9
$DIMBLK1
  1

  9
$DIMBLK2
  1

  9
$DIMSTYLE
  2
STANDARD
  9
$DIMCLRD
 70
     0
  9
$DIMCLRE
 70
     0
  9
$DIMCLRT
 70
     0
  9
$DIMTFAC
 40
1.0
  9
$DIMGAP
 40
0.09
  9
$LUNITS
 70
     2
  9
$LUPREC
 70
     4
  9
$SKETCHINC
 40
0.1
  9
$FILLETRAD
 40
0.0
  9
$AUNITS
 70
     0
  9
$AUPREC
 70
     0
  9
$MENU
  1
.
  9
$ELEVATION
 40
0.0
  9
$PELEVATION
 40
0.0
  9
$THICKNESS
 40
0.0
  9
$LIMCHECK
 70
     0
  9
$BLIPMODE
 70
     0
  9
$CHAMFERA
 40
0.0
  9
$CHAMFERB
 40
0.0
  9
$SKPOLY
 70
     0
  9
$TDCREATE
 40
2458060.468368056230247
  9
$TDUPDATE
 40
2459089.539351852145046
  9
$TDINDWG
 40
0.7204584491
  9
$TDUSRTIMER
 40
0.7204584491
  9
$USRTIMER
 70
     1
  9
$ANGBASE
 50
0.0
  9
$ANGDIR
 70
     0
  9
$PDMODE
 70
     0
  9
$PDSIZE
 40
0.3125
  9
$PLINEWID
 40
0.0
  9
$COORDS
 70
     1
  9
$SPLFRAME
 70
     0
  9
$SPLINETYPE
 70
     6
  9
$SPLINESEGS
 70
     8
  9
$ATTDIA
 70
     1
  9
$ATTREQ
 70
     1
  9
$HANDLING
 70
     1
  9
$HANDSEED
  5
F9B5
  9
$SURFTAB1
 70
     6
  9
$SURFTAB2
 70
     6
  9
$SURFTYPE
 70
     6
  9
$SURFU
 70
     6
  9
$SURFV
 70
     6
  9
$UCSNAME
  2

  9
$UCSORG
 10
0.0
 20
0.0
 30
0.0
  9
$UCSXDIR
 10
1.0
 20
0.0
 30
0.0
  9
$UCSYDIR
 10
0.0
 20
1.0
 30
0.0
  9
$PUCSNAME
  2

  9
$PUCSORG
 10
0.0
 20
0.0
 30
0.0
  9
$PUCSXDIR
 10
1.0
 20
0.0
 30
0.0
  9
$PUCSYDIR
 10
0.0
 20
1.0
 30
0.0
  9
$USERI1
 70
     0
  9
$USERI2
 70
     0
  9
$USERI3
 70
     0
  9
$USERI4
 70
     0
  9
$USERI5
 70
     0
  9
$USERR1
 40
0.0
  9
$USERR2
 40
0.0
  9
$USERR3
 40
0.0
  9
$USERR4
 40
0.0
  9
$USERR5
 40
0.0
  9
$WORLDVIEW
 70
     1
  9
$SHADEDGE
 70
     3
  9
$SHADEDIF
 70
    70
  9
$TILEMODE
 70
     1
  9
$MAXACTVP
 70
    64
  9
$PLIMCHECK
 70
     0
  9
$PEXTMIN
 10
1.0000000000000000E+20
 20
1.0000000000000000E+20
 30
1.0000000000000000E+20
  9
$PEXTMAX
 10
-1.0000000000000000E+20
 20
-1.0000000000000000E+20
 30
-1.0000000000000000E+20
  9
$PLIMMIN
 10
0.0
 20
0.0
  9
$PLIMMAX
 10
12.0
 20
9.0
  9
$UNITMODE
 70
     0
  9
$VISRETAIN
 70
     1
  9
$PLINEGEN
 70
     0
  9
$PSLTSCALE
 70
     1
  0
ENDSEC
  0
SECTION
  2
TABLES
  0
TABLE
  2
VPORT
 70
     1
  0
VPORT
  2
*ACTIVE
 70
     0
 10
0.0
 20
0.0
 11
1.0
 21
1.0
 12
0.0
 22
0.0
 13
0.0
 23
0.0
 14
1.0
 24
1.0
 15
0.0
 25
0.0
 16
0.0
 26
0.0
 36
51.520012013555359
 17
3669.9501953125
 27
149.9889112548648029
 37
0.0
 40
14.2362705942157906
 41
2.8398203592814371
 42
50.0
 43
0.0
 44
0.0
 50
0.0
 51
0.0
 71
     0
 72
   100
 73
     1
 74
     1
 75
     0
 76
     0
 77
     0
 78
     0
  0
ENDTAB
  0
TABLE
  2
LTYPE
 70
     2
  0
LTYPE
  2
CONTINUOUS
 70
     0
  3
Solid line
 72
    65
 73
     0
 40
0.0
  0
LTYPE
  2
PHANTOM2
 70
     0
  3
___ _ _ ___ _ _ ___ _ _ ___ _ _
 72
    65
 73
     6
 40
1.25
 49
0.625
 49
-0.125
 49
0.125
 49
-0.125
 49
0.125
 49
-0.125
  0
ENDTAB
  0
TABLE
  2
LAYER
 70
     2
  0
LAYER
  2
0
 70
     0
 62
   255
  6
CONTINUOUS
  0
LAYER
  2
DEFPOINTS
 70
     0
 62
     7
  6
CONTINUOUS
  0
ENDTAB
  0
TABLE
  2
STYLE
 70
     1
  0
STYLE
  2
STANDARD
 70
     0
 40
0.0
 41
0.8
 50
0.0
 71
     0
 42
0.2
  3
txt
  4

  0
ENDTAB
  0
TABLE
  2
VIEW
 70
     0
  0
ENDTAB
  0
TABLE
  2
UCS
 70
     0
  0
ENDTAB
  0
TABLE
  2
APPID
 70
    10
  0
APPID
  2
ACAD
 70
     0
  0
APPID
  2
ACAD_MLEADERVER
 70
     0
  0
APPID
  2
ACAD_EXEMPT_FROM_CAD_STANDARDS
 70
     0
  0
APPID
  2
ACAD_NAV_VCDISPLAY
 70
     0
  0
APPID
  2
ACAECLAYERSTANDARD
 70
     0
  0
APPID
  2
ACCMTRANSPARENCY
 70
     0
  0
APPID
  2
ACAD_DSTYLE_DIMJAG
 70
     0
  0
APPID
  2
ACAD_DSTYLE_DIMTALN
 70
     0
  0
APPID
  2
ACDBATTR
 70
     0
  0
APPID
  2
ACAD_PSEXT
 70
     0
  0
ENDTAB
  0
TABLE
  2
DIMSTYLE
 70
     1
  0
DIMSTYLE
  2
STANDARD
 70
     0
  3

  4

  5

  6

  7

 40
1.0
 41
0.1875
 42
0.0625
 43
0.38
 44
0.125
 45
0.0
 46
0.0
 47
0.01
 48
0.01
140
0.15625
141
0.09
142
0.0
143
25.3999999999999986
144
1.0
145
0.0
146
1.0
147
0.09
 71
     1
 72
     0
 73
     1
 74
     1
 75
     0
 76
     0
 77
     0
 78
     4
170
     0
171
     2
172
     0
173
     0
174
     0
175
     0
176
     0
177
     0
178
     0
  0
ENDTAB
  0
ENDSEC
  0
SECTION
  2
BLOCKS
  0
BLOCK
  8
0
  2
$MODEL_SPACE
 70
     0
 10
0.0
 20
0.0
 30
0.0
  3
$MODEL_SPACE
  1

  0
ENDBLK
  5
21
  8
0
  0
BLOCK
 67
     1
  8
0
  2
$PAPER_SPACE
 70
     0
 10
0.0
 20
0.0
 30
0.0
  3
$PAPER_SPACE
  1

  0
ENDBLK
  5
1D
 67
     1
  8
0
  0
BLOCK
  8
0
  2
_FILLED
 70
     0
 10
0.0
 20
0.0
 30
0.0
  3
_FILLED
  1

  0
SOLID
  5
B630
  8
0
  6
BYBLOCK
 62
     0
 10
0.0
 20
0.0
 30
0.0
 11
-1.0
 21
0.1666666667
 31
0.0
 12
-1.0
 22
-0.1666666667
 32
0.0
 13
-1.0
 23
-0.1666666667
 33
0.0
  0
ENDBLK
  5
B631
  8
0
  6
BYBLOCK
 62
     0
  0
ENDSEC
  0
SECTION
  2
ENTITIES
  0
ATTDEF
  5
AA11
  8
DEFPOINTS
 10
3669.9505878234181182
 20
146.3672947590785043
 30
0.0
 40
0.001
  1
K-942-4
  3

  2
MODELNUMBER
 70
     0
1001
ACDBATTR
1070
     0
1070
     1
  0
ATTDEF
  5
AA12
  8
DEFPOINTS
 10
3669.9505878234181182
 20
146.365628092411896
 30
0.0
 40
0.001
  1
STILLNESS
  3

  2
TRADENAME
 70
     0
1001
ACDBATTR
1070
     0
1070
     1
  0
ATTDEF
  5
AA13
  8
DEFPOINTS
 10
3669.9505878234181182
 20
146.3639614257452024
 30
0.0
 40
0.001
  1
BATHROOM SINK FAUCET
  3

  2
PRODUCT
 70
     0
1001
ACDBATTR
1070
     0
1070
     1
  0
LINE
  5
EED5
  8
0
 10
3665.0141650463028782
 20
146.3689511031477082
 30
0.0
 11
3665.0141650463028782
 21
146.5189511031477139
 31
0.0
  0
ARC
  5
EED6
  8
0
 10
3665.4341650463029509
 20
146.5289511031477048
 30
0.0
 40
0.01
 50
180.0
 51
270.0
  0
LINE
  5
EED7
  8
0
 10
3665.4241650463031874
 20
146.5289511031477048
 30
0.0
 11
3665.4241650463031874
 21
148.2386361425477048
 31
0.0
  0
LINE
  5
EED8
  8
0
 10
3665.4390836160027902
 20
148.2586361425476866
 30
0.0
 11
3665.4390836160027902
 21
148.6186361425500877
 31
0.0
  0
ARC
  5
EED9
  8
0
 10
3666.4741650470032255
 20
146.5289511014588015
 30
0.0
 40
0.0099999983110552
 50
269.9999959916827947
 51
0.000009676945401
  0
LINE
  5
EEDA
  8
0
 10
3666.4841650453131479
 20
146.5289511031477048
 30
0.0
 11
3666.4841650453131479
 21
148.2386361425477048
 31
0.0
  0
LINE
  5
EEDB
  8
0
 10
3666.4841650453131479
 20
148.2586361425476866
 30
0.0
 11
3666.4841650453131479
 21
148.6186361425874054
 31
0.0
  0
ARC
  5
EEDC
  8
0
 10
3663.8441650463028054
 20
148.2586361425476866
 30
0.0
 40
0.0199999999999996
 50
179.9999999999984084
 51
270.0
  0
LINE
  5
EEDD
  8
0
 10
3663.8241650463028236
 20
148.2586361425476866
 30
0.0
 11
3663.8241650463028236
 21
148.6186361425477003
 31
0.0
  0
ARC
  5
EEDE
  8
0
 10
3663.8441650463028054
 20
148.6186361425477003
 30
0.0
 40
0.0200000000000005
 50
90.0000000000260485
 51
179.9999999999984084
  0
LINE
  5
EEDF
  8
0
 10
3663.8441650463028054
 20
148.6386361425477105
 30
0.0
 11
3666.4641530531030185
 21
148.6386361425489042
 31
0.0
  0
ARC
  5
EEE0
  8
0
 10
3666.4641530538028746
 20
148.6186241474430858
 30
0.0
 40
0.0200119951057451
 50
0.0343428482839218
 51
90.0000020035853794
  0
ARC
  5
EEE1
  8
0
 10
3666.4641650470030072
 20
148.2586361408588118
 30
0.0
 40
0.0199999983110875
 50
269.9999979958673748
 51
0.0000048383806934
  0
LINE
  5
EEE2
  8
0
 10
3666.8941650463029873
 20
146.3689511031477082
 30
0.0
 11
3666.8941650463029873
 21
146.5189511031477139
 31
0.0
  0
LINE
  5
EEE3
  8
0
 10
3663.8441650463028054
 20
148.2386361425477048
 30
0.0
 11
3666.4841650453131479
 21
148.2386361425477048
 31
0.0
  0
LINE
  5
EEE4
  8
0
 10
3665.0141650463028782
 20
146.3689511031477082
 30
0.0
 11
3666.8941650463029873
 21
146.3689511031477082
 31
0.0
  0
LINE
  5
EEE5
  8
0
 10
3665.0141650463028782
 20
146.5189511031477139
 30
0.0
 11
3666.8941650463029873
 21
146.5189511031477139
 31
0.0
  0
LINE
  5
EEE6
  8
0
 10
3669.0102280385031008
 20
146.3689511031477082
 30
0.0
 11
3670.89022803850321
 21
146.3689511031477082
 31
0.0
  0
LINE
  5
EEE7
  8
0
 10
3670.89022803850321
 20
146.3689511031477082
 30
0.0
 11
3670.89022803850321
 21
146.5189511031477139
 31
0.0
  0
LINE
  5
EEE8
  8
0
 10
3670.89022803850321
 20
146.5189511031477139
 30
0.0
 11
3669.0102280385031008
 21
146.5189511031477139
 31
0.0
  0
LINE
  5
EEE9
  8
0
 10
3669.0102280385031008
 20
146.5189511031477139
 30
0.0
 11
3669.0102280385031008
 21
146.3689511031477082
 31
0.0
  0
LINE
  5
EEEA
  8
0
 10
3669.5752280385031554
 20
146.5189511031477139
 30
0.0
 11
3669.5752280385031554
 21
153.2389511031477127
 31
0.0
  0
ARC
  5
EEEB
  8
0
 10
3669.9617228861970943
 20
151.5132441869673983
 30
0.0
 40
0.5249750396426293
 50
236.8661311287436035
 51
268.7453519747863879
  0
ARC
  5
EEEC
  8
0
 10
3669.8120421135181459
 20
151.2670769412083018
 30
0.0
 40
0.2371995203469497
 50
183.2667879876472057
 51
234.6403434409805016
  0
ARC
  5
EEED
  8
0
 10
3669.836736080063929
 20
151.2297674547504016
 30
0.0
 40
0.2625881631483154
 50
109.6337024012006935
 51
174.8014124707208907
  0
ARC
  5
EEEE
  8
0
 10
3669.9733618824629957
 20
150.8971524594182085
 30
0.0
 40
0.6220021802700066
 50
92.1314674441873365
 51
111.1926529943361004
  0
ARC
  5
EEEF
  8
0
 10
3669.9513543186972129
 20
151.4378408988679894
 30
0.0
 40
0.3999494040298157
 50
235.5849168784509118
 51
269.8386516237026171
  0
ARC
  5
EEF0
  8
0
 10
3669.8419155421997857
 20
151.2692647918088085
 30
0.0
 40
0.1990896230335414
 50
193.716669871934613
 51
234.1477156077122004
  0
ARC
  5
EEF1
  8
0
 10
3669.8059461896068569
 20
151.2535157334984888
 30
0.0
 40
0.160554511925692
 50
144.5050587918715053
 51
191.2997071690874122
  0
ARC
  5
EEF2
  8
0
 10
3669.8916868807950777
 20
151.1900772162678948
 30
0.0
 40
0.2672026237402199
 50
111.455407912125807
 51
144.1049702007013877
  0
ARC
  5
EEF3
  8
0
 10
3669.9481447638008831
 20
151.0638306801421891
 30
0.0
 40
0.4054015962501362
 50
89.7055675792241942
 51
112.3553576839588004
  0
ARC
  5
EEF4
  8
0
 10
3669.9562340669372134
 20
151.4748766818570971
 30
0.0
 40
0.3928359410692481
 50
251.271491632420009
 51
269.1239765695614778
  0
ARC
  5
EEF5
  8
0
 10
3669.9058959633630366
 20
151.3273830386359862
 30
0.0
 40
0.2369894295739624
 50
217.0506746730287091
 51
251.3476107304811933
  0
ARC
  5
EEF6
  8
0
 10
3669.8253187189129676
 20
151.2658104639394878
 30
0.0
 40
0.13558300874008
 50
155.2743523798002059
 51
216.8006032634787061
  0
ARC
  5
EEF7
  8
0
 10
3669.8889798896311731
 20
151.2271380456490135
 30
0.0
 40
0.2097557066769608
 50
112.5491985856527037
 51
152.9521256473927053
  0
ARC
  5
EEF8
  8
0
 10
3669.9480647454961399
 20
151.1072786247976865
 30
0.0
 40
0.3432174821143188
 50
89.638863442871255
 51
113.9857722175817969
  0
ARC
  5
EEF9
  8
0
 10
3669.8874220515717752
 20
151.2974398076985949
 30
0.0
 40
0.20012997582942
 50
154.8619187759701106
 51
188.9549608825799112
  0
ARC
  5
EEFA
  8
0
 10
3669.8189012613638624
 20
151.3257878503956135
 30
0.0
 40
0.1502165437041992
 50
175.5046843255773013
 51
211.6738232494120098
  0
ARC
  5
EEFB
  8
0
 10
3669.8018710865339926
 20
151.5276972863782987
 30
0.0
 40
0.2268101773430809
 50
127.100224825692294
 51
177.80032080998879
  0
ARC
  5
EEFC
  8
0
 10
3669.940937194262915
 20
151.3462348406582976
 30
0.0
 40
0.455429829140653
 50
88.7741871987185505
 51
127.2834487576854059
  0
LINE
  5
EEFD
  8
0
 10
3670.3252280385031554
 20
146.5189511031477139
 30
0.0
 11
3670.3252280385031554
 21
153.2389511031477127
 31
0.0
  0
ARC
  5
EEFE
  8
0
 10
3669.9341411360342136
 20
151.5280839832273898
 30
0.0
 40
0.5399286790644747
 50
271.7073515007343758
 51
302.6811653957485078
  0
ARC
  5
EEFF
  8
0
 10
3670.0884139634881649
 20
151.2670769412083018
 30
0.0
 40
0.2371995203469497
 50
305.3596565590194132
 51
356.7332120123527943
  0
ARC
  5
EF00
  8
0
 10
3670.0637199969410176
 20
151.2297674547504016
 30
0.0
 40
0.2625881631483154
 50
5.1985875292790924
 51
70.3662975987992922
  0
ARC
  5
EF01
  8
0
 10
3669.9314806806391971
 20
150.9184048591473868
 30
0.0
 40
0.6006120874089828
 50
68.4645864565890321
 51
88.2112931048921354
  0
ARC
  5
EF02
  8
0
 10
3669.9499487752527784
 20
151.435119469265004
 30
0.0
 40
0.3972264867549426
 50
270.0402808157317054
 51
304.5361506820946147
  0
ARC
  5
EF03
  8
0
 10
3670.0585405348069798
 20
151.2692647918088085
 30
0.0
 40
0.1990896230335414
 50
305.8522843922877996
 51
346.2833301280654155
  0
ARC
  5
EF04
  8
0
 10
3670.0945098873999086
 20
151.2535157334984888
 30
0.0
 40
0.160554511925692
 50
348.7002928309124741
 51
35.4949412081285232
  0
ARC
  5
EF05
  8
0
 10
3670.0087691962098688
 20
151.1900772162678948
 30
0.0
 40
0.2672026237402199
 50
35.8950297992985625
 51
68.5445920878742072
  0
ARC
  5
EF06
  8
0
 10
3669.952311313204973
 20
151.0638306801421891
 30
0.0
 40
0.4054015962501362
 50
67.6446423160411712
 51
90.2944324207758058
  0
ARC
  5
EF07
  8
0
 10
3669.9442220100690975
 20
151.4748766818570971
 30
0.0
 40
0.3928359410692481
 50
270.8760234304385222
 51
288.728508367579991
  0
ARC
  5
EF08
  8
0
 10
3669.9945601136428195
 20
151.3273830386359862
 30
0.0
 40
0.2369894295739624
 50
288.6523892695187214
 51
322.9493253269712909
  0
ARC
  5
EF09
  8
0
 10
3670.0751373580928885
 20
151.2658104639394878
 30
0.0
 40
0.13558300874008
 50
323.1993967365211802
 51
24.7256476202013005
  0
ARC
  5
EF0A
  8
0
 10
3670.0114761873751377
 20
151.2271380456490135
 30
0.0
 40
0.2097557066769608
 50
27.0478743526073018
 51
67.450801414347282
  0
ARC
  5
EF0B
  8
0
 10
3669.9523913315101709
 20
151.1072786247976865
 30
0.0
 40
0.3432174821143188
 50
66.0142277824182315
 51
90.361136557128745
  0
ARC
  5
EF0C
  8
0
 10
3670.0130340254349903
 20
151.2974398076985949
 30
0.0
 40
0.20012997582942
 50
351.0450391174201172
 51
25.1380812240298503
  0
ARC
  5
EF0D
  8
0
 10
3670.0815548156419936
 20
151.3257878503956135
 30
0.0
 40
0.1502165437041992
 50
328.3261767505881039
 51
4.4953156744226801
  0
ARC
  5
EF0E
  8
0
 10
3670.0985849904727729
 20
151.5276972863784977
 30
0.0
 40
0.2268101773423684
 50
2.199679189969828
 51
52.8997751744606077
  0
ARC
  5
EF0F
  8
0
 10
3669.9595188827429411
 20
151.3462348406582976
 30
0.0
 40
0.455429829140653
 50
52.7165512423145373
 51
91.2258128012814353
  0
ARC
  5
EF10
  8
0
 10
3669.9502280385031554
 20
153.2389501586916083
 30
0.0
 40
0.3750000000011884
 50
0.0001443022768225
 51
179.9998556977232056
  0
ARC
  5
EF12
  8
0
 10
3665.4588113319919103
 20
148.6189086854762138
 30
0.0
 40
0.0197295985204953
 50
90.8441824095831265
 51
180.7915039965737094
  0
ARC
  5
EF13
  8
0
 10
3665.4588113319100557
 20
148.258363599614313
 30
0.0
 40
0.0197295984390145
 50
179.208495978824601
 51
269.1558326752756898
  0
LINE
  5
EF14
  8
0
 10
3674.8862910307029779
 20
146.3689511031477082
 30
0.0
 11
3674.8862910307029779
 21
146.5189511031477139
 31
0.0
  0
ARC
  5
EF15
  8
0
 10
3674.4662910307029051
 20
146.5289511031477048
 30
0.0
 40
0.01
 50
270.0
 51
0.0
  0
LINE
  5
EF16
  8
0
 10
3674.4762910307022139
 20
146.5289511031477048
 30
0.0
 11
3674.4762910307022139
 21
148.2386361425477048
 31
0.0
  0
LINE
  5
EF17
  8
0
 10
3674.4613724610030658
 20
148.2586361425476866
 30
0.0
 11
3674.4613724610030658
 21
148.6186361425500877
 31
0.0
  0
ARC
  5
EF18
  8
0
 10
3673.4262910300030853
 20
146.5289511014588015
 30
0.0
 40
0.0099999983110552
 50
179.9999903230545897
 51
270.0000040083172053
  0
LINE
  5
EF19
  8
0
 10
3673.4162910316917987
 20
146.5289511031477048
 30
0.0
 11
3673.4162910316917987
 21
148.2386361425477048
 31
0.0
  0
LINE
  5
EF1A
  8
0
 10
3673.4162910316917987
 20
148.2586361425476866
 30
0.0
 11
3673.4162910316917987
 21
148.6186361425874054
 31
0.0
  0
ARC
  5
EF1B
  8
0
 10
3676.0562910307030506
 20
148.2586361425476866
 30
0.0
 40
0.0199999999999996
 50
270.0
 51
0.0000000000016284
  0
LINE
  5
EF1C
  8
0
 10
3676.0762910307030324
 20
148.2586361425476866
 30
0.0
 11
3676.0762910307030324
 21
148.6186361425477003
 31
0.0
  0
ARC
  5
EF1D
  8
0
 10
3676.0562910307030506
 20
148.6186361425477003
 30
0.0
 40
0.0200000000000005
 50
0.0000000000016284
 51
89.9999999999739515
  0
LINE
  5
EF1E
  8
0
 10
3676.0562910307030506
 20
148.6386361425477105
 30
0.0
 11
3673.4363030239028376
 21
148.6386361425489042
 31
0.0
  0
ARC
  5
EF1F
  8
0
 10
3673.4363030232038909
 20
148.6186241474430858
 30
0.0
 40
0.0200119951057451
 50
89.9999979964146348
 51
179.9656571517161012
  0
ARC
  5
EF20
  8
0
 10
3673.4362910300042131
 20
148.2586361408588118
 30
0.0
 40
0.0199999983110875
 50
179.9999951616192959
 51
270.0000020041325115
  0
LINE
  5
EF21
  8
0
 10
3673.0062910307028687
 20
146.3689511031477082
 30
0.0
 11
3673.0062910307028687
 21
146.5189511031477139
 31
0.0
  0
LINE
  5
EF22
  8
0
 10
3676.0562910307030506
 20
148.2386361425477048
 30
0.0
 11
3673.4162910316917987
 21
148.2386361425477048
 31
0.0
  0
LINE
  5
EF23
  8
0
 10
3674.8862910307029779
 20
146.3689511031477082
 30
0.0
 11
3673.0062910307028687
 21
146.3689511031477082
 31
0.0
  0
LINE
  5
EF24
  8
0
 10
3674.8862910307029779
 20
146.5189511031477139
 30
0.0
 11
3673.0062910307028687
 21
146.5189511031477139
 31
0.0
  0
ARC
  5
EF25
  8
0
 10
3674.4416447450148553
 20
148.6189086854762138
 30
0.0
 40
0.0197295985204953
 50
359.208496003426319
 51
89.1558175904169161
  0
ARC
  5
EF26
  8
0
 10
3674.4416447450958003
 20
148.258363599614313
 30
0.0
 40
0.0197295984390145
 50
270.8441673247243102
 51
0.7915040211753782
  0
ARC
  5
F3D8
  8
0
 10
3670.0268995634219209
 20
151.2539813605376082
 30
0.0
 40
0.163467854639443
 50
22.3810006077268717
 51
56.4423832191411705
  0
ARC
  5
F3D9
  8
0
 10
3670.0645108464118493
 20
151.2717653512187894
 30
0.0
 40
0.1219367308579829
 50
0.1547304932027199
 51
21.3832277394745489
  0
ARC
  5
F3E0
  8
0
 10
3669.950551208887191
 20
151.1284258718646072
 30
0.0
 40
0.3107020420448077
 50
90.0595950365974858
 51
122.5909160736154035
  0
ARC
  5
F3E1
  8
0
 10
3669.8735565136357764
 20
151.2539813605376082
 30
0.0
 40
0.163467854639443
 50
123.5576167808588934
 51
157.6189993922731105
  0
ARC
  5
F3E2
  8
0
 10
3669.8359452306431194
 20
151.2717653512187894
 30
0.0
 40
0.1219367308579829
 50
158.6167722605254085
 51
179.8452695067988998
  0
ARC
  5
F3E5
  8
0
 10
3669.9483157540239517
 20
151.4211888917668034
 30
0.0
 40
0.3161331255023319
 50
270.3465834145922031
 51
302.3039276956320123
  0
ARC
  5
F3E6
  8
0
 10
3670.0268995634219209
 20
151.2902079353096099
 30
0.0
 40
0.163467854639443
 50
303.5576167808588934
 51
337.6189993922731105
  0
ARC
  5
F3E7
  8
0
 10
3670.0645108464118493
 20
151.2724239446284002
 30
0.0
 40
0.1219367308579829
 50
338.6167722605255221
 51
359.8452695067971945
  0
ARC
  5
F3EB
  8
0
 10
3669.945577468035026
 20
151.3987823462921085
 30
0.0
 40
0.2937576109249656
 50
236.4423832191411066
 51
270.9071056706364971
  0
ARC
  5
F3EC
  8
0
 10
3669.8735565136357764
 20
151.2902079353096099
 30
0.0
 40
0.163467854639443
 50
202.3810006077268895
 51
236.4423832191411066
  0
ARC
  5
F3ED
  8
0
 10
3669.8359452306431194
 20
151.2724239446284002
 30
0.0
 40
0.1219367308579829
 50
180.1547304932011002
 51
201.3832277394745063
  0
LINE
  5
F3F3
  8
0
 10
3669.8899606122281511
 20
151.130626233156903
 30
0.0
 11
3669.9170783966278577
 21
151.1306238305569138
 31
0.0
  0
LINE
  5
F3F4
  8
0
 10
3669.8440774181281085
 20
151.1580945585569111
 30
0.0
 11
3669.8695353828279622
 21
151.1580945585569111
 31
0.0
  0
LINE
  5
F3F5
  8
0
 10
3669.8695353828279622
 20
151.1580945585569111
 30
0.0
 11
3669.881741937228071
 21
151.1730444735568994
 31
0.0
  0
LINE
  5
F3F6
  8
0
 10
3669.881741937228071
 20
151.1730444735568994
 30
0.0
 11
3669.8701719587279513
 21
151.1876729444568923
 31
0.0
  0
LINE
  5
F3F7
  8
0
 10
3669.8701719587279513
 20
151.1876729444568923
 30
0.0
 11
3669.8434408422281194
 21
151.1876729444568923
 31
0.0
  0
LINE
  5
F3F8
  8
0
 10
3669.8434408422281194
 20
151.1876729444568923
 30
0.0
 11
3669.8318708637279997
 21
151.1730444735568994
 31
0.0
  0
LINE
  5
F3F9
  8
0
 10
3669.8318708637279997
 20
151.1730444735568994
 30
0.0
 11
3669.8440774181281085
 21
151.1580945585569111
 31
0.0
  0
LINE
  5
F3FA
  8
0
 10
3669.8440774181281085
 20
151.1580945585569111
 30
0.0
 11
3669.8440774181281085
 21
151.1699260696568956
 31
0.0
  0
LINE
  5
F3FB
  8
0
 10
3669.8440774181281085
 20
151.1699260696568956
 30
0.0
 11
3669.8366242076699564
 21
151.1790543510632858
 31
0.0
  0
LINE
  5
F3FC
  8
0
 10
3669.8440774181281085
 20
151.1699260696568956
 30
0.0
 11
3669.8695353828279622
 21
151.1699260696568956
 31
0.0
  0
LINE
  5
F3FD
  8
0
 10
3669.8695353828279622
 20
151.1699260696568956
 30
0.0
 11
3669.8769885932861143
 21
151.1790543510632858
 31
0.0
  0
LINE
  5
F3FE
  8
0
 10
3669.8695353828279622
 20
151.1699260696568956
 30
0.0
 11
3669.8695353828279622
 21
151.1580945585569111
 31
0.0
  0
LINE
  5
F3FF
  8
0
 10
3669.8440774181281085
 20
151.1962337826568898
 30
0.0
 11
3669.8695353828279622
 21
151.1962337826568898
 31
0.0
  0
LINE
  5
F400
  8
0
 10
3669.8695353828279622
 20
151.1962337826568898
 30
0.0
 11
3669.881741937228071
 21
151.2111836976569066
 31
0.0
  0
LINE
  5
F401
  8
0
 10
3669.881741937228071
 20
151.2111836976569066
 30
0.0
 11
3669.8701719587279513
 21
151.2258121685568995
 31
0.0
  0
LINE
  5
F402
  8
0
 10
3669.8701719587279513
 20
151.2258121685568995
 30
0.0
 11
3669.8434408422281194
 21
151.2258121685568995
 31
0.0
  0
LINE
  5
F403
  8
0
 10
3669.8434408422281194
 20
151.2258121685568995
 30
0.0
 11
3669.8318708637279997
 21
151.2111836976569066
 31
0.0
  0
LINE
  5
F404
  8
0
 10
3669.8318708637279997
 20
151.2111836976569066
 30
0.0
 11
3669.8440774181281085
 21
151.1962337826568898
 31
0.0
  0
LINE
  5
F405
  8
0
 10
3669.8440774181281085
 20
151.1962337826568898
 30
0.0
 11
3669.8440774181281085
 21
151.2080652937569027
 31
0.0
  0
LINE
  5
F406
  8
0
 10
3669.8440774181281085
 20
151.2080652937569027
 30
0.0
 11
3669.8366242076699564
 21
151.217193575163293
 31
0.0
  0
LINE
  5
F407
  8
0
 10
3669.8440774181281085
 20
151.2080652937569027
 30
0.0
 11
3669.8695353828279622
 21
151.2080652937569027
 31
0.0
  0
LINE
  5
F408
  8
0
 10
3669.8695353828279622
 20
151.2080652937569027
 30
0.0
 11
3669.8769885932861143
 21
151.217193575163293
 31
0.0
  0
LINE
  5
F409
  8
0
 10
3669.8695353828279622
 20
151.2080652937569027
 30
0.0
 11
3669.8695353828279622
 21
151.1962337826568898
 31
0.0
  0
LINE
  5
F40A
  8
0
 10
3669.8440774181281085
 20
151.2343730066569094
 30
0.0
 11
3669.8695353828279622
 21
151.2343730066569094
 31
0.0
  0
LINE
  5
F40B
  8
0
 10
3669.8695353828279622
 20
151.2343730066569094
 30
0.0
 11
3669.881741937228071
 21
151.2493229216568977
 31
0.0
  0
LINE
  5
F40C
  8
0
 10
3669.881741937228071
 20
151.2493229216568977
 30
0.0
 11
3669.8701719587279513
 21
151.2639513925568906
 31
0.0
  0
LINE
  5
F40D
  8
0
 10
3669.8701719587279513
 20
151.2639513925568906
 30
0.0
 11
3669.8434408422281194
 21
151.2639513925568906
 31
0.0
  0
LINE
  5
F40E
  8
0
 10
3669.8434408422281194
 20
151.2639513925568906
 30
0.0
 11
3669.8318708637279997
 21
151.2493229216568977
 31
0.0
  0
LINE
  5
F40F
  8
0
 10
3669.8318708637279997
 20
151.2493229216568977
 30
0.0
 11
3669.8440774181281085
 21
151.2343730066569094
 31
0.0
  0
LINE
  5
F410
  8
0
 10
3669.8440774181281085
 20
151.2343730066569094
 30
0.0
 11
3669.8440774181281085
 21
151.2462045177568939
 31
0.0
  0
LINE
  5
F411
  8
0
 10
3669.8440774181281085
 20
151.2462045177568939
 30
0.0
 11
3669.8366242076699564
 21
151.2553327991633125
 31
0.0
  0
LINE
  5
F412
  8
0
 10
3669.8440774181281085
 20
151.2462045177568939
 30
0.0
 11
3669.8695353828279622
 21
151.2462045177568939
 31
0.0
  0
LINE
  5
F413
  8
0
 10
3669.8695353828279622
 20
151.2462045177568939
 30
0.0
 11
3669.8769885932861143
 21
151.2553327991633125
 31
0.0
  0
LINE
  5
F414
  8
0
 10
3669.8695353828279622
 20
151.2462045177568939
 30
0.0
 11
3669.8695353828279622
 21
151.2343730066569094
 31
0.0
  0
LINE
  5
F415
  8
0
 10
3669.8440774181281085
 20
151.2725122306569006
 30
0.0
 11
3669.8695353828279622
 21
151.2725122306569006
 31
0.0
  0
LINE
  5
F416
  8
0
 10
3669.8695353828279622
 20
151.2725122306569006
 30
0.0
 11
3669.881741937228071
 21
151.2874621456568889
 31
0.0
  0
LINE
  5
F417
  8
0
 10
3669.881741937228071
 20
151.2874621456568889
 30
0.0
 11
3669.8701719587279513
 21
151.3020906165569102
 31
0.0
  0
LINE
  5
F418
  8
0
 10
3669.8701719587279513
 20
151.3020906165569102
 30
0.0
 11
3669.8434408422281194
 21
151.3020906165569102
 31
0.0
  0
LINE
  5
F419
  8
0
 10
3669.8434408422281194
 20
151.3020906165569102
 30
0.0
 11
3669.8318708637279997
 21
151.2874621456568889
 31
0.0
  0
LINE
  5
F41A
  8
0
 10
3669.8318708637279997
 20
151.2874621456568889
 30
0.0
 11
3669.8440774181281085
 21
151.2725122306569006
 31
0.0
  0
LINE
  5
F41B
  8
0
 10
3669.8440774181281085
 20
151.2725122306569006
 30
0.0
 11
3669.8440774181281085
 21
151.2843437417569135
 31
0.0
  0
LINE
  5
F41C
  8
0
 10
3669.8440774181281085
 20
151.2843437417569135
 30
0.0
 11
3669.8366242076699564
 21
151.2934720231633037
 31
0.0
  0
LINE
  5
F41D
  8
0
 10
3669.8440774181281085
 20
151.2843437417569135
 30
0.0
 11
3669.8695353828279622
 21
151.2843437417569135
 31
0.0
  0
LINE
  5
F41E
  8
0
 10
3669.8695353828279622
 20
151.2843437417569135
 30
0.0
 11
3669.8769885932861143
 21
151.2934720231633037
 31
0.0
  0
LINE
  5
F41F
  8
0
 10
3669.8695353828279622
 20
151.2843437417569135
 30
0.0
 11
3669.8695353828279622
 21
151.2725122306569006
 31
0.0
  0
LINE
  5
F420
  8
0
 10
3669.8440774181281085
 20
151.3106514546568917
 30
0.0
 11
3669.8695353828279622
 21
151.3106514546568917
 31
0.0
  0
LINE
  5
F421
  8
0
 10
3669.8695353828279622
 20
151.3106514546568917
 30
0.0
 11
3669.881741937228071
 21
151.3256013696569084
 31
0.0
  0
LINE
  5
F422
  8
0
 10
3669.881741937228071
 20
151.3256013696569084
 30
0.0
 11
3669.8701719587279513
 21
151.3402298405569013
 31
0.0
  0
LINE
  5
F423
  8
0
 10
3669.8701719587279513
 20
151.3402298405569013
 30
0.0
 11
3669.8434408422281194
 21
151.3402298405569013
 31
0.0
  0
LINE
  5
F424
  8
0
 10
3669.8434408422281194
 20
151.3402298405569013
 30
0.0
 11
3669.8318708637279997
 21
151.3256013696569084
 31
0.0
  0
LINE
  5
F425
  8
0
 10
3669.8318708637279997
 20
151.3256013696569084
 30
0.0
 11
3669.8440774181281085
 21
151.3106514546568917
 31
0.0
  0
LINE
  5
F426
  8
0
 10
3669.8440774181281085
 20
151.3106514546568917
 30
0.0
 11
3669.8440774181281085
 21
151.3224829657569046
 31
0.0
  0
LINE
  5
F427
  8
0
 10
3669.8440774181281085
 20
151.3224829657569046
 30
0.0
 11
3669.8366242076699564
 21
151.3316112471632948
 31
0.0
  0
LINE
  5
F428
  8
0
 10
3669.8440774181281085
 20
151.3224829657569046
 30
0.0
 11
3669.8695353828279622
 21
151.3224829657569046
 31
0.0
  0
LINE
  5
F429
  8
0
 10
3669.8695353828279622
 20
151.3224829657569046
 30
0.0
 11
3669.8769885932861143
 21
151.3316112471632948
 31
0.0
  0
LINE
  5
F42A
  8
0
 10
3669.8695353828279622
 20
151.3224829657569046
 30
0.0
 11
3669.8695353828279622
 21
151.3106514546568917
 31
0.0
  0
LINE
  5
F42B
  8
0
 10
3669.8440774181281085
 20
151.38692990275689
 30
0.0
 11
3669.8695353828279622
 21
151.38692990275689
 31
0.0
  0
LINE
  5
F42C
  8
0
 10
3669.8695353828279622
 20
151.38692990275689
 30
0.0
 11
3669.881741937228071
 21
151.4018798177569067
 31
0.0
  0
LINE
  5
F42D
  8
0
 10
3669.881741937228071
 20
151.4018798177569067
 30
0.0
 11
3669.8701719587279513
 21
151.4165082886568996
 31
0.0
  0
LINE
  5
F42E
  8
0
 10
3669.8701719587279513
 20
151.4165082886568996
 30
0.0
 11
3669.8434408422281194
 21
151.4165082886568996
 31
0.0
  0
LINE
  5
F42F
  8
0
 10
3669.8434408422281194
 20
151.4165082886568996
 30
0.0
 11
3669.8318708637279997
 21
151.4018798177569067
 31
0.0
  0
LINE
  5
F430
  8
0
 10
3669.8318708637279997
 20
151.4018798177569067
 30
0.0
 11
3669.8440774181281085
 21
151.38692990275689
 31
0.0
  0
LINE
  5
F431
  8
0
 10
3669.8440774181281085
 20
151.38692990275689
 30
0.0
 11
3669.8440774181281085
 21
151.3987614138569029
 31
0.0
  0
LINE
  5
F432
  8
0
 10
3669.8440774181281085
 20
151.3987614138569029
 30
0.0
 11
3669.8366242076699564
 21
151.4078896952632931
 31
0.0
  0
LINE
  5
F433
  8
0
 10
3669.8440774181281085
 20
151.3987614138569029
 30
0.0
 11
3669.8695353828279622
 21
151.3987614138569029
 31
0.0
  0
LINE
  5
F434
  8
0
 10
3669.8695353828279622
 20
151.3987614138569029
 30
0.0
 11
3669.8769885932861143
 21
151.4078896952632931
 31
0.0
  0
LINE
  5
F435
  8
0
 10
3669.8695353828279622
 20
151.3987614138569029
 30
0.0
 11
3669.8695353828279622
 21
151.38692990275689
 31
0.0
  0
LINE
  5
F436
  8
0
 10
3669.8907882371790947
 20
151.1390249465569013
 30
0.0
 11
3669.9162462018789483
 21
151.1390249465569013
 31
0.0
  0
LINE
  5
F437
  8
0
 10
3669.9162462018789483
 20
151.1390249465569013
 30
0.0
 11
3669.9284527562781477
 21
151.1539748615568897
 31
0.0
  0
LINE
  5
F438
  8
0
 10
3669.9284527562781477
 20
151.1539748615568897
 30
0.0
 11
3669.9168827777789375
 21
151.1686033324569109
 31
0.0
  0
LINE
  5
F439
  8
0
 10
3669.9168827777789375
 20
151.1686033324569109
 30
0.0
 11
3669.8901516612791056
 21
151.1686033324569109
 31
0.0
  0
LINE
  5
F43A
  8
0
 10
3669.8901516612791056
 20
151.1686033324569109
 30
0.0
 11
3669.8785816827780764
 21
151.1539748615568897
 31
0.0
  0
LINE
  5
F43B
  8
0
 10
3669.8785816827780764
 20
151.1539748615568897
 30
0.0
 11
3669.8907882371790947
 21
151.1390249465569013
 31
0.0
  0
LINE
  5
F43C
  8
0
 10
3669.8907882371790947
 20
151.1390249465569013
 30
0.0
 11
3669.8907882371790947
 21
151.1508564576568858
 31
0.0
  0
LINE
  5
F43D
  8
0
 10
3669.8907882371790947
 20
151.1508564576568858
 30
0.0
 11
3669.8833350267209426
 21
151.1599847390633045
 31
0.0
  0
LINE
  5
F43E
  8
0
 10
3669.8907882371790947
 20
151.1508564576568858
 30
0.0
 11
3669.9162462018789483
 21
151.1508564576568858
 31
0.0
  0
LINE
  5
F43F
  8
0
 10
3669.9162462018789483
 20
151.1508564576568858
 30
0.0
 11
3669.923699412336191
 21
151.1599847390633045
 31
0.0
  0
LINE
  5
F440
  8
0
 10
3669.9162462018789483
 20
151.1508564576568858
 30
0.0
 11
3669.9162462018789483
 21
151.1390249465569013
 31
0.0
  0
LINE
  5
F441
  8
0
 10
3669.8907882371790947
 20
151.2153033946568996
 30
0.0
 11
3669.9162462018789483
 21
151.2153033946568996
 31
0.0
  0
LINE
  5
F442
  8
0
 10
3669.9162462018789483
 20
151.2153033946568996
 30
0.0
 11
3669.9284527562781477
 21
151.230253309656888
 31
0.0
  0
LINE
  5
F443
  8
0
 10
3669.9284527562781477
 20
151.230253309656888
 30
0.0
 11
3669.9168827777789375
 21
151.2448817805569092
 31
0.0
  0
LINE
  5
F444
  8
0
 10
3669.9168827777789375
 20
151.2448817805569092
 30
0.0
 11
3669.8901516612791056
 21
151.2448817805569092
 31
0.0
  0
LINE
  5
F445
  8
0
 10
3669.8901516612791056
 20
151.2448817805569092
 30
0.0
 11
3669.8785816827780764
 21
151.230253309656888
 31
0.0
  0
LINE
  5
F446
  8
0
 10
3669.8785816827780764
 20
151.230253309656888
 30
0.0
 11
3669.8907882371790947
 21
151.2153033946568996
 31
0.0
  0
LINE
  5
F447
  8
0
 10
3669.8907882371790947
 20
151.2153033946568996
 30
0.0
 11
3669.8907882371790947
 21
151.2271349057569125
 31
0.0
  0
LINE
  5
F448
  8
0
 10
3669.8907882371790947
 20
151.2271349057569125
 30
0.0
 11
3669.8833350267209426
 21
151.2362631871633027
 31
0.0
  0
LINE
  5
F449
  8
0
 10
3669.8907882371790947
 20
151.2271349057569125
 30
0.0
 11
3669.9162462018789483
 21
151.2271349057569125
 31
0.0
  0
LINE
  5
F44A
  8
0
 10
3669.9162462018789483
 20
151.2271349057569125
 30
0.0
 11
3669.923699412336191
 21
151.2362631871633027
 31
0.0
  0
LINE
  5
F44B
  8
0
 10
3669.9162462018789483
 20
151.2271349057569125
 30
0.0
 11
3669.9162462018789483
 21
151.2153033946568996
 31
0.0
  0
LINE
  5
F44C
  8
0
 10
3669.8907882371790947
 20
151.2534426186568908
 30
0.0
 11
3669.9162462018789483
 21
151.2534426186568908
 31
0.0
  0
LINE
  5
F44D
  8
0
 10
3669.9162462018789483
 20
151.2534426186568908
 30
0.0
 11
3669.9284527562781477
 21
151.2683925336569075
 31
0.0
  0
LINE
  5
F44E
  8
0
 10
3669.9284527562781477
 20
151.2683925336569075
 30
0.0
 11
3669.9168827777789375
 21
151.2830210045569004
 31
0.0
  0
LINE
  5
F44F
  8
0
 10
3669.9168827777789375
 20
151.2830210045569004
 30
0.0
 11
3669.8901516612791056
 21
151.2830210045569004
 31
0.0
  0
LINE
  5
F450
  8
0
 10
3669.8901516612791056
 20
151.2830210045569004
 30
0.0
 11
3669.8785816827780764
 21
151.2683925336569075
 31
0.0
  0
LINE
  5
F451
  8
0
 10
3669.8785816827780764
 20
151.2683925336569075
 30
0.0
 11
3669.8907882371790947
 21
151.2534426186568908
 31
0.0
  0
LINE
  5
F452
  8
0
 10
3669.8907882371790947
 20
151.2534426186568908
 30
0.0
 11
3669.8907882371790947
 21
151.2652741297569037
 31
0.0
  0
LINE
  5
F453
  8
0
 10
3669.8907882371790947
 20
151.2652741297569037
 30
0.0
 11
3669.8833350267209426
 21
151.2744024111632939
 31
0.0
  0
LINE
  5
F454
  8
0
 10
3669.8907882371790947
 20
151.2652741297569037
 30
0.0
 11
3669.9162462018789483
 21
151.2652741297569037
 31
0.0
  0
LINE
  5
F455
  8
0
 10
3669.9162462018789483
 20
151.2652741297569037
 30
0.0
 11
3669.923699412336191
 21
151.2744024111632939
 31
0.0
  0
LINE
  5
F456
  8
0
 10
3669.9162462018789483
 20
151.2652741297569037
 30
0.0
 11
3669.9162462018789483
 21
151.2534426186568908
 31
0.0
  0
LINE
  5
F457
  8
0
 10
3669.8907882371790947
 20
151.2915818426569103
 30
0.0
 11
3669.9162462018789483
 21
151.2915818426569103
 31
0.0
  0
LINE
  5
F458
  8
0
 10
3669.9162462018789483
 20
151.2915818426569103
 30
0.0
 11
3669.9284527562781477
 21
151.3065317576568987
 31
0.0
  0
LINE
  5
F459
  8
0
 10
3669.9284527562781477
 20
151.3065317576568987
 30
0.0
 11
3669.9168827777789375
 21
151.3211602285568915
 31
0.0
  0
LINE
  5
F45A
  8
0
 10
3669.9168827777789375
 20
151.3211602285568915
 30
0.0
 11
3669.8901516612791056
 21
151.3211602285568915
 31
0.0
  0
LINE
  5
F45B
  8
0
 10
3669.8901516612791056
 20
151.3211602285568915
 30
0.0
 11
3669.8785816827780764
 21
151.3065317576568987
 31
0.0
  0
LINE
  5
F45C
  8
0
 10
3669.8785816827780764
 20
151.3065317576568987
 30
0.0
 11
3669.8907882371790947
 21
151.2915818426569103
 31
0.0
  0
LINE
  5
F45D
  8
0
 10
3669.8907882371790947
 20
151.2915818426569103
 30
0.0
 11
3669.8907882371790947
 21
151.3034133537568948
 31
0.0
  0
LINE
  5
F45E
  8
0
 10
3669.8907882371790947
 20
151.3034133537568948
 30
0.0
 11
3669.8833350267209426
 21
151.3125416351633135
 31
0.0
  0
LINE
  5
F45F
  8
0
 10
3669.8907882371790947
 20
151.3034133537568948
 30
0.0
 11
3669.9162462018789483
 21
151.3034133537568948
 31
0.0
  0
LINE
  5
F460
  8
0
 10
3669.9162462018789483
 20
151.3034133537568948
 30
0.0
 11
3669.923699412336191
 21
151.3125416351633135
 31
0.0
  0
LINE
  5
F461
  8
0
 10
3669.9162462018789483
 20
151.3034133537568948
 30
0.0
 11
3669.9162462018789483
 21
151.2915818426569103
 31
0.0
  0
LINE
  5
F462
  8
0
 10
3669.8907882371790947
 20
151.3297210667568891
 30
0.0
 11
3669.9162462018789483
 21
151.3297210667568891
 31
0.0
  0
LINE
  5
F463
  8
0
 10
3669.9162462018789483
 20
151.3297210667568891
 30
0.0
 11
3669.9284527562781477
 21
151.3446709817569058
 31
0.0
  0
LINE
  5
F464
  8
0
 10
3669.9284527562781477
 20
151.3446709817569058
 30
0.0
 11
3669.9168827777789375
 21
151.3592994526568987
 31
0.0
  0
LINE
  5
F465
  8
0
 10
3669.9168827777789375
 20
151.3592994526568987
 30
0.0
 11
3669.8901516612791056
 21
151.3592994526568987
 31
0.0
  0
LINE
  5
F466
  8
0
 10
3669.8901516612791056
 20
151.3592994526568987
 30
0.0
 11
3669.8785816827780764
 21
151.3446709817569058
 31
0.0
  0
LINE
  5
F467
  8
0
 10
3669.8785816827780764
 20
151.3446709817569058
 30
0.0
 11
3669.8907882371790947
 21
151.3297210667568891
 31
0.0
  0
LINE
  5
F468
  8
0
 10
3669.8907882371790947
 20
151.3297210667568891
 30
0.0
 11
3669.8907882371790947
 21
151.341552577856902
 31
0.0
  0
LINE
  5
F469
  8
0
 10
3669.8907882371790947
 20
151.341552577856902
 30
0.0
 11
3669.8833350267209426
 21
151.3506808592632922
 31
0.0
  0
LINE
  5
F46A
  8
0
 10
3669.8907882371790947
 20
151.341552577856902
 30
0.0
 11
3669.9162462018789483
 21
151.341552577856902
 31
0.0
  0
LINE
  5
F46B
  8
0
 10
3669.9162462018789483
 20
151.341552577856902
 30
0.0
 11
3669.923699412336191
 21
151.3506808592632922
 31
0.0
  0
LINE
  5
F46C
  8
0
 10
3669.9162462018789483
 20
151.341552577856902
 30
0.0
 11
3669.9162462018789483
 21
151.3297210667568891
 31
0.0
  0
LINE
  5
F46D
  8
0
 10
3669.8907882371790947
 20
151.3678602907569086
 30
0.0
 11
3669.9162462018789483
 21
151.3678602907569086
 31
0.0
  0
LINE
  5
F46E
  8
0
 10
3669.9162462018789483
 20
151.3678602907569086
 30
0.0
 11
3669.9284527562781477
 21
151.3828102057568969
 31
0.0
  0
LINE
  5
F46F
  8
0
 10
3669.9284527562781477
 20
151.3828102057568969
 30
0.0
 11
3669.9168827777789375
 21
151.3974386766568898
 31
0.0
  0
LINE
  5
F470
  8
0
 10
3669.9168827777789375
 20
151.3974386766568898
 30
0.0
 11
3669.8901516612791056
 21
151.3974386766568898
 31
0.0
  0
LINE
  5
F471
  8
0
 10
3669.8901516612791056
 20
151.3974386766568898
 30
0.0
 11
3669.8785816827780764
 21
151.3828102057568969
 31
0.0
  0
LINE
  5
F472
  8
0
 10
3669.8785816827780764
 20
151.3828102057568969
 30
0.0
 11
3669.8907882371790947
 21
151.3678602907569086
 31
0.0
  0
LINE
  5
F473
  8
0
 10
3669.8907882371790947
 20
151.3678602907569086
 30
0.0
 11
3669.8907882371790947
 21
151.3796918018568931
 31
0.0
  0
LINE
  5
F474
  8
0
 10
3669.8907882371790947
 20
151.3796918018568931
 30
0.0
 11
3669.8833350267209426
 21
151.3888200832633117
 31
0.0
  0
LINE
  5
F475
  8
0
 10
3669.8907882371790947
 20
151.3796918018568931
 30
0.0
 11
3669.9162462018789483
 21
151.3796918018568931
 31
0.0
  0
LINE
  5
F476
  8
0
 10
3669.9162462018789483
 20
151.3796918018568931
 30
0.0
 11
3669.923699412336191
 21
151.3888200832633117
 31
0.0
  0
LINE
  5
F477
  8
0
 10
3669.9162462018789483
 20
151.3796918018568931
 30
0.0
 11
3669.9162462018789483
 21
151.3678602907569086
 31
0.0
  0
LINE
  5
F478
  8
0
 10
3669.8907882371790947
 20
151.4059995147568998
 30
0.0
 11
3669.9162462018789483
 21
151.4059995147568998
 31
0.0
  0
LINE
  5
F479
  8
0
 10
3669.9162462018789483
 20
151.4059995147568998
 30
0.0
 11
3669.9284527562781477
 21
151.4209494297568881
 31
0.0
  0
LINE
  5
F47A
  8
0
 10
3669.9284527562781477
 20
151.4209494297568881
 30
0.0
 11
3669.9168827777789375
 21
151.4355779006569094
 31
0.0
  0
LINE
  5
F47B
  8
0
 10
3669.9168827777789375
 20
151.4355779006569094
 30
0.0
 11
3669.9037175656421823
 21
151.4355779006569094
 31
0.0
  0
LINE
  5
F47C
  8
0
 10
3669.8879139119640058
 20
151.4327486083878114
 30
0.0
 11
3669.8785816827780764
 21
151.4209494297568881
 31
0.0
  0
LINE
  5
F47D
  8
0
 10
3669.8785816827780764
 20
151.4209494297568881
 30
0.0
 11
3669.8907882371790947
 21
151.4059995147568998
 31
0.0
  0
LINE
  5
F47E
  8
0
 10
3669.8907882371790947
 20
151.4059995147568998
 30
0.0
 11
3669.8907882371790947
 21
151.4178310258569127
 31
0.0
  0
LINE
  5
F47F
  8
0
 10
3669.8907882371790947
 20
151.4178310258569127
 30
0.0
 11
3669.8833350267209426
 21
151.4269593072633029
 31
0.0
  0
LINE
  5
F480
  8
0
 10
3669.8907882371790947
 20
151.4178310258569127
 30
0.0
 11
3669.9162462018789483
 21
151.4178310258569127
 31
0.0
  0
LINE
  5
F481
  8
0
 10
3669.9162462018789483
 20
151.4178310258569127
 30
0.0
 11
3669.923699412336191
 21
151.4269593072633029
 31
0.0
  0
LINE
  5
F482
  8
0
 10
3669.9162462018789483
 20
151.4178310258569127
 30
0.0
 11
3669.9162462018789483
 21
151.4059995147568998
 31
0.0
  0
LINE
  5
F483
  8
0
 10
3669.7973665990780319
 20
151.1771641706569085
 30
0.0
 11
3669.8228245637778855
 21
151.1771641706569085
 31
0.0
  0
LINE
  5
F484
  8
0
 10
3669.8228245637778855
 20
151.1771641706569085
 30
0.0
 11
3669.8350311181789039
 21
151.1921140856568968
 31
0.0
  0
LINE
  5
F485
  8
0
 10
3669.8350311181789039
 20
151.1921140856568968
 30
0.0
 11
3669.8234611396778746
 21
151.2067425565568897
 31
0.0
  0
LINE
  5
F486
  8
0
 10
3669.8234611396778746
 20
151.2067425565568897
 30
0.0
 11
3669.7967300231780428
 21
151.2067425565568897
 31
0.0
  0
LINE
  5
F487
  8
0
 10
3669.7967300231780428
 20
151.2067425565568897
 30
0.0
 11
3669.785160044677923
 21
151.1921140856568968
 31
0.0
  0
LINE
  5
F488
  8
0
 10
3669.785160044677923
 20
151.1921140856568968
 30
0.0
 11
3669.7973665990780319
 21
151.1771641706569085
 31
0.0
  0
LINE
  5
F489
  8
0
 10
3669.7973665990780319
 20
151.1771641706569085
 30
0.0
 11
3669.7973665990780319
 21
151.188995681756893
 31
0.0
  0
LINE
  5
F48A
  8
0
 10
3669.7973665990780319
 20
151.188995681756893
 30
0.0
 11
3669.7899133886198797
 21
151.1981239631633116
 31
0.0
  0
LINE
  5
F48B
  8
0
 10
3669.7973665990780319
 20
151.188995681756893
 30
0.0
 11
3669.8228245637778855
 21
151.188995681756893
 31
0.0
  0
LINE
  5
F48C
  8
0
 10
3669.8228245637778855
 20
151.188995681756893
 30
0.0
 11
3669.8302777742369472
 21
151.1981239631633116
 31
0.0
  0
LINE
  5
F48D
  8
0
 10
3669.8228245637778855
 20
151.188995681756893
 30
0.0
 11
3669.8228245637778855
 21
151.1771641706569085
 31
0.0
  0
LINE
  5
F48E
  8
0
 10
3669.7973665990780319
 20
151.2153033946568996
 30
0.0
 11
3669.8228245637778855
 21
151.2153033946568996
 31
0.0
  0
LINE
  5
F48F
  8
0
 10
3669.8228245637778855
 20
151.2153033946568996
 30
0.0
 11
3669.8350311181789039
 21
151.230253309656888
 31
0.0
  0
LINE
  5
F490
  8
0
 10
3669.8350311181789039
 20
151.230253309656888
 30
0.0
 11
3669.8234611396778746
 21
151.2448817805569092
 31
0.0
  0
LINE
  5
F491
  8
0
 10
3669.8234611396778746
 20
151.2448817805569092
 30
0.0
 11
3669.7967300231780428
 21
151.2448817805569092
 31
0.0
  0
LINE
  5
F492
  8
0
 10
3669.7967300231780428
 20
151.2448817805569092
 30
0.0
 11
3669.785160044677923
 21
151.230253309656888
 31
0.0
  0
LINE
  5
F493
  8
0
 10
3669.785160044677923
 20
151.230253309656888
 30
0.0
 11
3669.7973665990780319
 21
151.2153033946568996
 31
0.0
  0
LINE
  5
F494
  8
0
 10
3669.7973665990780319
 20
151.2153033946568996
 30
0.0
 11
3669.7973665990780319
 21
151.2271349057569125
 31
0.0
  0
LINE
  5
F495
  8
0
 10
3669.7973665990780319
 20
151.2271349057569125
 30
0.0
 11
3669.7899133886198797
 21
151.2362631871633027
 31
0.0
  0
LINE
  5
F496
  8
0
 10
3669.7973665990780319
 20
151.2271349057569125
 30
0.0
 11
3669.8228245637778855
 21
151.2271349057569125
 31
0.0
  0
LINE
  5
F497
  8
0
 10
3669.8228245637778855
 20
151.2271349057569125
 30
0.0
 11
3669.8302777742369472
 21
151.2362631871633027
 31
0.0
  0
LINE
  5
F498
  8
0
 10
3669.8228245637778855
 20
151.2271349057569125
 30
0.0
 11
3669.8228245637778855
 21
151.2153033946568996
 31
0.0
  0
LINE
  5
F499
  8
0
 10
3669.7973665990780319
 20
151.2534426186568908
 30
0.0
 11
3669.8228245637778855
 21
151.2534426186568908
 31
0.0
  0
LINE
  5
F49A
  8
0
 10
3669.8228245637778855
 20
151.2534426186568908
 30
0.0
 11
3669.8350311181789039
 21
151.2683925336569075
 31
0.0
  0
LINE
  5
F49B
  8
0
 10
3669.8350311181789039
 20
151.2683925336569075
 30
0.0
 11
3669.8234611396778746
 21
151.2830210045569004
 31
0.0
  0
LINE
  5
F49C
  8
0
 10
3669.8234611396778746
 20
151.2830210045569004
 30
0.0
 11
3669.7967300231780428
 21
151.2830210045569004
 31
0.0
  0
LINE
  5
F49D
  8
0
 10
3669.7967300231780428
 20
151.2830210045569004
 30
0.0
 11
3669.785160044677923
 21
151.2683925336569075
 31
0.0
  0
LINE
  5
F49E
  8
0
 10
3669.785160044677923
 20
151.2683925336569075
 30
0.0
 11
3669.7973665990780319
 21
151.2534426186568908
 31
0.0
  0
LINE
  5
F49F
  8
0
 10
3669.7973665990780319
 20
151.2534426186568908
 30
0.0
 11
3669.7973665990780319
 21
151.2652741297569037
 31
0.0
  0
LINE
  5
F4A0
  8
0
 10
3669.7973665990780319
 20
151.2652741297569037
 30
0.0
 11
3669.7899133886198797
 21
151.2744024111632939
 31
0.0
  0
LINE
  5
F4A1
  8
0
 10
3669.7973665990780319
 20
151.2652741297569037
 30
0.0
 11
3669.8228245637778855
 21
151.2652741297569037
 31
0.0
  0
LINE
  5
F4A2
  8
0
 10
3669.8228245637778855
 20
151.2652741297569037
 30
0.0
 11
3669.8302777742369472
 21
151.2744024111632939
 31
0.0
  0
LINE
  5
F4A3
  8
0
 10
3669.8228245637778855
 20
151.2652741297569037
 30
0.0
 11
3669.8228245637778855
 21
151.2534426186568908
 31
0.0
  0
LINE
  5
F4A4
  8
0
 10
3669.7973665990780319
 20
151.2915818426569103
 30
0.0
 11
3669.8228245637778855
 21
151.2915818426569103
 31
0.0
  0
LINE
  5
F4A5
  8
0
 10
3669.8228245637778855
 20
151.2915818426569103
 30
0.0
 11
3669.8350311181789039
 21
151.3065317576568987
 31
0.0
  0
LINE
  5
F4A6
  8
0
 10
3669.8350311181789039
 20
151.3065317576568987
 30
0.0
 11
3669.8234611396778746
 21
151.3211602285568915
 31
0.0
  0
LINE
  5
F4A7
  8
0
 10
3669.8234611396778746
 20
151.3211602285568915
 30
0.0
 11
3669.7967300231780428
 21
151.3211602285568915
 31
0.0
  0
LINE
  5
F4A8
  8
0
 10
3669.7967300231780428
 20
151.3211602285568915
 30
0.0
 11
3669.785160044677923
 21
151.3065317576568987
 31
0.0
  0
LINE
  5
F4A9
  8
0
 10
3669.785160044677923
 20
151.3065317576568987
 30
0.0
 11
3669.7973665990780319
 21
151.2915818426569103
 31
0.0
  0
LINE
  5
F4AA
  8
0
 10
3669.7973665990780319
 20
151.2915818426569103
 30
0.0
 11
3669.7973665990780319
 21
151.3034133537568948
 31
0.0
  0
LINE
  5
F4AB
  8
0
 10
3669.7973665990780319
 20
151.3034133537568948
 30
0.0
 11
3669.7899133886198797
 21
151.3125416351633135
 31
0.0
  0
LINE
  5
F4AC
  8
0
 10
3669.7973665990780319
 20
151.3034133537568948
 30
0.0
 11
3669.8228245637778855
 21
151.3034133537568948
 31
0.0
  0
LINE
  5
F4AD
  8
0
 10
3669.8228245637778855
 20
151.3034133537568948
 30
0.0
 11
3669.8302777742369472
 21
151.3125416351633135
 31
0.0
  0
LINE
  5
F4AE
  8
0
 10
3669.8228245637778855
 20
151.3034133537568948
 30
0.0
 11
3669.8228245637778855
 21
151.2915818426569103
 31
0.0
  0
LINE
  5
F4AF
  8
0
 10
3669.7973665990780319
 20
151.3297210667568891
 30
0.0
 11
3669.8228245637778855
 21
151.3297210667568891
 31
0.0
  0
LINE
  5
F4B0
  8
0
 10
3669.8228245637778855
 20
151.3297210667568891
 30
0.0
 11
3669.8350311181789039
 21
151.3446709817569058
 31
0.0
  0
LINE
  5
F4B1
  8
0
 10
3669.8350311181789039
 20
151.3446709817569058
 30
0.0
 11
3669.8234611396778746
 21
151.3592994526568987
 31
0.0
  0
LINE
  5
F4B2
  8
0
 10
3669.8234611396778746
 20
151.3592994526568987
 30
0.0
 11
3669.7967300231780428
 21
151.3592994526568987
 31
0.0
  0
LINE
  5
F4B3
  8
0
 10
3669.7967300231780428
 20
151.3592994526568987
 30
0.0
 11
3669.785160044677923
 21
151.3446709817569058
 31
0.0
  0
LINE
  5
F4B4
  8
0
 10
3669.785160044677923
 20
151.3446709817569058
 30
0.0
 11
3669.7973665990780319
 21
151.3297210667568891
 31
0.0
  0
LINE
  5
F4B5
  8
0
 10
3669.7973665990780319
 20
151.3297210667568891
 30
0.0
 11
3669.7973665990780319
 21
151.341552577856902
 31
0.0
  0
LINE
  5
F4B6
  8
0
 10
3669.7973665990780319
 20
151.341552577856902
 30
0.0
 11
3669.7899133886198797
 21
151.3506808592632922
 31
0.0
  0
LINE
  5
F4B7
  8
0
 10
3669.7973665990780319
 20
151.341552577856902
 30
0.0
 11
3669.8228245637778855
 21
151.341552577856902
 31
0.0
  0
LINE
  5
F4B8
  8
0
 10
3669.8228245637778855
 20
151.341552577856902
 30
0.0
 11
3669.8302777742369472
 21
151.3506808592632922
 31
0.0
  0
LINE
  5
F4B9
  8
0
 10
3669.8228245637778855
 20
151.341552577856902
 30
0.0
 11
3669.8228245637778855
 21
151.3297210667568891
 31
0.0
  0
LINE
  5
F4BA
  8
0
 10
3669.7973665990780319
 20
151.3678602907569086
 30
0.0
 11
3669.8228245637778855
 21
151.3678602907569086
 31
0.0
  0
LINE
  5
F4BB
  8
0
 10
3669.8228245637778855
 20
151.3678602907569086
 30
0.0
 11
3669.8350311181789039
 21
151.3828102057568969
 31
0.0
  0
LINE
  5
F4BC
  8
0
 10
3669.8350311181789039
 20
151.3828102057568969
 30
0.0
 11
3669.8234611396778746
 21
151.3974386766568898
 31
0.0
  0
LINE
  5
F4BD
  8
0
 10
3669.8234611396778746
 20
151.3974386766568898
 30
0.0
 11
3669.7967300231780428
 21
151.3974386766568898
 31
0.0
  0
LINE
  5
F4BE
  8
0
 10
3669.7967300231780428
 20
151.3974386766568898
 30
0.0
 11
3669.785160044677923
 21
151.3828102057568969
 31
0.0
  0
LINE
  5
F4BF
  8
0
 10
3669.785160044677923
 20
151.3828102057568969
 30
0.0
 11
3669.7973665990780319
 21
151.3678602907569086
 31
0.0
  0
LINE
  5
F4C0
  8
0
 10
3669.7973665990780319
 20
151.3678602907569086
 30
0.0
 11
3669.7973665990780319
 21
151.3796918018568931
 31
0.0
  0
LINE
  5
F4C1
  8
0
 10
3669.7973665990780319
 20
151.3796918018568931
 30
0.0
 11
3669.7899133886198797
 21
151.3888200832633117
 31
0.0
  0
LINE
  5
F4C2
  8
0
 10
3669.7973665990780319
 20
151.3796918018568931
 30
0.0
 11
3669.8228245637778855
 21
151.3796918018568931
 31
0.0
  0
LINE
  5
F4C3
  8
0
 10
3669.8228245637778855
 20
151.3796918018568931
 30
0.0
 11
3669.8302777742369472
 21
151.3888200832633117
 31
0.0
  0
LINE
  5
F4C4
  8
0
 10
3669.8228245637778855
 20
151.3796918018568931
 30
0.0
 11
3669.8228245637778855
 21
151.3678602907569086
 31
0.0
  0
LINE
  5
F4C5
  8
0
 10
3669.7506557800779774
 20
151.2343730066569094
 30
0.0
 11
3669.7761137447791953
 21
151.2343730066569094
 31
0.0
  0
LINE
  5
F4C6
  8
0
 10
3669.7761137447791953
 20
151.2343730066569094
 30
0.0
 11
3669.7883202991779399
 21
151.2493229216568977
 31
0.0
  0
LINE
  5
F4C7
  8
0
 10
3669.7883202991779399
 20
151.2493229216568977
 30
0.0
 11
3669.7767503206791844
 21
151.2639513925568906
 31
0.0
  0
LINE
  5
F4C8
  8
0
 10
3669.7767503206791844
 20
151.2639513925568906
 30
0.0
 11
3669.7500192041779883
 21
151.2639513925568906
 31
0.0
  0
LINE
  5
F4C9
  8
0
 10
3669.7500192041779883
 20
151.2639513925568906
 30
0.0
 11
3669.7384492256778685
 21
151.2493229216568977
 31
0.0
  0
LINE
  5
F4CA
  8
0
 10
3669.7384492256778685
 20
151.2493229216568977
 30
0.0
 11
3669.7506557800779774
 21
151.2343730066569094
 31
0.0
  0
LINE
  5
F4CB
  8
0
 10
3669.7506557800779774
 20
151.2343730066569094
 30
0.0
 11
3669.7506557800779774
 21
151.2462045177568939
 31
0.0
  0
LINE
  5
F4CC
  8
0
 10
3669.7506557800779774
 20
151.2462045177568939
 30
0.0
 11
3669.7432025696198252
 21
151.2553327991633125
 31
0.0
  0
LINE
  5
F4CD
  8
0
 10
3669.7506557800779774
 20
151.2462045177568939
 30
0.0
 11
3669.7761137447791953
 21
151.2462045177568939
 31
0.0
  0
LINE
  5
F4CE
  8
0
 10
3669.7761137447791953
 20
151.2462045177568939
 30
0.0
 11
3669.7835669552359832
 21
151.2553327991633125
 31
0.0
  0
LINE
  5
F4CF
  8
0
 10
3669.7761137447791953
 20
151.2462045177568939
 30
0.0
 11
3669.7761137447791953
 21
151.2343730066569094
 31
0.0
  0
LINE
  5
F4D0
  8
0
 10
3669.7506557800779774
 20
151.2725122306569006
 30
0.0
 11
3669.7761137447791953
 21
151.2725122306569006
 31
0.0
  0
LINE
  5
F4D1
  8
0
 10
3669.7761137447791953
 20
151.2725122306569006
 30
0.0
 11
3669.7883202991779399
 21
151.2874621456568889
 31
0.0
  0
LINE
  5
F4D2
  8
0
 10
3669.7883202991779399
 20
151.2874621456568889
 30
0.0
 11
3669.7767503206791844
 21
151.3020906165569102
 31
0.0
  0
LINE
  5
F4D3
  8
0
 10
3669.7767503206791844
 20
151.3020906165569102
 30
0.0
 11
3669.7500192041779883
 21
151.3020906165569102
 31
0.0
  0
LINE
  5
F4D4
  8
0
 10
3669.7500192041779883
 20
151.3020906165569102
 30
0.0
 11
3669.7384492256778685
 21
151.2874621456568889
 31
0.0
  0
LINE
  5
F4D5
  8
0
 10
3669.7384492256778685
 20
151.2874621456568889
 30
0.0
 11
3669.7506557800779774
 21
151.2725122306569006
 31
0.0
  0
LINE
  5
F4D6
  8
0
 10
3669.7506557800779774
 20
151.2725122306569006
 30
0.0
 11
3669.7506557800779774
 21
151.2843437417569135
 31
0.0
  0
LINE
  5
F4D7
  8
0
 10
3669.7506557800779774
 20
151.2843437417569135
 30
0.0
 11
3669.7432025696198252
 21
151.2934720231633037
 31
0.0
  0
LINE
  5
F4D8
  8
0
 10
3669.7506557800779774
 20
151.2843437417569135
 30
0.0
 11
3669.7761137447791953
 21
151.2843437417569135
 31
0.0
  0
LINE
  5
F4D9
  8
0
 10
3669.7761137447791953
 20
151.2843437417569135
 30
0.0
 11
3669.7835669552359832
 21
151.2934720231633037
 31
0.0
  0
LINE
  5
F4DA
  8
0
 10
3669.7761137447791953
 20
151.2843437417569135
 30
0.0
 11
3669.7761137447791953
 21
151.2725122306569006
 31
0.0
  0
LINE
  5
F4DB
  8
0
 10
3669.7506557800779774
 20
151.3106514546568917
 30
0.0
 11
3669.7761137447791953
 21
151.3106514546568917
 31
0.0
  0
LINE
  5
F4DC
  8
0
 10
3669.7761137447791953
 20
151.3106514546568917
 30
0.0
 11
3669.7883202991779399
 21
151.3256013696569084
 31
0.0
  0
LINE
  5
F4DD
  8
0
 10
3669.7883202991779399
 20
151.3256013696569084
 30
0.0
 11
3669.7767503206791844
 21
151.3402298405569013
 31
0.0
  0
LINE
  5
F4DE
  8
0
 10
3669.7767503206791844
 20
151.3402298405569013
 30
0.0
 11
3669.7500192041779883
 21
151.3402298405569013
 31
0.0
  0
LINE
  5
F4DF
  8
0
 10
3669.7500192041779883
 20
151.3402298405569013
 30
0.0
 11
3669.7384492256778685
 21
151.3256013696569084
 31
0.0
  0
LINE
  5
F4E0
  8
0
 10
3669.7384492256778685
 20
151.3256013696569084
 30
0.0
 11
3669.7506557800779774
 21
151.3106514546568917
 31
0.0
  0
LINE
  5
F4E1
  8
0
 10
3669.7506557800779774
 20
151.3106514546568917
 30
0.0
 11
3669.7506557800779774
 21
151.3224829657569046
 31
0.0
  0
LINE
  5
F4E2
  8
0
 10
3669.7506557800779774
 20
151.3224829657569046
 30
0.0
 11
3669.7432025696198252
 21
151.3316112471632948
 31
0.0
  0
LINE
  5
F4E3
  8
0
 10
3669.7506557800779774
 20
151.3224829657569046
 30
0.0
 11
3669.7761137447791953
 21
151.3224829657569046
 31
0.0
  0
LINE
  5
F4E4
  8
0
 10
3669.7761137447791953
 20
151.3224829657569046
 30
0.0
 11
3669.7835669552359832
 21
151.3316112471632948
 31
0.0
  0
LINE
  5
F4E5
  8
0
 10
3669.7761137447791953
 20
151.3224829657569046
 30
0.0
 11
3669.7761137447791953
 21
151.3106514546568917
 31
0.0
  0
LINE
  5
F4E6
  8
0
 10
3669.7506557800779774
 20
151.3487906787568988
 30
0.0
 11
3669.7761137447791953
 21
151.3487906787568988
 31
0.0
  0
LINE
  5
F4E7
  8
0
 10
3669.7761137447791953
 20
151.3487906787568988
 30
0.0
 11
3669.7883202991779399
 21
151.3637405937568872
 31
0.0
  0
LINE
  5
F4E8
  8
0
 10
3669.7883202991779399
 20
151.3637405937568872
 30
0.0
 11
3669.7767503206791844
 21
151.3783690646569084
 31
0.0
  0
LINE
  5
F4E9
  8
0
 10
3669.7767503206791844
 20
151.3783690646569084
 30
0.0
 11
3669.7674931431229197
 21
151.3783690646569084
 31
0.0
  0
LINE
  5
F4EA
  8
0
 10
3669.7453071788168018
 20
151.3553413507655989
 30
0.0
 11
3669.7506557800779774
 21
151.3487906787568988
 31
0.0
  0
LINE
  5
F4EB
  8
0
 10
3669.7506557800779774
 20
151.3487906787568988
 30
0.0
 11
3669.7506557800779774
 21
151.3606221898569117
 31
0.0
  0
LINE
  5
F4EC
  8
0
 10
3669.7506557800779774
 20
151.3606221898569117
 30
0.0
 11
3669.7501739377707963
 21
151.3612123237595881
 31
0.0
  0
LINE
  5
F4ED
  8
0
 10
3669.7506557800779774
 20
151.3606221898569117
 30
0.0
 11
3669.7761137447791953
 21
151.3606221898569117
 31
0.0
  0
LINE
  5
F4EE
  8
0
 10
3669.7761137447791953
 20
151.3606221898569117
 30
0.0
 11
3669.7835669552359832
 21
151.369750471263302
 31
0.0
  0
LINE
  5
F4EF
  8
0
 10
3669.7761137447791953
 20
151.3606221898569117
 30
0.0
 11
3669.7761137447791953
 21
151.3487906787568988
 31
0.0
  0
LINE
  5
F4F0
  8
0
 10
3669.9374990561791492
 20
151.4250691267569096
 30
0.0
 11
3669.9629570208780933
 21
151.4250691267569096
 31
0.0
  0
LINE
  5
F4F1
  8
0
 10
3669.9267646340022111
 20
151.4382160553535073
 30
0.0
 11
3669.9374990561791492
 21
151.4250691267569096
 31
0.0
  0
LINE
  5
F4F2
  8
0
 10
3669.9374990561791492
 20
151.4250691267569096
 30
0.0
 11
3669.9374990561791492
 21
151.436900637856894
 31
0.0
  0
LINE
  5
F4F3
  8
0
 10
3669.9374990561791492
 20
151.436900637856894
 30
0.0
 11
3669.9359603781249461
 21
151.4387851259371871
 31
0.0
  0
LINE
  5
F4F4
  8
0
 10
3669.9374990561791492
 20
151.436900637856894
 30
0.0
 11
3669.9629570208780933
 21
151.436900637856894
 31
0.0
  0
LINE
  5
F4F5
  8
0
 10
3669.9374990561791492
 20
151.38692990275689
 30
0.0
 11
3669.9629570208780933
 21
151.38692990275689
 31
0.0
  0
LINE
  5
F4F6
  8
0
 10
3669.9635935967780824
 20
151.4165082886568996
 30
0.0
 11
3669.9368624802777958
 21
151.4165082886568996
 31
0.0
  0
LINE
  5
F4F7
  8
0
 10
3669.9368624802777958
 20
151.4165082886568996
 30
0.0
 11
3669.9252925017781308
 21
151.4018798177569067
 31
0.0
  0
LINE
  5
F4F8
  8
0
 10
3669.9252925017781308
 20
151.4018798177569067
 30
0.0
 11
3669.9374990561791492
 21
151.38692990275689
 31
0.0
  0
LINE
  5
F4F9
  8
0
 10
3669.9374990561791492
 20
151.38692990275689
 30
0.0
 11
3669.9374990561791492
 21
151.3987614138569029
 31
0.0
  0
LINE
  5
F4FA
  8
0
 10
3669.9374990561791492
 20
151.3987614138569029
 30
0.0
 11
3669.930045845720997
 21
151.4078896952632931
 31
0.0
  0
LINE
  5
F4FB
  8
0
 10
3669.9374990561791492
 20
151.3987614138569029
 30
0.0
 11
3669.9629570208780933
 21
151.3987614138569029
 31
0.0
  0
LINE
  5
F4FC
  8
0
 10
3669.9374990561791492
 20
151.3487906787568988
 30
0.0
 11
3669.9629570208780933
 21
151.3487906787568988
 31
0.0
  0
LINE
  5
F4FD
  8
0
 10
3669.9635935967780824
 20
151.3783690646569084
 30
0.0
 11
3669.9368624802777958
 21
151.3783690646569084
 31
0.0
  0
LINE
  5
F4FE
  8
0
 10
3669.9368624802777958
 20
151.3783690646569084
 30
0.0
 11
3669.9252925017781308
 21
151.3637405937568872
 31
0.0
  0
LINE
  5
F4FF
  8
0
 10
3669.9252925017781308
 20
151.3637405937568872
 30
0.0
 11
3669.9374990561791492
 21
151.3487906787568988
 31
0.0
  0
LINE
  5
F500
  8
0
 10
3669.9374990561791492
 20
151.3487906787568988
 30
0.0
 11
3669.9374990561791492
 21
151.3606221898569117
 31
0.0
  0
LINE
  5
F501
  8
0
 10
3669.9374990561791492
 20
151.3606221898569117
 30
0.0
 11
3669.930045845720997
 21
151.369750471263302
 31
0.0
  0
LINE
  5
F502
  8
0
 10
3669.9374990561791492
 20
151.3606221898569117
 30
0.0
 11
3669.9629570208780933
 21
151.3606221898569117
 31
0.0
  0
LINE
  5
F503
  8
0
 10
3669.9374990561791492
 20
151.3106514546568917
 30
0.0
 11
3669.9629570208780933
 21
151.3106514546568917
 31
0.0
  0
LINE
  5
F504
  8
0
 10
3669.9635935967780824
 20
151.3402298405569013
 30
0.0
 11
3669.9368624802777958
 21
151.3402298405569013
 31
0.0
  0
LINE
  5
F505
  8
0
 10
3669.9368624802777958
 20
151.3402298405569013
 30
0.0
 11
3669.9252925017781308
 21
151.3256013696569084
 31
0.0
  0
LINE
  5
F506
  8
0
 10
3669.9252925017781308
 20
151.3256013696569084
 30
0.0
 11
3669.9374990561791492
 21
151.3106514546568917
 31
0.0
  0
LINE
  5
F507
  8
0
 10
3669.9374990561791492
 20
151.3106514546568917
 30
0.0
 11
3669.9374990561791492
 21
151.3224829657569046
 31
0.0
  0
LINE
  5
F508
  8
0
 10
3669.9374990561791492
 20
151.3224829657569046
 30
0.0
 11
3669.930045845720997
 21
151.3316112471632948
 31
0.0
  0
LINE
  5
F509
  8
0
 10
3669.9374990561791492
 20
151.3224829657569046
 30
0.0
 11
3669.9629570208780933
 21
151.3224829657569046
 31
0.0
  0
LINE
  5
F50A
  8
0
 10
3669.9374990561791492
 20
151.2343730066569094
 30
0.0
 11
3669.9629570208780933
 21
151.2343730066569094
 31
0.0
  0
LINE
  5
F50B
  8
0
 10
3669.9635935967780824
 20
151.2639513925568906
 30
0.0
 11
3669.9368624802777958
 21
151.2639513925568906
 31
0.0
  0
LINE
  5
F50C
  8
0
 10
3669.9368624802777958
 20
151.2639513925568906
 30
0.0
 11
3669.9252925017781308
 21
151.2493229216568977
 31
0.0
  0
LINE
  5
F50D
  8
0
 10
3669.9252925017781308
 20
151.2493229216568977
 30
0.0
 11
3669.9374990561791492
 21
151.2343730066569094
 31
0.0
  0
LINE
  5
F50E
  8
0
 10
3669.9374990561791492
 20
151.2343730066569094
 30
0.0
 11
3669.9374990561791492
 21
151.2462045177568939
 31
0.0
  0
LINE
  5
F50F
  8
0
 10
3669.9374990561791492
 20
151.2462045177568939
 30
0.0
 11
3669.930045845720997
 21
151.2553327991633125
 31
0.0
  0
LINE
  5
F510
  8
0
 10
3669.9374990561791492
 20
151.2462045177568939
 30
0.0
 11
3669.9629570208780933
 21
151.2462045177568939
 31
0.0
  0
LINE
  5
F511
  8
0
 10
3669.9374990561791492
 20
151.1962337826568898
 30
0.0
 11
3669.9629570208780933
 21
151.1962337826568898
 31
0.0
  0
LINE
  5
F512
  8
0
 10
3669.9635935967780824
 20
151.2258121685568995
 30
0.0
 11
3669.9368624802777958
 21
151.2258121685568995
 31
0.0
  0
LINE
  5
F513
  8
0
 10
3669.9368624802777958
 20
151.2258121685568995
 30
0.0
 11
3669.9252925017781308
 21
151.2111836976569066
 31
0.0
  0
LINE
  5
F514
  8
0
 10
3669.9252925017781308
 20
151.2111836976569066
 30
0.0
 11
3669.9374990561791492
 21
151.1962337826568898
 31
0.0
  0
LINE
  5
F515
  8
0
 10
3669.9374990561791492
 20
151.1962337826568898
 30
0.0
 11
3669.9374990561791492
 21
151.2080652937569027
 31
0.0
  0
LINE
  5
F516
  8
0
 10
3669.9374990561791492
 20
151.2080652937569027
 30
0.0
 11
3669.930045845720997
 21
151.217193575163293
 31
0.0
  0
LINE
  5
F517
  8
0
 10
3669.9374990561791492
 20
151.2080652937569027
 30
0.0
 11
3669.9629570208780933
 21
151.2080652937569027
 31
0.0
  0
LINE
  5
F518
  8
0
 10
3669.9374990561791492
 20
151.1580945585569111
 30
0.0
 11
3669.9629570208780933
 21
151.1580945585569111
 31
0.0
  0
LINE
  5
F519
  8
0
 10
3669.9635935967780824
 20
151.1876729444568923
 30
0.0
 11
3669.9368624802777958
 21
151.1876729444568923
 31
0.0
  0
LINE
  5
F51A
  8
0
 10
3669.9368624802777958
 20
151.1876729444568923
 30
0.0
 11
3669.9252925017781308
 21
151.1730444735568994
 31
0.0
  0
LINE
  5
F51B
  8
0
 10
3669.9252925017781308
 20
151.1730444735568994
 30
0.0
 11
3669.9374990561791492
 21
151.1580945585569111
 31
0.0
  0
LINE
  5
F51C
  8
0
 10
3669.9374990561791492
 20
151.1580945585569111
 30
0.0
 11
3669.9374990561791492
 21
151.1699260696568956
 31
0.0
  0
LINE
  5
F51D
  8
0
 10
3669.9374990561791492
 20
151.1699260696568956
 30
0.0
 11
3669.930045845720997
 21
151.1790543510632858
 31
0.0
  0
LINE
  5
F51E
  8
0
 10
3669.9374990561791492
 20
151.1699260696568956
 30
0.0
 11
3669.9629570208780933
 21
151.1699260696568956
 31
0.0
  0
LINE
  5
F51F
  8
0
 10
3669.9635935967780824
 20
151.1495494562512079
 30
0.0
 11
3669.9368624802777958
 21
151.1495494562512079
 31
0.0
  0
LINE
  5
F520
  8
0
 10
3669.9368624802777958
 20
151.1495494562512079
 30
0.0
 11
3669.9252925017781308
 21
151.1349209853511866
 31
0.0
  0
LINE
  5
F521
  8
0
 10
3669.9252925017781308
 20
151.1349209853511866
 30
0.0
 11
3669.9374990561791492
 21
151.1199710703511983
 31
0.0
  0
LINE
  5
F522
  8
0
 10
3669.9374990561791492
 20
151.1199710703511983
 30
0.0
 11
3669.9374990561791492
 21
151.1318025814512112
 31
0.0
  0
LINE
  5
F523
  8
0
 10
3669.9374990561791492
 20
151.1318025814512112
 30
0.0
 11
3669.930045845720997
 21
151.1409308628576014
 31
0.0
  0
LINE
  5
F524
  8
0
 10
3669.9374990561791492
 20
151.1318025814512112
 30
0.0
 11
3669.9629570208780933
 21
151.1318025814512112
 31
0.0
  0
LINE
  5
F525
  8
0
 10
3669.9346577655292094
 20
151.3036917422568877
 30
0.0
 11
3669.9168827777789375
 21
151.2830210045569004
 31
0.0
  0
LINE
  5
F526
  8
0
 10
3669.9657983115280331
 20
151.3036917422568877
 30
0.0
 11
3669.9346577654800967
 21
151.3036917421976
 31
0.0
  0
ARC
  5
F527
  8
0
 10
3669.9197894513949905
 20
151.1387090433640878
 30
0.0
 40
0.0066807894019104
 50
263.9687286405359146
 51
325.4581845664400817
  0
ARC
  5
F528
  8
0
 10
3669.9161226809310392
 20
151.134085872197204
 30
0.0
 40
0.0035879082899636
 50
285.3669064332058838
 51
325.7240004293021229
  0
ARC
  5
F529
  8
0
 10
3669.9316332564389995
 20
151.1293056597183977
 30
0.0
 40
0.0110246163303423
 50
233.3200487498359053
 51
302.1450067704183766
  0
LINE
  5
F52A
  8
0
 10
3669.9250477618948025
 20
151.1204640859417907
 30
0.0
 11
3669.91675234159311
 21
151.1306238594449951
 31
0.0
  0
LINE
  5
F52B
  8
0
 10
3669.8701719587279513
 20
151.1495337204569012
 30
0.0
 11
3669.8819327749379227
 21
151.135138977068209
 31
0.0
  0
LINE
  5
F52C
  8
0
 10
3669.8819327749379227
 20
151.135138977068209
 30
0.0
 11
3669.877137352527825
 21
151.129265807956898
 31
0.0
  0
LINE
  5
F52D
  8
0
 10
3669.877137352527825
 20
151.129265807956898
 30
0.0
 11
3669.8771373525310082
 21
151.1410083719954969
 31
0.0
  0
LINE
  5
F52E
  8
0
 10
3669.8770426037399375
 20
151.1411243405221114
 30
0.0
 11
3669.8470677830309796
 21
151.1496728533045939
 31
0.0
  0
LINE
  5
F52F
  8
0
 10
3669.8701719587279513
 20
151.1495337204569012
 30
0.0
 11
3669.8432497932280967
 21
151.1496958451569128
 31
0.0
  0
LINE
  5
F530
  8
0
 10
3669.8432497932280967
 20
151.1496958451569128
 30
0.0
 11
3669.8359496839279927
 21
151.1403601752568875
 31
0.0
  0
LINE
  5
F531
  8
0
 10
3669.8352338820559453
 20
151.1542231955156126
 30
0.0
 11
3669.8278815006287914
 21
151.1452184040568909
 31
0.0
  0
ARC
  5
F532
  8
0
 10
3669.833790096850862
 20
151.1459023267547082
 30
0.0
 40
0.0059480467022282
 50
186.6026294260364011
 51
291.2891630591801118
  0
LINE
  5
F533
  8
0
 10
3669.8899560424279116
 20
151.1306238305569138
 30
0.0
 11
3669.8862992154281528
 21
151.1257458451568993
 31
0.0
  0
ARC
  5
F534
  8
0
 10
3669.8829048931788748
 20
151.1305943679521135
 30
0.0
 40
0.0059185806426873
 50
192.9718751400453982
 51
304.9948458476239921
  0
LINE
  5
F535
  8
0
 10
3669.8278815006287914
 20
151.1570499151316938
 30
0.0
 11
3669.8278815006287914
 21
151.1452184040568909
 31
0.0
  0
LINE
  5
F536
  8
0
 10
3669.8278815006287914
 20
151.1570499151316938
 30
0.0
 11
3669.8304637494838971
 21
151.1602125112364945
 31
0.0
  0
LINE
  5
F537
  8
0
 10
3669.8352338820559453
 20
151.1542231955156126
 30
0.0
 11
3669.8236518357289242
 21
151.168765460556898
 31
0.0
  0
LINE
  5
F538
  8
0
 10
3669.8278815006287914
 20
151.1570499151316938
 30
0.0
 11
3669.8039841715440161
 21
151.1687602479912869
 31
0.0
  0
LINE
  5
F539
  8
0
 10
3669.8236567585281591
 20
151.168763054556905
 30
0.0
 11
3669.796730023228065
 21
151.1686033324569109
 31
0.0
  0
LINE
  5
F53A
  8
0
 10
3669.796730023228065
 20
151.1686033324569109
 30
0.0
 11
3669.7918450500278595
 21
151.1626204866568912
 31
0.0
  0
LINE
  5
F53B
  8
0
 10
3669.7883202992279621
 20
151.1730444735568994
 30
0.0
 11
3669.7848701709290253
 21
151.168818946556911
 31
0.0
  0
LINE
  5
F53C
  8
0
 10
3669.7848701709290253
 20
151.168818946556911
 30
0.0
 11
3669.7848701709290253
 21
151.1777281995123019
 31
0.0
  0
LINE
  5
F53D
  8
0
 10
3669.7883202992279621
 20
151.1730444735568994
 30
0.0
 11
3669.7766239930160737
 21
151.1878326665568864
 31
0.0
  0
ARC
  5
F53E
  8
0
 10
3669.7911525890090161
 20
151.1688654938375862
 30
0.0
 40
0.0062825905155209
 50
180.4245043706935121
 51
276.3227464798080177
  0
LINE
  5
F53F
  8
0
 10
3669.7766239930160737
 20
151.1878326665568864
 30
0.0
 11
3669.7587416632281929
 21
151.1878326665568864
 31
0.0
  0
LINE
  5
F540
  8
0
 10
3669.7883202992279621
 20
151.2111836975568906
 30
0.0
 11
3669.7761137447278088
 21
151.1962337826568898
 31
0.0
  0
LINE
  5
F541
  8
0
 10
3669.7761137447278088
 20
151.1962337826568898
 30
0.0
 11
3669.752945049327991
 21
151.1962337826568898
 31
0.0
  0
LINE
  5
F542
  8
0
 10
3669.7883202992279621
 20
151.2111836975568906
 30
0.0
 11
3669.7767503207278423
 21
151.2258121684569119
 31
0.0
  0
LINE
  5
F543
  8
0
 10
3669.7767503207278423
 20
151.2258121684569119
 30
0.0
 11
3669.7500192041288756
 21
151.2258121684569119
 31
0.0
  0
LINE
  5
F544
  8
0
 10
3669.7500192041288756
 20
151.2258121684569119
 30
0.0
 11
3669.7387976197292119
 21
151.2120713410569124
 31
0.0
  0
LINE
  5
F545
  8
0
 10
3669.7440144576448802
 20
151.2184593578317902
 30
0.0
 11
3669.752945049327991
 21
151.2080652936425054
 31
0.0
  0
LINE
  5
F546
  8
0
 10
3669.752945049327991
 20
151.2080652936425054
 30
0.0
 11
3669.7761137447278088
 21
151.2080652936425054
 31
0.0
  0
LINE
  5
F547
  8
0
 10
3669.7761137447278088
 20
151.2080652936425054
 30
0.0
 11
3669.7835669552409854
 21
151.2171935751213141
 31
0.0
  0
LINE
  5
F548
  8
0
 10
3669.752945049327991
 20
151.2080652936425054
 30
0.0
 11
3669.752945049327991
 21
151.1962337826568898
 31
0.0
  0
LINE
  5
F549
  8
0
 10
3669.7761137446350403
 20
151.2080652936425054
 30
0.0
 11
3669.7761137446350403
 21
151.1962337826568898
 31
0.0
  0
ARC
  5
F54A
  8
0
 10
3669.7633902805027901
 20
151.1972404619951931
 30
0.0
 40
0.0104936293802084
 50
185.5049890922772988
 51
243.7049185345721867
  0
LINE
  5
F54B
  8
0
 10
3669.74180858269483
 20
151.2304971594070935
 30
0.0
 11
3669.7302351205280502
 21
151.2450415026569033
 31
0.0
  0
LINE
  5
F54C
  8
0
 10
3669.7302351205280502
 20
151.2450415026569033
 30
0.0
 11
3669.7210918010291607
 21
151.2450415026569033
 31
0.0
  0
LINE
  5
F54D
  8
0
 10
3669.7271274978611473
 20
151.2450415026569033
 30
0.0
 11
3669.7339706250281779
 21
151.2327291720569065
 31
0.0
  0
LINE
  5
F54E
  8
0
 10
3669.7339706250281779
 20
151.2327291720569065
 30
0.0
 11
3669.7339706251291318
 21
151.2208976609136926
 31
0.0
  0
LINE
  5
F54F
  8
0
 10
3669.7339706251291318
 20
151.2208976609568936
 30
0.0
 11
3669.74180858269483
 21
151.2304971594070935
 31
0.0
  0
LINE
  5
F550
  8
0
 10
3669.7339706250281779
 20
151.2327291720569065
 30
0.0
 11
3669.7370405855840545
 21
151.2364890903945991
 31
0.0
  0
ARC
  5
F551
  8
0
 10
3669.7440784931550297
 20
151.220692447962108
 30
0.0
 40
0.010109950960409
 50
178.8369235324396982
 51
238.5103778837271875
  0
LINE
  5
F552
  8
0
 10
3669.7300395016291077
 20
151.2830210045569004
 30
0.0
 11
3669.7416094801278632
 21
151.2683925336569075
 31
0.0
  0
LINE
  5
F553
  8
0
 10
3669.7416094801278632
 20
151.2683925336569075
 30
0.0
 11
3669.7294029257291186
 21
151.2534426186568908
 31
0.0
  0
LINE
  5
F554
  8
0
 10
3669.7294029257291186
 20
151.2534426186568908
 30
0.0
 11
3669.7191489004289906
 21
151.2534426186568908
 31
0.0
  0
LINE
  5
F555
  8
0
 10
3669.7300395016291077
 20
151.2830210045569004
 30
0.0
 11
3669.7145291007432206
 21
151.2830210045569004
 31
0.0
  0
ARC
  5
F556
  8
0
 10
3669.7333616590472047
 20
151.2523035938606029
 30
0.0
 40
0.0142583268665806
 50
175.4180510679165081
 51
210.6226282972642139
  0
LINE
  5
F557
  8
0
 10
3669.7191489004289906
 20
151.2534426186568908
 30
0.0
 11
3669.7191489004308096
 21
151.2652741297443981
 31
0.0
  0
LINE
  5
F558
  8
0
 10
3669.7191489004308096
 20
151.2652741297443981
 30
0.0
 11
3669.7152215700439228
 21
151.2830210045569004
 31
0.0
  0
LINE
  5
F559
  8
0
 10
3669.7191489004308096
 20
151.2652741297443981
 30
0.0
 11
3669.7294029257291186
 21
151.2652741297443981
 31
0.0
  0
LINE
  5
F55A
  8
0
 10
3669.7294029257291186
 20
151.2652741297443981
 30
0.0
 11
3669.7368561362332002
 21
151.2744024111032104
 31
0.0
  0
LINE
  5
F55B
  8
0
 10
3669.7294029257291186
 20
151.2534426186568908
 30
0.0
 11
3669.729402925739123
 21
151.2652741297569037
 31
0.0
  0
LINE
  5
F55C
  8
0
 10
3669.7156343881752036
 20
151.2916114469747981
 30
0.0
 11
3669.7294029257291186
 21
151.2915818426569103
 31
0.0
  0
LINE
  5
F55D
  8
0
 10
3669.7294029257291186
 20
151.2915818426569103
 30
0.0
 11
3669.7416094801278632
 21
151.3065317576568987
 31
0.0
  0
LINE
  5
F55E
  8
0
 10
3669.7416094801278632
 20
151.3065317576568987
 30
0.0
 11
3669.7300395016291077
 21
151.3211602285568915
 31
0.0
  0
LINE
  5
F55F
  8
0
 10
3669.7300395016291077
 20
151.3211602285568915
 30
0.0
 11
3669.7245825954601059
 21
151.3212755742871991
 31
0.0
  0
LINE
  5
F560
  8
0
 10
3669.7368561362341097
 20
151.3125416351020078
 30
0.0
 11
3669.7294029257291186
 21
151.3034133537568948
 31
0.0
  0
LINE
  5
F561
  8
0
 10
3669.7294029257291186
 20
151.3034133537568948
 30
0.0
 11
3669.7294029257291186
 21
151.2915818426569103
 31
0.0
  0
LINE
  5
F562
  8
0
 10
3669.7294029257291186
 20
151.3034133537568948
 30
0.0
 11
3669.71820184276703
 21
151.3034680473753042
 31
0.0
  0
LINE
  5
F563
  8
0
 10
3669.7274969971867904
 20
151.3273867905508041
 30
0.0
 11
3669.7416094801278632
 21
151.3446709816568898
 31
0.0
  0
LINE
  5
F564
  8
0
 10
3669.7416094801278632
 20
151.3446709816568898
 30
0.0
 11
3669.7395495153400589
 21
151.3475968715835904
 31
0.0
  0
LINE
  5
F565
  8
0
 10
3669.796730023228065
 20
151.3974386766568898
 30
0.0
 11
3669.7958745240462122
 21
151.3978899364392987
 31
0.0
  0
LINE
  5
F566
  8
0
 10
3669.8109495194189549
 20
151.4059995147568998
 30
0.0
 11
3669.8228245637278633
 21
151.4059995147568998
 31
0.0
  0
LINE
  5
F567
  8
0
 10
3669.8228245637278633
 20
151.4059995147568998
 30
0.0
 11
3669.8300002810628939
 21
151.4147879376683079
 31
0.0
  0
LINE
  5
F568
  8
0
 10
3669.8582438000521506
 20
151.4250992633319868
 30
0.0
 11
3669.8695353828279622
 21
151.4250691267569096
 31
0.0
  0
LINE
  5
F569
  8
0
 10
3669.8695353828279622
 20
151.4250691267569096
 30
0.0
 11
3669.872954963716893
 21
151.4292822855676945
 31
0.0
  0
LINE
  5
F56A
  8
0
 10
3669.8879469465277907
 20
151.2083436822568956
 30
0.0
 11
3669.8701719587279513
 21
151.1876729444568923
 31
0.0
  0
LINE
  5
F56B
  8
0
 10
3669.8879469465277907
 20
151.2083436822568956
 30
0.0
 11
3669.9190874925279786
 21
151.2083436822568956
 31
0.0
  0
LINE
  5
F56C
  8
0
 10
3669.9190874925279786
 20
151.2083436822568956
 30
0.0
 11
3669.9368624802277736
 21
151.1876729444568923
 31
0.0
  0
LINE
  5
F56D
  8
0
 10
3669.881741937228071
 20
151.1730444735568994
 30
0.0
 11
3669.8901516612281739
 21
151.1686033324569109
 31
0.0
  0
LINE
  5
F56E
  8
0
 10
3669.916882779324169
 20
151.16860333050181
 30
0.0
 11
3669.9252925017781308
 21
151.1730444735568994
 31
0.0
  0
LINE
  5
F56F
  8
0
 10
3669.8901516612281739
 20
151.3592994525569111
 30
0.0
 11
3669.8723766735279241
 21
151.379970190356886
 31
0.0
  0
LINE
  5
F570
  8
0
 10
3669.8723766735279241
 20
151.379970190356886
 30
0.0
 11
3669.8412361274281466
 21
151.379970190356886
 31
0.0
  0
LINE
  5
F571
  8
0
 10
3669.8412361274281466
 20
151.379970190356886
 30
0.0
 11
3669.8234611406569456
 21
151.3592994514193038
 31
0.0
  0
LINE
  5
F572
  8
0
 10
3669.8350311182280166
 20
151.3446709816568898
 30
0.0
 11
3669.8434408422281194
 21
151.3402298405569013
 31
0.0
  0
LINE
  5
F573
  8
0
 10
3669.8701719587279513
 20
151.3402298405569013
 30
0.0
 11
3669.8785816827280541
 21
151.3446709816568898
 31
0.0
  0
LINE
  5
F574
  8
0
 10
3670.0104954648281819
 20
151.130626233156903
 30
0.0
 11
3669.9833776804280205
 21
151.1306238305569138
 31
0.0
  0
LINE
  5
F575
  8
0
 10
3670.056378658929134
 20
151.1580945585569111
 30
0.0
 11
3670.0309206942279161
 21
151.1580945585569111
 31
0.0
  0
LINE
  5
F576
  8
0
 10
3670.0309206942279161
 20
151.1580945585569111
 30
0.0
 11
3670.0187141398278072
 21
151.1730444735568994
 31
0.0
  0
LINE
  5
F577
  8
0
 10
3670.0187141398278072
 20
151.1730444735568994
 30
0.0
 11
3670.030284118327927
 21
151.1876729444568923
 31
0.0
  0
LINE
  5
F578
  8
0
 10
3670.030284118327927
 20
151.1876729444568923
 30
0.0
 11
3670.0570152348282136
 21
151.1876729444568923
 31
0.0
  0
LINE
  5
F579
  8
0
 10
3670.0570152348282136
 20
151.1876729444568923
 30
0.0
 11
3670.0685852133287881
 21
151.1730444735568994
 31
0.0
  0
LINE
  5
F57A
  8
0
 10
3670.0685852133287881
 20
151.1730444735568994
 30
0.0
 11
3670.056378658929134
 21
151.1580945585569111
 31
0.0
  0
LINE
  5
F57B
  8
0
 10
3670.056378658929134
 20
151.1580945585569111
 30
0.0
 11
3670.056378658929134
 21
151.1699260696568956
 31
0.0
  0
LINE
  5
F57C
  8
0
 10
3670.056378658929134
 20
151.1699260696568956
 30
0.0
 11
3670.0638318693868314
 21
151.1790543510632858
 31
0.0
  0
LINE
  5
F57D
  8
0
 10
3670.056378658929134
 20
151.1699260696568956
 30
0.0
 11
3670.0309206942279161
 21
151.1699260696568956
 31
0.0
  0
LINE
  5
F57E
  8
0
 10
3670.0309206942279161
 20
151.1699260696568956
 30
0.0
 11
3670.0234674837702187
 21
151.1790543510632858
 31
0.0
  0
LINE
  5
F57F
  8
0
 10
3670.0309206942279161
 20
151.1699260696568956
 30
0.0
 11
3670.0309206942279161
 21
151.1580945585569111
 31
0.0
  0
LINE
  5
F580
  8
0
 10
3670.056378658929134
 20
151.1962337826568898
 30
0.0
 11
3670.0309206942279161
 21
151.1962337826568898
 31
0.0
  0
LINE
  5
F581
  8
0
 10
3670.0309206942279161
 20
151.1962337826568898
 30
0.0
 11
3670.0187141398278072
 21
151.2111836976569066
 31
0.0
  0
LINE
  5
F582
  8
0
 10
3670.0187141398278072
 20
151.2111836976569066
 30
0.0
 11
3670.030284118327927
 21
151.2258121685568995
 31
0.0
  0
LINE
  5
F583
  8
0
 10
3670.030284118327927
 20
151.2258121685568995
 30
0.0
 11
3670.0570152348282136
 21
151.2258121685568995
 31
0.0
  0
LINE
  5
F584
  8
0
 10
3670.0570152348282136
 20
151.2258121685568995
 30
0.0
 11
3670.0685852133287881
 21
151.2111836976569066
 31
0.0
  0
LINE
  5
F585
  8
0
 10
3670.0685852133287881
 20
151.2111836976569066
 30
0.0
 11
3670.056378658929134
 21
151.1962337826568898
 31
0.0
  0
LINE
  5
F586
  8
0
 10
3670.056378658929134
 20
151.1962337826568898
 30
0.0
 11
3670.056378658929134
 21
151.2080652937569027
 31
0.0
  0
LINE
  5
F587
  8
0
 10
3670.056378658929134
 20
151.2080652937569027
 30
0.0
 11
3670.0638318693868314
 21
151.217193575163293
 31
0.0
  0
LINE
  5
F588
  8
0
 10
3670.056378658929134
 20
151.2080652937569027
 30
0.0
 11
3670.0309206942279161
 21
151.2080652937569027
 31
0.0
  0
LINE
  5
F589
  8
0
 10
3670.0309206942279161
 20
151.2080652937569027
 30
0.0
 11
3670.0234674837702187
 21
151.217193575163293
 31
0.0
  0
LINE
  5
F58A
  8
0
 10
3670.0309206942279161
 20
151.2080652937569027
 30
0.0
 11
3670.0309206942279161
 21
151.1962337826568898
 31
0.0
  0
LINE
  5
F58B
  8
0
 10
3670.056378658929134
 20
151.2343730066569094
 30
0.0
 11
3670.0309206942279161
 21
151.2343730066569094
 31
0.0
  0
LINE
  5
F58C
  8
0
 10
3670.0309206942279161
 20
151.2343730066569094
 30
0.0
 11
3670.0187141398278072
 21
151.2493229216568977
 31
0.0
  0
LINE
  5
F58D
  8
0
 10
3670.0187141398278072
 20
151.2493229216568977
 30
0.0
 11
3670.030284118327927
 21
151.2639513925568906
 31
0.0
  0
LINE
  5
F58E
  8
0
 10
3670.030284118327927
 20
151.2639513925568906
 30
0.0
 11
3670.0570152348282136
 21
151.2639513925568906
 31
0.0
  0
LINE
  5
F58F
  8
0
 10
3670.0570152348282136
 20
151.2639513925568906
 30
0.0
 11
3670.0685852133287881
 21
151.2493229216568977
 31
0.0
  0
LINE
  5
F590
  8
0
 10
3670.0685852133287881
 20
151.2493229216568977
 30
0.0
 11
3670.056378658929134
 21
151.2343730066569094
 31
0.0
  0
LINE
  5
F591
  8
0
 10
3670.056378658929134
 20
151.2343730066569094
 30
0.0
 11
3670.056378658929134
 21
151.2462045177568939
 31
0.0
  0
LINE
  5
F592
  8
0
 10
3670.056378658929134
 20
151.2462045177568939
 30
0.0
 11
3670.0638318693868314
 21
151.2553327991633125
 31
0.0
  0
LINE
  5
F593
  8
0
 10
3670.056378658929134
 20
151.2462045177568939
 30
0.0
 11
3670.0309206942279161
 21
151.2462045177568939
 31
0.0
  0
LINE
  5
F594
  8
0
 10
3670.0309206942279161
 20
151.2462045177568939
 30
0.0
 11
3670.0234674837702187
 21
151.2553327991633125
 31
0.0
  0
LINE
  5
F595
  8
0
 10
3670.0309206942279161
 20
151.2462045177568939
 30
0.0
 11
3670.0309206942279161
 21
151.2343730066569094
 31
0.0
  0
LINE
  5
F596
  8
0
 10
3670.056378658929134
 20
151.2725122306569006
 30
0.0
 11
3670.0309206942279161
 21
151.2725122306569006
 31
0.0
  0
LINE
  5
F597
  8
0
 10
3670.0309206942279161
 20
151.2725122306569006
 30
0.0
 11
3670.0187141398278072
 21
151.2874621456568889
 31
0.0
  0
LINE
  5
F598
  8
0
 10
3670.0187141398278072
 20
151.2874621456568889
 30
0.0
 11
3670.030284118327927
 21
151.3020906165569102
 31
0.0
  0
LINE
  5
F599
  8
0
 10
3670.030284118327927
 20
151.3020906165569102
 30
0.0
 11
3670.0570152348282136
 21
151.3020906165569102
 31
0.0
  0
LINE
  5
F59A
  8
0
 10
3670.0570152348282136
 20
151.3020906165569102
 30
0.0
 11
3670.0685852133287881
 21
151.2874621456568889
 31
0.0
  0
LINE
  5
F59B
  8
0
 10
3670.0685852133287881
 20
151.2874621456568889
 30
0.0
 11
3670.056378658929134
 21
151.2725122306569006
 31
0.0
  0
LINE
  5
F59C
  8
0
 10
3670.056378658929134
 20
151.2725122306569006
 30
0.0
 11
3670.056378658929134
 21
151.2843437417569135
 31
0.0
  0
LINE
  5
F59D
  8
0
 10
3670.056378658929134
 20
151.2843437417569135
 30
0.0
 11
3670.0638318693868314
 21
151.2934720231633037
 31
0.0
  0
LINE
  5
F59E
  8
0
 10
3670.056378658929134
 20
151.2843437417569135
 30
0.0
 11
3670.0309206942279161
 21
151.2843437417569135
 31
0.0
  0
LINE
  5
F59F
  8
0
 10
3670.0309206942279161
 20
151.2843437417569135
 30
0.0
 11
3670.0234674837702187
 21
151.2934720231633037
 31
0.0
  0
LINE
  5
F5A0
  8
0
 10
3670.0309206942279161
 20
151.2843437417569135
 30
0.0
 11
3670.0309206942279161
 21
151.2725122306569006
 31
0.0
  0
LINE
  5
F5A1
  8
0
 10
3670.056378658929134
 20
151.3106514546568917
 30
0.0
 11
3670.0309206942279161
 21
151.3106514546568917
 31
0.0
  0
LINE
  5
F5A2
  8
0
 10
3670.0309206942279161
 20
151.3106514546568917
 30
0.0
 11
3670.0187141398278072
 21
151.3256013696569084
 31
0.0
  0
LINE
  5
F5A3
  8
0
 10
3670.0187141398278072
 20
151.3256013696569084
 30
0.0
 11
3670.030284118327927
 21
151.3402298405569013
 31
0.0
  0
LINE
  5
F5A4
  8
0
 10
3670.030284118327927
 20
151.3402298405569013
 30
0.0
 11
3670.0570152348282136
 21
151.3402298405569013
 31
0.0
  0
LINE
  5
F5A5
  8
0
 10
3670.0570152348282136
 20
151.3402298405569013
 30
0.0
 11
3670.0685852133287881
 21
151.3256013696569084
 31
0.0
  0
LINE
  5
F5A6
  8
0
 10
3670.0685852133287881
 20
151.3256013696569084
 30
0.0
 11
3670.056378658929134
 21
151.3106514546568917
 31
0.0
  0
LINE
  5
F5A7
  8
0
 10
3670.056378658929134
 20
151.3106514546568917
 30
0.0
 11
3670.056378658929134
 21
151.3224829657569046
 31
0.0
  0
LINE
  5
F5A8
  8
0
 10
3670.056378658929134
 20
151.3224829657569046
 30
0.0
 11
3670.0638318693868314
 21
151.3316112471632948
 31
0.0
  0
LINE
  5
F5A9
  8
0
 10
3670.056378658929134
 20
151.3224829657569046
 30
0.0
 11
3670.0309206942279161
 21
151.3224829657569046
 31
0.0
  0
LINE
  5
F5AA
  8
0
 10
3670.0309206942279161
 20
151.3224829657569046
 30
0.0
 11
3670.0234674837702187
 21
151.3316112471632948
 31
0.0
  0
LINE
  5
F5AB
  8
0
 10
3670.0309206942279161
 20
151.3224829657569046
 30
0.0
 11
3670.0309206942279161
 21
151.3106514546568917
 31
0.0
  0
LINE
  5
F5AC
  8
0
 10
3670.056378658929134
 20
151.38692990275689
 30
0.0
 11
3670.0309206942279161
 21
151.38692990275689
 31
0.0
  0
LINE
  5
F5AD
  8
0
 10
3670.0309206942279161
 20
151.38692990275689
 30
0.0
 11
3670.0187141398278072
 21
151.4018798177569067
 31
0.0
  0
LINE
  5
F5AE
  8
0
 10
3670.0187141398278072
 20
151.4018798177569067
 30
0.0
 11
3670.030284118327927
 21
151.4165082886568996
 31
0.0
  0
LINE
  5
F5AF
  8
0
 10
3670.030284118327927
 20
151.4165082886568996
 30
0.0
 11
3670.0570152348282136
 21
151.4165082886568996
 31
0.0
  0
LINE
  5
F5B0
  8
0
 10
3670.0570152348282136
 20
151.4165082886568996
 30
0.0
 11
3670.0685852133287881
 21
151.4018798177569067
 31
0.0
  0
LINE
  5
F5B1
  8
0
 10
3670.0685852133287881
 20
151.4018798177569067
 30
0.0
 11
3670.056378658929134
 21
151.38692990275689
 31
0.0
  0
LINE
  5
F5B2
  8
0
 10
3670.056378658929134
 20
151.38692990275689
 30
0.0
 11
3670.056378658929134
 21
151.3987614138569029
 31
0.0
  0
LINE
  5
F5B3
  8
0
 10
3670.056378658929134
 20
151.3987614138569029
 30
0.0
 11
3670.0638318693868314
 21
151.4078896952632931
 31
0.0
  0
LINE
  5
F5B4
  8
0
 10
3670.056378658929134
 20
151.3987614138569029
 30
0.0
 11
3670.0309206942279161
 21
151.3987614138569029
 31
0.0
  0
LINE
  5
F5B5
  8
0
 10
3670.0309206942279161
 20
151.3987614138569029
 30
0.0
 11
3670.0234674837702187
 21
151.4078896952632931
 31
0.0
  0
LINE
  5
F5B6
  8
0
 10
3670.0309206942279161
 20
151.3987614138569029
 30
0.0
 11
3670.0309206942279161
 21
151.38692990275689
 31
0.0
  0
LINE
  5
F5B7
  8
0
 10
3670.0096678398781478
 20
151.1390249465569013
 30
0.0
 11
3669.9842098751778394
 21
151.1390249465569013
 31
0.0
  0
LINE
  5
F5B8
  8
0
 10
3669.9842098751778394
 20
151.1390249465569013
 30
0.0
 11
3669.9720033207781853
 21
151.1539748615568897
 31
0.0
  0
LINE
  5
F5B9
  8
0
 10
3669.9720033207781853
 20
151.1539748615568897
 30
0.0
 11
3669.9835732992778503
 21
151.1686033324569109
 31
0.0
  0
LINE
  5
F5BA
  8
0
 10
3669.9835732992778503
 20
151.1686033324569109
 30
0.0
 11
3670.0103044157790464
 21
151.1686033324569109
 31
0.0
  0
LINE
  5
F5BB
  8
0
 10
3670.0103044157790464
 20
151.1686033324569109
 30
0.0
 11
3670.0218743942778019
 21
151.1539748615568897
 31
0.0
  0
LINE
  5
F5BC
  8
0
 10
3670.0218743942778019
 20
151.1539748615568897
 30
0.0
 11
3670.0096678398781478
 21
151.1390249465569013
 31
0.0
  0
LINE
  5
F5BD
  8
0
 10
3670.0096678398781478
 20
151.1390249465569013
 30
0.0
 11
3670.0096678398781478
 21
151.1508564576568858
 31
0.0
  0
LINE
  5
F5BE
  8
0
 10
3670.0096678398781478
 20
151.1508564576568858
 30
0.0
 11
3670.0171210503358452
 21
151.1599847390633045
 31
0.0
  0
LINE
  5
F5BF
  8
0
 10
3670.0096678398781478
 20
151.1508564576568858
 30
0.0
 11
3669.9842098751778394
 21
151.1508564576568858
 31
0.0
  0
LINE
  5
F5C0
  8
0
 10
3669.9842098751778394
 20
151.1508564576568858
 30
0.0
 11
3669.976756664720142
 21
151.1599847390633045
 31
0.0
  0
LINE
  5
F5C1
  8
0
 10
3669.9842098751778394
 20
151.1508564576568858
 30
0.0
 11
3669.9842098751778394
 21
151.1390249465569013
 31
0.0
  0
LINE
  5
F5C2
  8
0
 10
3670.0096678398781478
 20
151.2153033946568996
 30
0.0
 11
3669.9842098751778394
 21
151.2153033946568996
 31
0.0
  0
LINE
  5
F5C3
  8
0
 10
3669.9842098751778394
 20
151.2153033946568996
 30
0.0
 11
3669.9720033207781853
 21
151.230253309656888
 31
0.0
  0
LINE
  5
F5C4
  8
0
 10
3669.9720033207781853
 20
151.230253309656888
 30
0.0
 11
3669.9835732992778503
 21
151.2448817805569092
 31
0.0
  0
LINE
  5
F5C5
  8
0
 10
3669.9835732992778503
 20
151.2448817805569092
 30
0.0
 11
3670.0103044157790464
 21
151.2448817805569092
 31
0.0
  0
LINE
  5
F5C6
  8
0
 10
3670.0103044157790464
 20
151.2448817805569092
 30
0.0
 11
3670.0218743942778019
 21
151.230253309656888
 31
0.0
  0
LINE
  5
F5C7
  8
0
 10
3670.0218743942778019
 20
151.230253309656888
 30
0.0
 11
3670.0096678398781478
 21
151.2153033946568996
 31
0.0
  0
LINE
  5
F5C8
  8
0
 10
3670.0096678398781478
 20
151.2153033946568996
 30
0.0
 11
3670.0096678398781478
 21
151.2271349057569125
 31
0.0
  0
LINE
  5
F5C9
  8
0
 10
3670.0096678398781478
 20
151.2271349057569125
 30
0.0
 11
3670.0171210503358452
 21
151.2362631871633027
 31
0.0
  0
LINE
  5
F5CA
  8
0
 10
3670.0096678398781478
 20
151.2271349057569125
 30
0.0
 11
3669.9842098751778394
 21
151.2271349057569125
 31
0.0
  0
LINE
  5
F5CB
  8
0
 10
3669.9842098751778394
 20
151.2271349057569125
 30
0.0
 11
3669.976756664720142
 21
151.2362631871633027
 31
0.0
  0
LINE
  5
F5CC
  8
0
 10
3669.9842098751778394
 20
151.2271349057569125
 30
0.0
 11
3669.9842098751778394
 21
151.2153033946568996
 31
0.0
  0
LINE
  5
F5CD
  8
0
 10
3670.0096678398781478
 20
151.2534426186568908
 30
0.0
 11
3669.9842098751778394
 21
151.2534426186568908
 31
0.0
  0
LINE
  5
F5CE
  8
0
 10
3669.9842098751778394
 20
151.2534426186568908
 30
0.0
 11
3669.9720033207781853
 21
151.2683925336569075
 31
0.0
  0
LINE
  5
F5CF
  8
0
 10
3669.9720033207781853
 20
151.2683925336569075
 30
0.0
 11
3669.9835732992778503
 21
151.2830210045569004
 31
0.0
  0
LINE
  5
F5D0
  8
0
 10
3669.9835732992778503
 20
151.2830210045569004
 30
0.0
 11
3670.0103044157790464
 21
151.2830210045569004
 31
0.0
  0
LINE
  5
F5D1
  8
0
 10
3670.0103044157790464
 20
151.2830210045569004
 30
0.0
 11
3670.0218743942778019
 21
151.2683925336569075
 31
0.0
  0
LINE
  5
F5D2
  8
0
 10
3670.0218743942778019
 20
151.2683925336569075
 30
0.0
 11
3670.0096678398781478
 21
151.2534426186568908
 31
0.0
  0
LINE
  5
F5D3
  8
0
 10
3670.0096678398781478
 20
151.2534426186568908
 30
0.0
 11
3670.0096678398781478
 21
151.2652741297569037
 31
0.0
  0
LINE
  5
F5D4
  8
0
 10
3670.0096678398781478
 20
151.2652741297569037
 30
0.0
 11
3670.0171210503358452
 21
151.2744024111632939
 31
0.0
  0
LINE
  5
F5D5
  8
0
 10
3670.0096678398781478
 20
151.2652741297569037
 30
0.0
 11
3669.9842098751778394
 21
151.2652741297569037
 31
0.0
  0
LINE
  5
F5D6
  8
0
 10
3669.9842098751778394
 20
151.2652741297569037
 30
0.0
 11
3669.976756664720142
 21
151.2744024111632939
 31
0.0
  0
LINE
  5
F5D7
  8
0
 10
3669.9842098751778394
 20
151.2652741297569037
 30
0.0
 11
3669.9842098751778394
 21
151.2534426186568908
 31
0.0
  0
LINE
  5
F5D8
  8
0
 10
3670.0096678398781478
 20
151.2915818426569103
 30
0.0
 11
3669.9842098751778394
 21
151.2915818426569103
 31
0.0
  0
LINE
  5
F5D9
  8
0
 10
3669.9842098751778394
 20
151.2915818426569103
 30
0.0
 11
3669.9720033207781853
 21
151.3065317576568987
 31
0.0
  0
LINE
  5
F5DA
  8
0
 10
3669.9720033207781853
 20
151.3065317576568987
 30
0.0
 11
3669.9835732992778503
 21
151.3211602285568915
 31
0.0
  0
LINE
  5
F5DB
  8
0
 10
3669.9835732992778503
 20
151.3211602285568915
 30
0.0
 11
3670.0103044157790464
 21
151.3211602285568915
 31
0.0
  0
LINE
  5
F5DC
  8
0
 10
3670.0103044157790464
 20
151.3211602285568915
 30
0.0
 11
3670.0218743942778019
 21
151.3065317576568987
 31
0.0
  0
LINE
  5
F5DD
  8
0
 10
3670.0218743942778019
 20
151.3065317576568987
 30
0.0
 11
3670.0096678398781478
 21
151.2915818426569103
 31
0.0
  0
LINE
  5
F5DE
  8
0
 10
3670.0096678398781478
 20
151.2915818426569103
 30
0.0
 11
3670.0096678398781478
 21
151.3034133537568948
 31
0.0
  0
LINE
  5
F5DF
  8
0
 10
3670.0096678398781478
 20
151.3034133537568948
 30
0.0
 11
3670.0171210503358452
 21
151.3125416351633135
 31
0.0
  0
LINE
  5
F5E0
  8
0
 10
3670.0096678398781478
 20
151.3034133537568948
 30
0.0
 11
3669.9842098751778394
 21
151.3034133537568948
 31
0.0
  0
LINE
  5
F5E1
  8
0
 10
3669.9842098751778394
 20
151.3034133537568948
 30
0.0
 11
3669.976756664720142
 21
151.3125416351633135
 31
0.0
  0
LINE
  5
F5E2
  8
0
 10
3669.9842098751778394
 20
151.3034133537568948
 30
0.0
 11
3669.9842098751778394
 21
151.2915818426569103
 31
0.0
  0
LINE
  5
F5E3
  8
0
 10
3670.0096678398781478
 20
151.3297210667568891
 30
0.0
 11
3669.9842098751778394
 21
151.3297210667568891
 31
0.0
  0
LINE
  5
F5E4
  8
0
 10
3669.9842098751778394
 20
151.3297210667568891
 30
0.0
 11
3669.9720033207781853
 21
151.3446709817569058
 31
0.0
  0
LINE
  5
F5E5
  8
0
 10
3669.9720033207781853
 20
151.3446709817569058
 30
0.0
 11
3669.9835732992778503
 21
151.3592994526568987
 31
0.0
  0
LINE
  5
F5E6
  8
0
 10
3669.9835732992778503
 20
151.3592994526568987
 30
0.0
 11
3670.0103044157790464
 21
151.3592994526568987
 31
0.0
  0
LINE
  5
F5E7
  8
0
 10
3670.0103044157790464
 20
151.3592994526568987
 30
0.0
 11
3670.0218743942778019
 21
151.3446709817569058
 31
0.0
  0
LINE
  5
F5E8
  8
0
 10
3670.0218743942778019
 20
151.3446709817569058
 30
0.0
 11
3670.0096678398781478
 21
151.3297210667568891
 31
0.0
  0
LINE
  5
F5E9
  8
0
 10
3670.0096678398781478
 20
151.3297210667568891
 30
0.0
 11
3670.0096678398781478
 21
151.341552577856902
 31
0.0
  0
LINE
  5
F5EA
  8
0
 10
3670.0096678398781478
 20
151.341552577856902
 30
0.0
 11
3670.0171210503358452
 21
151.3506808592632922
 31
0.0
  0
LINE
  5
F5EB
  8
0
 10
3670.0096678398781478
 20
151.341552577856902
 30
0.0
 11
3669.9842098751778394
 21
151.341552577856902
 31
0.0
  0
LINE
  5
F5EC
  8
0
 10
3669.9842098751778394
 20
151.341552577856902
 30
0.0
 11
3669.976756664720142
 21
151.3506808592632922
 31
0.0
  0
LINE
  5
F5ED
  8
0
 10
3669.9842098751778394
 20
151.341552577856902
 30
0.0
 11
3669.9842098751778394
 21
151.3297210667568891
 31
0.0
  0
LINE
  5
F5EE
  8
0
 10
3670.0096678398781478
 20
151.3678602907569086
 30
0.0
 11
3669.9842098751778394
 21
151.3678602907569086
 31
0.0
  0
LINE
  5
F5EF
  8
0
 10
3669.9842098751778394
 20
151.3678602907569086
 30
0.0
 11
3669.9720033207781853
 21
151.3828102057568969
 31
0.0
  0
LINE
  5
F5F0
  8
0
 10
3669.9720033207781853
 20
151.3828102057568969
 30
0.0
 11
3669.9835732992778503
 21
151.3974386766568898
 31
0.0
  0
LINE
  5
F5F1
  8
0
 10
3669.9835732992778503
 20
151.3974386766568898
 30
0.0
 11
3670.0103044157790464
 21
151.3974386766568898
 31
0.0
  0
LINE
  5
F5F2
  8
0
 10
3670.0103044157790464
 20
151.3974386766568898
 30
0.0
 11
3670.0218743942778019
 21
151.3828102057568969
 31
0.0
  0
LINE
  5
F5F3
  8
0
 10
3670.0218743942778019
 20
151.3828102057568969
 30
0.0
 11
3670.0096678398781478
 21
151.3678602907569086
 31
0.0
  0
LINE
  5
F5F4
  8
0
 10
3670.0096678398781478
 20
151.3678602907569086
 30
0.0
 11
3670.0096678398781478
 21
151.3796918018568931
 31
0.0
  0
LINE
  5
F5F5
  8
0
 10
3670.0096678398781478
 20
151.3796918018568931
 30
0.0
 11
3670.0171210503358452
 21
151.3888200832633117
 31
0.0
  0
LINE
  5
F5F6
  8
0
 10
3670.0096678398781478
 20
151.3796918018568931
 30
0.0
 11
3669.9842098751778394
 21
151.3796918018568931
 31
0.0
  0
LINE
  5
F5F7
  8
0
 10
3669.9842098751778394
 20
151.3796918018568931
 30
0.0
 11
3669.976756664720142
 21
151.3888200832633117
 31
0.0
  0
LINE
  5
F5F8
  8
0
 10
3669.9842098751778394
 20
151.3796918018568931
 30
0.0
 11
3669.9842098751778394
 21
151.3678602907569086
 31
0.0
  0
LINE
  5
F5F9
  8
0
 10
3670.0096678398781478
 20
151.4059995147568998
 30
0.0
 11
3669.9842098751778394
 21
151.4059995147568998
 31
0.0
  0
LINE
  5
F5FA
  8
0
 10
3669.9842098751778394
 20
151.4059995147568998
 30
0.0
 11
3669.9720033207781853
 21
151.4209494297568881
 31
0.0
  0
LINE
  5
F5FB
  8
0
 10
3669.9720033207781853
 20
151.4209494297568881
 30
0.0
 11
3669.9835732992778503
 21
151.4355779006569094
 31
0.0
  0
LINE
  5
F5FC
  8
0
 10
3669.9835732992778503
 20
151.4355779006569094
 30
0.0
 11
3669.9967385114141507
 21
151.4355779006569094
 31
0.0
  0
LINE
  5
F5FD
  8
0
 10
3670.0125421650927819
 20
151.4327486083878114
 30
0.0
 11
3670.0218743942778019
 21
151.4209494297568881
 31
0.0
  0
LINE
  5
F5FE
  8
0
 10
3670.0218743942778019
 20
151.4209494297568881
 30
0.0
 11
3670.0096678398781478
 21
151.4059995147568998
 31
0.0
  0
LINE
  5
F5FF
  8
0
 10
3670.0096678398781478
 20
151.4059995147568998
 30
0.0
 11
3670.0096678398781478
 21
151.4178310258569127
 31
0.0
  0
LINE
  5
F600
  8
0
 10
3670.0096678398781478
 20
151.4178310258569127
 30
0.0
 11
3670.0171210503358452
 21
151.4269593072633029
 31
0.0
  0
LINE
  5
F601
  8
0
 10
3670.0096678398781478
 20
151.4178310258569127
 30
0.0
 11
3669.9842098751778394
 21
151.4178310258569127
 31
0.0
  0
LINE
  5
F602
  8
0
 10
3669.9842098751778394
 20
151.4178310258569127
 30
0.0
 11
3669.976756664720142
 21
151.4269593072633029
 31
0.0
  0
LINE
  5
F603
  8
0
 10
3669.9842098751778394
 20
151.4178310258569127
 30
0.0
 11
3669.9842098751778394
 21
151.4059995147568998
 31
0.0
  0
LINE
  5
F604
  8
0
 10
3670.1030894779778464
 20
151.1771641706569085
 30
0.0
 11
3670.0776315132779928
 21
151.1771641706569085
 31
0.0
  0
LINE
  5
F605
  8
0
 10
3670.0776315132779928
 20
151.1771641706569085
 30
0.0
 11
3670.0654249588787934
 21
151.1921140856568968
 31
0.0
  0
LINE
  5
F606
  8
0
 10
3670.0654249588787934
 20
151.1921140856568968
 30
0.0
 11
3670.0769949373780037
 21
151.2067425565568897
 31
0.0
  0
LINE
  5
F607
  8
0
 10
3670.0769949373780037
 20
151.2067425565568897
 30
0.0
 11
3670.1037260538778355
 21
151.2067425565568897
 31
0.0
  0
LINE
  5
F608
  8
0
 10
3670.1037260538778355
 20
151.2067425565568897
 30
0.0
 11
3670.1152960323779553
 21
151.1921140856568968
 31
0.0
  0
LINE
  5
F609
  8
0
 10
3670.1152960323779553
 20
151.1921140856568968
 30
0.0
 11
3670.1030894779778464
 21
151.1771641706569085
 31
0.0
  0
LINE
  5
F60A
  8
0
 10
3670.1030894779778464
 20
151.1771641706569085
 30
0.0
 11
3670.1030894779778464
 21
151.188995681756893
 31
0.0
  0
LINE
  5
F60B
  8
0
 10
3670.1030894779778464
 20
151.188995681756893
 30
0.0
 11
3670.1105426884359986
 21
151.1981239631633116
 31
0.0
  0
LINE
  5
F60C
  8
0
 10
3670.1030894779778464
 20
151.188995681756893
 30
0.0
 11
3670.0776315132779928
 21
151.188995681756893
 31
0.0
  0
LINE
  5
F60D
  8
0
 10
3670.0776315132779928
 20
151.188995681756893
 30
0.0
 11
3670.0701783028198406
 21
151.1981239631633116
 31
0.0
  0
LINE
  5
F60E
  8
0
 10
3670.0776315132779928
 20
151.188995681756893
 30
0.0
 11
3670.0776315132779928
 21
151.1771641706569085
 31
0.0
  0
LINE
  5
F60F
  8
0
 10
3670.1030894779778464
 20
151.2153033946568996
 30
0.0
 11
3670.0776315132779928
 21
151.2153033946568996
 31
0.0
  0
LINE
  5
F610
  8
0
 10
3670.0776315132779928
 20
151.2153033946568996
 30
0.0
 11
3670.0654249588787934
 21
151.230253309656888
 31
0.0
  0
LINE
  5
F611
  8
0
 10
3670.0654249588787934
 20
151.230253309656888
 30
0.0
 11
3670.0769949373780037
 21
151.2448817805569092
 31
0.0
  0
LINE
  5
F612
  8
0
 10
3670.0769949373780037
 20
151.2448817805569092
 30
0.0
 11
3670.1037260538778355
 21
151.2448817805569092
 31
0.0
  0
LINE
  5
F613
  8
0
 10
3670.1037260538778355
 20
151.2448817805569092
 30
0.0
 11
3670.1152960323779553
 21
151.230253309656888
 31
0.0
  0
LINE
  5
F614
  8
0
 10
3670.1152960323779553
 20
151.230253309656888
 30
0.0
 11
3670.1030894779778464
 21
151.2153033946568996
 31
0.0
  0
LINE
  5
F615
  8
0
 10
3670.1030894779778464
 20
151.2153033946568996
 30
0.0
 11
3670.1030894779778464
 21
151.2271349057569125
 31
0.0
  0
LINE
  5
F616
  8
0
 10
3670.1030894779778464
 20
151.2271349057569125
 30
0.0
 11
3670.1105426884359986
 21
151.2362631871633027
 31
0.0
  0
LINE
  5
F617
  8
0
 10
3670.1030894779778464
 20
151.2271349057569125
 30
0.0
 11
3670.0776315132779928
 21
151.2271349057569125
 31
0.0
  0
LINE
  5
F618
  8
0
 10
3670.0776315132779928
 20
151.2271349057569125
 30
0.0
 11
3670.0701783028198406
 21
151.2362631871633027
 31
0.0
  0
LINE
  5
F619
  8
0
 10
3670.0776315132779928
 20
151.2271349057569125
 30
0.0
 11
3670.0776315132779928
 21
151.2153033946568996
 31
0.0
  0
LINE
  5
F61A
  8
0
 10
3670.1030894779778464
 20
151.2534426186568908
 30
0.0
 11
3670.0776315132779928
 21
151.2534426186568908
 31
0.0
  0
LINE
  5
F61B
  8
0
 10
3670.0776315132779928
 20
151.2534426186568908
 30
0.0
 11
3670.0654249588787934
 21
151.2683925336569075
 31
0.0
  0
LINE
  5
F61C
  8
0
 10
3670.0654249588787934
 20
151.2683925336569075
 30
0.0
 11
3670.0769949373780037
 21
151.2830210045569004
 31
0.0
  0
LINE
  5
F61D
  8
0
 10
3670.0769949373780037
 20
151.2830210045569004
 30
0.0
 11
3670.1037260538778355
 21
151.2830210045569004
 31
0.0
  0
LINE
  5
F61E
  8
0
 10
3670.1037260538778355
 20
151.2830210045569004
 30
0.0
 11
3670.1152960323779553
 21
151.2683925336569075
 31
0.0
  0
LINE
  5
F61F
  8
0
 10
3670.1152960323779553
 20
151.2683925336569075
 30
0.0
 11
3670.1030894779778464
 21
151.2534426186568908
 31
0.0
  0
LINE
  5
F620
  8
0
 10
3670.1030894779778464
 20
151.2534426186568908
 30
0.0
 11
3670.1030894779778464
 21
151.2652741297569037
 31
0.0
  0
LINE
  5
F621
  8
0
 10
3670.1030894779778464
 20
151.2652741297569037
 30
0.0
 11
3670.1105426884359986
 21
151.2744024111632939
 31
0.0
  0
LINE
  5
F622
  8
0
 10
3670.1030894779778464
 20
151.2652741297569037
 30
0.0
 11
3670.0776315132779928
 21
151.2652741297569037
 31
0.0
  0
LINE
  5
F623
  8
0
 10
3670.0776315132779928
 20
151.2652741297569037
 30
0.0
 11
3670.0701783028198406
 21
151.2744024111632939
 31
0.0
  0
LINE
  5
F624
  8
0
 10
3670.0776315132779928
 20
151.2652741297569037
 30
0.0
 11
3670.0776315132779928
 21
151.2534426186568908
 31
0.0
  0
LINE
  5
F625
  8
0
 10
3670.0096678398781478
 20
151.1771641706569085
 30
0.0
 11
3669.9842098751778394
 21
151.1771641706569085
 31
0.0
  0
LINE
  5
F626
  8
0
 10
3669.9842098751778394
 20
151.1771641706569085
 30
0.0
 11
3669.9720033207781853
 21
151.1921140856568968
 31
0.0
  0
LINE
  5
F627
  8
0
 10
3669.9720033207781853
 20
151.1921140856568968
 30
0.0
 11
3669.9835732992778503
 21
151.2067425565568897
 31
0.0
  0
LINE
  5
F628
  8
0
 10
3669.9835732992778503
 20
151.2067425565568897
 30
0.0
 11
3670.0103044157790464
 21
151.2067425565568897
 31
0.0
  0
LINE
  5
F629
  8
0
 10
3670.0103044157790464
 20
151.2067425565568897
 30
0.0
 11
3670.0218743942778019
 21
151.1921140856568968
 31
0.0
  0
LINE
  5
F62A
  8
0
 10
3670.0218743942778019
 20
151.1921140856568968
 30
0.0
 11
3670.0096678398781478
 21
151.1771641706569085
 31
0.0
  0
LINE
  5
F62B
  8
0
 10
3670.0096678398781478
 20
151.1771641706569085
 30
0.0
 11
3670.0096678398781478
 21
151.188995681756893
 31
0.0
  0
LINE
  5
F62C
  8
0
 10
3670.0096678398781478
 20
151.188995681756893
 30
0.0
 11
3670.0171210503358452
 21
151.1981239631633116
 31
0.0
  0
LINE
  5
F62D
  8
0
 10
3670.0096678398781478
 20
151.188995681756893
 30
0.0
 11
3669.9842098751778394
 21
151.188995681756893
 31
0.0
  0
LINE
  5
F62E
  8
0
 10
3669.9842098751778394
 20
151.188995681756893
 30
0.0
 11
3669.976756664720142
 21
151.1981239631633116
 31
0.0
  0
LINE
  5
F62F
  8
0
 10
3669.9842098751778394
 20
151.188995681756893
 30
0.0
 11
3669.9842098751778394
 21
151.1771641706569085
 31
0.0
  0
LINE
  5
F630
  8
0
 10
3670.1030894779778464
 20
151.3297210667568891
 30
0.0
 11
3670.0776315132779928
 21
151.3297210667568891
 31
0.0
  0
LINE
  5
F631
  8
0
 10
3670.0776315132779928
 20
151.3297210667568891
 30
0.0
 11
3670.0654249588787934
 21
151.3446709817569058
 31
0.0
  0
LINE
  5
F632
  8
0
 10
3670.0654249588787934
 20
151.3446709817569058
 30
0.0
 11
3670.0769949373780037
 21
151.3592994526568987
 31
0.0
  0
LINE
  5
F633
  8
0
 10
3670.0769949373780037
 20
151.3592994526568987
 30
0.0
 11
3670.1037260538778355
 21
151.3592994526568987
 31
0.0
  0
LINE
  5
F634
  8
0
 10
3670.1037260538778355
 20
151.3592994526568987
 30
0.0
 11
3670.1152960323779553
 21
151.3446709817569058
 31
0.0
  0
LINE
  5
F635
  8
0
 10
3670.1152960323779553
 20
151.3446709817569058
 30
0.0
 11
3670.1030894779778464
 21
151.3297210667568891
 31
0.0
  0
LINE
  5
F636
  8
0
 10
3670.1030894779778464
 20
151.3297210667568891
 30
0.0
 11
3670.1030894779778464
 21
151.341552577856902
 31
0.0
  0
LINE
  5
F637
  8
0
 10
3670.1030894779778464
 20
151.341552577856902
 30
0.0
 11
3670.1105426884359986
 21
151.3506808592632922
 31
0.0
  0
LINE
  5
F638
  8
0
 10
3670.1030894779778464
 20
151.341552577856902
 30
0.0
 11
3670.0776315132779928
 21
151.341552577856902
 31
0.0
  0
LINE
  5
F639
  8
0
 10
3670.0776315132779928
 20
151.341552577856902
 30
0.0
 11
3670.0701783028198406
 21
151.3506808592632922
 31
0.0
  0
LINE
  5
F63A
  8
0
 10
3670.0776315132779928
 20
151.341552577856902
 30
0.0
 11
3670.0776315132779928
 21
151.3297210667568891
 31
0.0
  0
LINE
  5
F63B
  8
0
 10
3670.1030894779778464
 20
151.3678602907569086
 30
0.0
 11
3670.0776315132779928
 21
151.3678602907569086
 31
0.0
  0
LINE
  5
F63C
  8
0
 10
3670.0776315132779928
 20
151.3678602907569086
 30
0.0
 11
3670.0654249588787934
 21
151.3828102057568969
 31
0.0
  0
LINE
  5
F63D
  8
0
 10
3670.0654249588787934
 20
151.3828102057568969
 30
0.0
 11
3670.0769949373780037
 21
151.3974386766568898
 31
0.0
  0
LINE
  5
F63E
  8
0
 10
3670.0769949373780037
 20
151.3974386766568898
 30
0.0
 11
3670.1037260538778355
 21
151.3974386766568898
 31
0.0
  0
LINE
  5
F63F
  8
0
 10
3670.1037260538778355
 20
151.3974386766568898
 30
0.0
 11
3670.1152960323779553
 21
151.3828102057568969
 31
0.0
  0
LINE
  5
F640
  8
0
 10
3670.1152960323779553
 20
151.3828102057568969
 30
0.0
 11
3670.1030894779778464
 21
151.3678602907569086
 31
0.0
  0
LINE
  5
F641
  8
0
 10
3670.1030894779778464
 20
151.3678602907569086
 30
0.0
 11
3670.1030894779778464
 21
151.3796918018568931
 31
0.0
  0
LINE
  5
F642
  8
0
 10
3670.1030894779778464
 20
151.3796918018568931
 30
0.0
 11
3670.1105426884359986
 21
151.3888200832633117
 31
0.0
  0
LINE
  5
F643
  8
0
 10
3670.1030894779778464
 20
151.3796918018568931
 30
0.0
 11
3670.0776315132779928
 21
151.3796918018568931
 31
0.0
  0
LINE
  5
F644
  8
0
 10
3670.0776315132779928
 20
151.3796918018568931
 30
0.0
 11
3670.0701783028198406
 21
151.3888200832633117
 31
0.0
  0
LINE
  5
F645
  8
0
 10
3670.0776315132779928
 20
151.3796918018568931
 30
0.0
 11
3670.0776315132779928
 21
151.3678602907569086
 31
0.0
  0
LINE
  5
F646
  8
0
 10
3670.1498002969779009
 20
151.2343730066569094
 30
0.0
 11
3670.1243423322780473
 21
151.2343730066569094
 31
0.0
  0
LINE
  5
F647
  8
0
 10
3670.1243423322780473
 20
151.2343730066569094
 30
0.0
 11
3670.1121357778779384
 21
151.2493229216568977
 31
0.0
  0
LINE
  5
F648
  8
0
 10
3670.1121357778779384
 20
151.2493229216568977
 30
0.0
 11
3670.1237057563780581
 21
151.2639513925568906
 31
0.0
  0
LINE
  5
F649
  8
0
 10
3670.1237057563780581
 20
151.2639513925568906
 30
0.0
 11
3670.15043687287789
 21
151.2639513925568906
 31
0.0
  0
LINE
  5
F64A
  8
0
 10
3670.15043687287789
 20
151.2639513925568906
 30
0.0
 11
3670.1620068513780097
 21
151.2493229216568977
 31
0.0
  0
LINE
  5
F64B
  8
0
 10
3670.1620068513780097
 20
151.2493229216568977
 30
0.0
 11
3670.1498002969779009
 21
151.2343730066569094
 31
0.0
  0
LINE
  5
F64C
  8
0
 10
3670.1498002969779009
 20
151.2343730066569094
 30
0.0
 11
3670.1498002969779009
 21
151.2462045177568939
 31
0.0
  0
LINE
  5
F64D
  8
0
 10
3670.1498002969779009
 20
151.2462045177568939
 30
0.0
 11
3670.157253507436053
 21
151.2553327991633125
 31
0.0
  0
LINE
  5
F64E
  8
0
 10
3670.1498002969779009
 20
151.2462045177568939
 30
0.0
 11
3670.1243423322780473
 21
151.2462045177568939
 31
0.0
  0
LINE
  5
F64F
  8
0
 10
3670.1243423322780473
 20
151.2462045177568939
 30
0.0
 11
3670.1168891218198951
 21
151.2553327991633125
 31
0.0
  0
LINE
  5
F650
  8
0
 10
3670.1243423322780473
 20
151.2462045177568939
 30
0.0
 11
3670.1243423322780473
 21
151.2343730066569094
 31
0.0
  0
LINE
  5
F651
  8
0
 10
3670.1498002969779009
 20
151.2725122306569006
 30
0.0
 11
3670.1243423322780473
 21
151.2725122306569006
 31
0.0
  0
LINE
  5
F652
  8
0
 10
3670.1243423322780473
 20
151.2725122306569006
 30
0.0
 11
3670.1121357778779384
 21
151.2874621456568889
 31
0.0
  0
LINE
  5
F653
  8
0
 10
3670.1121357778779384
 20
151.2874621456568889
 30
0.0
 11
3670.1237057563780581
 21
151.3020906165569102
 31
0.0
  0
LINE
  5
F654
  8
0
 10
3670.1237057563780581
 20
151.3020906165569102
 30
0.0
 11
3670.15043687287789
 21
151.3020906165569102
 31
0.0
  0
LINE
  5
F655
  8
0
 10
3670.15043687287789
 20
151.3020906165569102
 30
0.0
 11
3670.1620068513780097
 21
151.2874621456568889
 31
0.0
  0
LINE
  5
F656
  8
0
 10
3670.1620068513780097
 20
151.2874621456568889
 30
0.0
 11
3670.1498002969779009
 21
151.2725122306569006
 31
0.0
  0
LINE
  5
F657
  8
0
 10
3670.1498002969779009
 20
151.2725122306569006
 30
0.0
 11
3670.1498002969779009
 21
151.2843437417569135
 31
0.0
  0
LINE
  5
F658
  8
0
 10
3670.1498002969779009
 20
151.2843437417569135
 30
0.0
 11
3670.157253507436053
 21
151.2934720231633037
 31
0.0
  0
LINE
  5
F659
  8
0
 10
3670.1498002969779009
 20
151.2843437417569135
 30
0.0
 11
3670.1243423322780473
 21
151.2843437417569135
 31
0.0
  0
LINE
  5
F65A
  8
0
 10
3670.1243423322780473
 20
151.2843437417569135
 30
0.0
 11
3670.1168891218198951
 21
151.2934720231633037
 31
0.0
  0
LINE
  5
F65B
  8
0
 10
3670.1243423322780473
 20
151.2843437417569135
 30
0.0
 11
3670.1243423322780473
 21
151.2725122306569006
 31
0.0
  0
LINE
  5
F65C
  8
0
 10
3670.1498002969779009
 20
151.3106514546568917
 30
0.0
 11
3670.1243423322780473
 21
151.3106514546568917
 31
0.0
  0
LINE
  5
F65D
  8
0
 10
3670.1243423322780473
 20
151.3106514546568917
 30
0.0
 11
3670.1121357778779384
 21
151.3256013696569084
 31
0.0
  0
LINE
  5
F65E
  8
0
 10
3670.1121357778779384
 20
151.3256013696569084
 30
0.0
 11
3670.1237057563780581
 21
151.3402298405569013
 31
0.0
  0
LINE
  5
F65F
  8
0
 10
3670.1237057563780581
 20
151.3402298405569013
 30
0.0
 11
3670.15043687287789
 21
151.3402298405569013
 31
0.0
  0
LINE
  5
F660
  8
0
 10
3670.15043687287789
 20
151.3402298405569013
 30
0.0
 11
3670.1620068513780097
 21
151.3256013696569084
 31
0.0
  0
LINE
  5
F661
  8
0
 10
3670.1620068513780097
 20
151.3256013696569084
 30
0.0
 11
3670.1498002969779009
 21
151.3106514546568917
 31
0.0
  0
LINE
  5
F662
  8
0
 10
3670.1498002969779009
 20
151.3106514546568917
 30
0.0
 11
3670.1498002969779009
 21
151.3224829657569046
 31
0.0
  0
LINE
  5
F663
  8
0
 10
3670.1498002969779009
 20
151.3224829657569046
 30
0.0
 11
3670.157253507436053
 21
151.3316112471632948
 31
0.0
  0
LINE
  5
F664
  8
0
 10
3670.1498002969779009
 20
151.3224829657569046
 30
0.0
 11
3670.1243423322780473
 21
151.3224829657569046
 31
0.0
  0
LINE
  5
F665
  8
0
 10
3670.1243423322780473
 20
151.3224829657569046
 30
0.0
 11
3670.1168891218198951
 21
151.3316112471632948
 31
0.0
  0
LINE
  5
F666
  8
0
 10
3670.1243423322780473
 20
151.3224829657569046
 30
0.0
 11
3670.1243423322780473
 21
151.3106514546568917
 31
0.0
  0
LINE
  5
F667
  8
0
 10
3670.1498002969779009
 20
151.3487906787568988
 30
0.0
 11
3670.1243423322780473
 21
151.3487906787568988
 31
0.0
  0
LINE
  5
F668
  8
0
 10
3670.1243423322780473
 20
151.3487906787568988
 30
0.0
 11
3670.1121357778779384
 21
151.3637405937568872
 31
0.0
  0
LINE
  5
F669
  8
0
 10
3670.1121357778779384
 20
151.3637405937568872
 30
0.0
 11
3670.1237057563780581
 21
151.3783690646569084
 31
0.0
  0
LINE
  5
F66A
  8
0
 10
3670.1237057563780581
 20
151.3783690646569084
 30
0.0
 11
3670.132962933933868
 21
151.3783690646569084
 31
0.0
  0
LINE
  5
F66B
  8
0
 10
3670.1551488982408955
 20
151.3553413507655989
 30
0.0
 11
3670.1498002969779009
 21
151.3487906787568988
 31
0.0
  0
LINE
  5
F66C
  8
0
 10
3670.1498002969779009
 20
151.3487906787568988
 30
0.0
 11
3670.1498002969779009
 21
151.3606221898569117
 31
0.0
  0
LINE
  5
F66D
  8
0
 10
3670.1498002969779009
 20
151.3606221898569117
 30
0.0
 11
3670.1502821392859914
 21
151.3612123237595881
 31
0.0
  0
LINE
  5
F66E
  8
0
 10
3670.1498002969779009
 20
151.3606221898569117
 30
0.0
 11
3670.1243423322780473
 21
151.3606221898569117
 31
0.0
  0
LINE
  5
F66F
  8
0
 10
3670.1243423322780473
 20
151.3606221898569117
 30
0.0
 11
3670.1168891218198951
 21
151.369750471263302
 31
0.0
  0
LINE
  5
F670
  8
0
 10
3670.1243423322780473
 20
151.3606221898569117
 30
0.0
 11
3670.1243423322780473
 21
151.3487906787568988
 31
0.0
  0
LINE
  5
F671
  8
0
 10
3669.9736914430541219
 20
151.4382160553535073
 30
0.0
 11
3669.9629570208780933
 21
151.4250691267569096
 31
0.0
  0
LINE
  5
F672
  8
0
 10
3669.9629570208780933
 20
151.4250691267569096
 30
0.0
 11
3669.9629570208780933
 21
151.436900637856894
 31
0.0
  0
LINE
  5
F673
  8
0
 10
3669.9629570208780933
 20
151.436900637856894
 30
0.0
 11
3669.9644956989318416
 21
151.4387851259371871
 31
0.0
  0
LINE
  5
F674
  8
0
 10
3669.9635935967780824
 20
151.4165082886568996
 30
0.0
 11
3669.9751635752791117
 21
151.4018798177569067
 31
0.0
  0
LINE
  5
F675
  8
0
 10
3669.9751635752791117
 20
151.4018798177569067
 30
0.0
 11
3669.9629570208780933
 21
151.38692990275689
 31
0.0
  0
LINE
  5
F676
  8
0
 10
3669.9629570208780933
 20
151.38692990275689
 30
0.0
 11
3669.9629570208780933
 21
151.3987614138569029
 31
0.0
  0
LINE
  5
F677
  8
0
 10
3669.9629570208780933
 20
151.3987614138569029
 30
0.0
 11
3669.9704102313357907
 21
151.4078896952632931
 31
0.0
  0
LINE
  5
F678
  8
0
 10
3669.9635935967780824
 20
151.3783690646569084
 30
0.0
 11
3669.9751635752791117
 21
151.3637405937568872
 31
0.0
  0
LINE
  5
F679
  8
0
 10
3669.9751635752791117
 20
151.3637405937568872
 30
0.0
 11
3669.9629570208780933
 21
151.3487906787568988
 31
0.0
  0
LINE
  5
F67A
  8
0
 10
3669.9629570208780933
 20
151.3487906787568988
 30
0.0
 11
3669.9629570208780933
 21
151.3606221898569117
 31
0.0
  0
LINE
  5
F67B
  8
0
 10
3669.9629570208780933
 20
151.3606221898569117
 30
0.0
 11
3669.9704102313357907
 21
151.369750471263302
 31
0.0
  0
LINE
  5
F67C
  8
0
 10
3669.9635935967780824
 20
151.3402298405569013
 30
0.0
 11
3669.9751635752791117
 21
151.3256013696569084
 31
0.0
  0
LINE
  5
F67D
  8
0
 10
3669.9751635752791117
 20
151.3256013696569084
 30
0.0
 11
3669.9629570208780933
 21
151.3106514546568917
 31
0.0
  0
LINE
  5
F67E
  8
0
 10
3669.9629570208780933
 20
151.3106514546568917
 30
0.0
 11
3669.9629570208780933
 21
151.3224829657569046
 31
0.0
  0
LINE
  5
F67F
  8
0
 10
3669.9629570208780933
 20
151.3224829657569046
 30
0.0
 11
3669.9704102313357907
 21
151.3316112471632948
 31
0.0
  0
LINE
  5
F680
  8
0
 10
3669.9635935967780824
 20
151.2639513925568906
 30
0.0
 11
3669.9751635752791117
 21
151.2493229216568977
 31
0.0
  0
LINE
  5
F681
  8
0
 10
3669.9751635752791117
 20
151.2493229216568977
 30
0.0
 11
3669.9629570208780933
 21
151.2343730066569094
 31
0.0
  0
LINE
  5
F682
  8
0
 10
3669.9629570208780933
 20
151.2343730066569094
 30
0.0
 11
3669.9629570208780933
 21
151.2462045177568939
 31
0.0
  0
LINE
  5
F683
  8
0
 10
3669.9629570208780933
 20
151.2462045177568939
 30
0.0
 11
3669.9704102313357907
 21
151.2553327991633125
 31
0.0
  0
LINE
  5
F684
  8
0
 10
3669.9635935967780824
 20
151.2258121685568995
 30
0.0
 11
3669.9751635752791117
 21
151.2111836976569066
 31
0.0
  0
LINE
  5
F685
  8
0
 10
3669.9751635752791117
 20
151.2111836976569066
 30
0.0
 11
3669.9629570208780933
 21
151.1962337826568898
 31
0.0
  0
LINE
  5
F686
  8
0
 10
3669.9629570208780933
 20
151.1962337826568898
 30
0.0
 11
3669.9629570208780933
 21
151.2080652937569027
 31
0.0
  0
LINE
  5
F687
  8
0
 10
3669.9629570208780933
 20
151.2080652937569027
 30
0.0
 11
3669.9704102313357907
 21
151.217193575163293
 31
0.0
  0
LINE
  5
F688
  8
0
 10
3669.9635935967780824
 20
151.1876729444568923
 30
0.0
 11
3669.9751635752791117
 21
151.1730444735568994
 31
0.0
  0
LINE
  5
F689
  8
0
 10
3669.9751635752791117
 20
151.1730444735568994
 30
0.0
 11
3669.9629570208780933
 21
151.1580945585569111
 31
0.0
  0
LINE
  5
F68A
  8
0
 10
3669.9629570208780933
 20
151.1580945585569111
 30
0.0
 11
3669.9629570208780933
 21
151.1699260696568956
 31
0.0
  0
LINE
  5
F68B
  8
0
 10
3669.9629570208780933
 20
151.1699260696568956
 30
0.0
 11
3669.9704102313357907
 21
151.1790543510632858
 31
0.0
  0
LINE
  5
F68C
  8
0
 10
3669.9635935967780824
 20
151.1495494562512079
 30
0.0
 11
3669.9751635752791117
 21
151.1349209853511866
 31
0.0
  0
LINE
  5
F68D
  8
0
 10
3669.9751635752791117
 20
151.1349209853511866
 30
0.0
 11
3669.9629570208780933
 21
151.1199710703511983
 31
0.0
  0
LINE
  5
F68E
  8
0
 10
3669.9629570208780933
 20
151.1199710703511983
 30
0.0
 11
3669.9629570208780933
 21
151.1318025814512112
 31
0.0
  0
LINE
  5
F68F
  8
0
 10
3669.9629570208780933
 20
151.1318025814512112
 30
0.0
 11
3669.9704102313357907
 21
151.1409308628576014
 31
0.0
  0
LINE
  5
F690
  8
0
 10
3669.9657983115280331
 20
151.3036917422568877
 30
0.0
 11
3669.9835732992778503
 21
151.2830210045569004
 31
0.0
  0
ARC
  5
F691
  8
0
 10
3669.9806666256617973
 20
151.1387090433640878
 30
0.0
 40
0.0066807894019104
 50
214.5418154335598899
 51
276.0312713594640854
  0
ARC
  5
F692
  8
0
 10
3669.9843333961262033
 20
151.134085872197204
 30
0.0
 40
0.0035879082899636
 50
214.2759995706977918
 51
254.6330935667940878
  0
ARC
  5
F693
  8
0
 10
3669.9688228206177882
 20
151.1293056597183977
 30
0.0
 40
0.0110246163303423
 50
237.854993229581595
 51
306.6799512501639242
  0
LINE
  5
F694
  8
0
 10
3669.9754083151610757
 20
151.1204640859417907
 30
0.0
 11
3669.983703735463223
 21
151.1306238594449951
 31
0.0
  0
LINE
  5
F695
  8
0
 10
3670.030284118327927
 20
151.1495337204569012
 30
0.0
 11
3670.0185233021179556
 21
151.135138977068209
 31
0.0
  0
LINE
  5
F696
  8
0
 10
3670.0185233021179556
 20
151.135138977068209
 30
0.0
 11
3670.0233187245280533
 21
151.129265807956898
 31
0.0
  0
LINE
  5
F697
  8
0
 10
3670.0233187245280533
 20
151.129265807956898
 30
0.0
 11
3670.0233187245257795
 21
151.1410083719954969
 31
0.0
  0
LINE
  5
F698
  8
0
 10
3670.0234134733159408
 20
151.1411243405221114
 30
0.0
 11
3670.0533882940258081
 21
151.1496728533045939
 31
0.0
  0
LINE
  5
F699
  8
0
 10
3670.030284118327927
 20
151.1495337204569012
 30
0.0
 11
3670.0572062838291458
 21
151.1496958451569128
 31
0.0
  0
LINE
  5
F69A
  8
0
 10
3670.0572062838291458
 20
151.1496958451569128
 30
0.0
 11
3670.0645063931278855
 21
151.1403601752568875
 31
0.0
  0
LINE
  5
F69B
  8
0
 10
3670.065222194999933
 20
151.1542231955156126
 30
0.0
 11
3670.0725745764279964
 21
151.1452184040568909
 31
0.0
  0
ARC
  5
F69C
  8
0
 10
3670.0666659802059257
 20
151.1459023267547082
 30
0.0
 40
0.0059480467022282
 50
248.710836940819803
 51
353.3973705739635989
  0
LINE
  5
F69D
  8
0
 10
3670.0105000346279667
 20
151.1306238305569138
 30
0.0
 11
3670.0141568616281802
 21
151.1257458451568993
 31
0.0
  0
ARC
  5
F69E
  8
0
 10
3670.0175511838770035
 20
151.1305943679521135
 30
0.0
 40
0.0059185806426873
 50
235.0051541523760932
 51
347.0281248599529818
  0
LINE
  5
F69F
  8
0
 10
3670.0725745764279964
 20
151.1570499151316938
 30
0.0
 11
3670.0725745764279964
 21
151.1452184040568909
 31
0.0
  0
LINE
  5
F6A0
  8
0
 10
3670.0725745764279964
 20
151.1570499151316938
 30
0.0
 11
3670.0699923275728906
 21
151.1602125112364945
 31
0.0
  0
LINE
  5
F6A1
  8
0
 10
3670.065222194999933
 20
151.1542231955156126
 30
0.0
 11
3670.0768042413278636
 21
151.168765460556898
 31
0.0
  0
LINE
  5
F6A2
  8
0
 10
3670.0725745764279964
 20
151.1570499151316938
 30
0.0
 11
3670.0964719055141359
 21
151.1687602479912869
 31
0.0
  0
LINE
  5
F6A3
  8
0
 10
3670.0767993185281739
 20
151.168763054556905
 30
0.0
 11
3670.1037260538291775
 21
151.1686033324569109
 31
0.0
  0
LINE
  5
F6A4
  8
0
 10
3670.1037260538291775
 20
151.1686033324569109
 30
0.0
 11
3670.1086110270280187
 21
151.1626204866568912
 31
0.0
  0
LINE
  5
F6A5
  8
0
 10
3670.1121357778279162
 20
151.1730444735568994
 30
0.0
 11
3670.1155859061282172
 21
151.168818946556911
 31
0.0
  0
LINE
  5
F6A6
  8
0
 10
3670.1155859061282172
 20
151.168818946556911
 30
0.0
 11
3670.1155859061282172
 21
151.1777281995123019
 31
0.0
  0
LINE
  5
F6A7
  8
0
 10
3670.1121357778279162
 20
151.1730444735568994
 30
0.0
 11
3670.1238320840411689
 21
151.1878326665568864
 31
0.0
  0
ARC
  5
F6A8
  8
0
 10
3670.1093034880482264
 20
151.1688654938375862
 30
0.0
 40
0.0062825905155209
 50
263.6772535201919823
 51
359.5754956293063742
  0
LINE
  5
F6A9
  8
0
 10
3670.1238320840411689
 20
151.1878326665568864
 30
0.0
 11
3670.1417144138290496
 21
151.1878326665568864
 31
0.0
  0
LINE
  5
F6AA
  8
0
 10
3670.1121357778279162
 20
151.2111836975568906
 30
0.0
 11
3670.124342332328979
 21
151.1962337826568898
 31
0.0
  0
LINE
  5
F6AB
  8
0
 10
3670.124342332328979
 20
151.1962337826568898
 30
0.0
 11
3670.1475110277287968
 21
151.1962337826568898
 31
0.0
  0
LINE
  5
F6AC
  8
0
 10
3670.1121357778279162
 20
151.2111836975568906
 30
0.0
 11
3670.1237057563280359
 21
151.2258121684569119
 31
0.0
  0
LINE
  5
F6AD
  8
0
 10
3670.1237057563280359
 20
151.2258121684569119
 30
0.0
 11
3670.1504368729279122
 21
151.2258121684569119
 31
0.0
  0
LINE
  5
F6AE
  8
0
 10
3670.1504368729279122
 20
151.2258121684569119
 30
0.0
 11
3670.1616584573280306
 21
151.2120713410569124
 31
0.0
  0
LINE
  5
F6AF
  8
0
 10
3670.1564416194119076
 20
151.2184593578317902
 30
0.0
 11
3670.1475110277287968
 21
151.2080652936425054
 31
0.0
  0
LINE
  5
F6B0
  8
0
 10
3670.1475110277287968
 20
151.2080652936425054
 30
0.0
 11
3670.124342332328979
 21
151.2080652936425054
 31
0.0
  0
LINE
  5
F6B1
  8
0
 10
3670.124342332328979
 20
151.2080652936425054
 30
0.0
 11
3670.1168891218171666
 21
151.2171935751213141
 31
0.0
  0
LINE
  5
F6B2
  8
0
 10
3670.1475110277287968
 20
151.2080652936425054
 30
0.0
 11
3670.1475110277287968
 21
151.1962337826568898
 31
0.0
  0
LINE
  5
F6B3
  8
0
 10
3670.1243423324208379
 20
151.2080652936425054
 30
0.0
 11
3670.1243423324208379
 21
151.1962337826568898
 31
0.0
  0
ARC
  5
F6B4
  8
0
 10
3670.1370657965539976
 20
151.1972404619951931
 30
0.0
 40
0.0104936293802084
 50
296.2950814654276996
 51
354.4950109077225875
  0
LINE
  5
F6B5
  8
0
 10
3670.1586474943619578
 20
151.2304971594070935
 30
0.0
 11
3670.1702209565278281
 21
151.2450415026569033
 31
0.0
  0
LINE
  5
F6B6
  8
0
 10
3670.1702209565278281
 20
151.2450415026569033
 30
0.0
 11
3670.1793642760280818
 21
151.2450415026569033
 31
0.0
  0
LINE
  5
F6B7
  8
0
 10
3670.1733285791960952
 20
151.2450415026569033
 30
0.0
 11
3670.1664854520281551
 21
151.2327291720569065
 31
0.0
  0
LINE
  5
F6B8
  8
0
 10
3670.1664854520281551
 20
151.2327291720569065
 30
0.0
 11
3670.1664854519281107
 21
151.2208976609136926
 31
0.0
  0
LINE
  5
F6B9
  8
0
 10
3670.1664854519281107
 20
151.2208976609568936
 30
0.0
 11
3670.1586474943619578
 21
151.2304971594070935
 31
0.0
  0
LINE
  5
F6BA
  8
0
 10
3670.1664854520281551
 20
151.2327291720569065
 30
0.0
 11
3670.1634154914718238
 21
151.2364890903945991
 31
0.0
  0
ARC
  5
F6BB
  8
0
 10
3670.1563775839008485
 20
151.220692447962108
 30
0.0
 40
0.010109950960409
 50
301.4896221162726988
 51
1.1630764675602541
  0
LINE
  5
F6BC
  8
0
 10
3670.1704165754281348
 20
151.2830210045569004
 30
0.0
 11
3670.1588465969280151
 21
151.2683925336569075
 31
0.0
  0
LINE
  5
F6BD
  8
0
 10
3670.1588465969280151
 20
151.2683925336569075
 30
0.0
 11
3670.1710531513281239
 21
151.2534426186568908
 31
0.0
  0
LINE
  5
F6BE
  8
0
 10
3670.1710531513281239
 20
151.2534426186568908
 30
0.0
 11
3670.1813071766277972
 21
151.2534426186568908
 31
0.0
  0
LINE
  5
F6BF
  8
0
 10
3670.1704165754281348
 20
151.2830210045569004
 30
0.0
 11
3670.1859269763140219
 21
151.2830210045569004
 31
0.0
  0
ARC
  5
F6C0
  8
0
 10
3670.1670944180100378
 20
151.2523035938606029
 30
0.0
 40
0.0142583268665806
 50
329.3773717027344219
 51
4.5819489320835007
  0
LINE
  5
F6C1
  8
0
 10
3670.1813071766277972
 20
151.2534426186568908
 30
0.0
 11
3670.1813071766250687
 21
151.2652741297443981
 31
0.0
  0
LINE
  5
F6C2
  8
0
 10
3670.1813071766250687
 20
151.2652741297443981
 30
0.0
 11
3670.1852345070119554
 21
151.2830210045569004
 31
0.0
  0
LINE
  5
F6C3
  8
0
 10
3670.1813071766250687
 20
151.2652741297443981
 30
0.0
 11
3670.1710531513281239
 21
151.2652741297443981
 31
0.0
  0
LINE
  5
F6C4
  8
0
 10
3670.1710531513281239
 20
151.2652741297443981
 30
0.0
 11
3670.1635999408231328
 21
151.2744024111032104
 31
0.0
  0
LINE
  5
F6C5
  8
0
 10
3670.1710531513281239
 20
151.2534426186568908
 30
0.0
 11
3670.1710531513181195
 21
151.2652741297569037
 31
0.0
  0
LINE
  5
F6C6
  8
0
 10
3670.1848216888820389
 20
151.2916114469747981
 30
0.0
 11
3670.1710531513281239
 21
151.2915818426569103
 31
0.0
  0
LINE
  5
F6C7
  8
0
 10
3670.1710531513281239
 20
151.2915818426569103
 30
0.0
 11
3670.1588465969280151
 21
151.3065317576568987
 31
0.0
  0
LINE
  5
F6C8
  8
0
 10
3670.1588465969280151
 20
151.3065317576568987
 30
0.0
 11
3670.1704165754281348
 21
151.3211602285568915
 31
0.0
  0
LINE
  5
F6C9
  8
0
 10
3670.1704165754281348
 20
151.3211602285568915
 30
0.0
 11
3670.1758734815962271
 21
151.3212755742871991
 31
0.0
  0
LINE
  5
F6CA
  8
0
 10
3670.1635999408222233
 20
151.3125416351020078
 30
0.0
 11
3670.1710531513281239
 21
151.3034133537568948
 31
0.0
  0
LINE
  5
F6CB
  8
0
 10
3670.1710531513281239
 20
151.3034133537568948
 30
0.0
 11
3670.1710531513281239
 21
151.2915818426569103
 31
0.0
  0
LINE
  5
F6CC
  8
0
 10
3670.1710531513281239
 20
151.3034133537568948
 30
0.0
 11
3670.1822542342902125
 21
151.3034680473753042
 31
0.0
  0
LINE
  5
F6CD
  8
0
 10
3670.1729590798690879
 20
151.3273867905508041
 30
0.0
 11
3670.1588465969280151
 21
151.3446709816568898
 31
0.0
  0
LINE
  5
F6CE
  8
0
 10
3670.1588465969280151
 20
151.3446709816568898
 30
0.0
 11
3670.1609065617158194
 21
151.3475968715835904
 31
0.0
  0
LINE
  5
F6CF
  8
0
 10
3670.1037260538291775
 20
151.3974386766568898
 30
0.0
 11
3670.1045815530110303
 21
151.3978899364392987
 31
0.0
  0
LINE
  5
F6D0
  8
0
 10
3670.0895065576369234
 20
151.4059995147568998
 30
0.0
 11
3670.077631513328015
 21
151.4059995147568998
 31
0.0
  0
LINE
  5
F6D1
  8
0
 10
3670.077631513328015
 20
151.4059995147568998
 30
0.0
 11
3670.0704557959938938
 21
151.4147879376683079
 31
0.0
  0
LINE
  5
F6D2
  8
0
 10
3670.0422122770050919
 20
151.4250992633319868
 30
0.0
 11
3670.0309206942279161
 21
151.4250691267569096
 31
0.0
  0
LINE
  5
F6D3
  8
0
 10
3670.0309206942279161
 20
151.4250691267569096
 30
0.0
 11
3670.0275011133389853
 21
151.4292822855676945
 31
0.0
  0
LINE
  5
F6D4
  8
0
 10
3670.056378658929134
 20
151.3487906787568988
 30
0.0
 11
3670.0309206942279161
 21
151.3487906787568988
 31
0.0
  0
LINE
  5
F6D5
  8
0
 10
3670.0309206942279161
 20
151.3487906787568988
 30
0.0
 11
3670.0187141398278072
 21
151.3637405937568872
 31
0.0
  0
LINE
  5
F6D6
  8
0
 10
3670.0187141398278072
 20
151.3637405937568872
 30
0.0
 11
3670.030284118327927
 21
151.3783690646569084
 31
0.0
  0
LINE
  5
F6D7
  8
0
 10
3670.030284118327927
 20
151.3783690646569084
 30
0.0
 11
3670.0570152348282136
 21
151.3783690646569084
 31
0.0
  0
LINE
  5
F6D8
  8
0
 10
3670.0570152348282136
 20
151.3783690646569084
 30
0.0
 11
3670.0685852133287881
 21
151.3637405937568872
 31
0.0
  0
LINE
  5
F6D9
  8
0
 10
3670.0685852133287881
 20
151.3637405937568872
 30
0.0
 11
3670.056378658929134
 21
151.3487906787568988
 31
0.0
  0
LINE
  5
F6DA
  8
0
 10
3670.056378658929134
 20
151.3606221898569117
 30
0.0
 11
3670.0638318693868314
 21
151.369750471263302
 31
0.0
  0
LINE
  5
F6DB
  8
0
 10
3670.056378658929134
 20
151.3606221898569117
 30
0.0
 11
3670.0309206942279161
 21
151.3606221898569117
 31
0.0
  0
LINE
  5
F6DC
  8
0
 10
3670.0309206942279161
 20
151.3606221898569117
 30
0.0
 11
3670.0234674837702187
 21
151.369750471263302
 31
0.0
  0
LINE
  5
F6DD
  8
0
 10
3670.1237057563280359
 20
151.3020906165569102
 30
0.0
 11
3670.1059307686291504
 21
151.3227613542568974
 31
0.0
  0
LINE
  5
F6DE
  8
0
 10
3670.1059307686291504
 20
151.3227613542568974
 30
0.0
 11
3670.074790222628053
 21
151.3227613542568974
 31
0.0
  0
LINE
  5
F6DF
  8
0
 10
3670.074790222628053
 20
151.3227613542568974
 30
0.0
 11
3670.0570152348282136
 21
151.3020906165567112
 31
0.0
  0
LINE
  5
F6E0
  8
0
 10
3670.0685852133287881
 20
151.2874621456568889
 30
0.0
 11
3670.0769949373780037
 21
151.2830210045569004
 31
0.0
  0
LINE
  5
F6E1
  8
0
 10
3670.1037260538291775
 20
151.2830210045569004
 30
0.0
 11
3670.1121357778279162
 21
151.2874621456568889
 31
0.0
  0
LINE
  5
F6E2
  8
0
 10
3669.9368624802777958
 20
151.2639513925568906
 30
0.0
 11
3669.9284527562781477
 21
151.2683925336569075
 31
0.0
  0
LINE
  5
F6E3
  8
0
 10
3669.9635935967780824
 20
151.2639513925568906
 30
0.0
 11
3669.9720033207781853
 21
151.2683925336569075
 31
0.0
  0
ARC
  5
F6E4
  8
0
 10
3669.949904868169142
 20
151.1284258718646072
 30
0.0
 40
0.3107020420448077
 50
57.4090839263845396
 51
89.9404049634025142
  0
ENDSEC
  0
EOF
