  0
SECTION
  2
HEADER
  9
$ACADVER
  1
AC1009
  9
$INSBASE
 10
321.67264570217668
 20
25.82969595996359
 30
0.0
  9
$EXTMIN
 10
318.93788934770981
 20
21.468902135443031
 30
0.0
  9
$EXTMAX
 10
324.40740205664372
 20
26.483769730865941
 30
0.0
  9
$LIMMIN
 10
0.0
 20
0.0
  9
$LIMMAX
 10
11.692913385800001
 20
8.2677165353999982
  9
$ORTHOMODE
 70
     0
  9
$REGENMODE
 70
     1
  9
$FILLMODE
 70
     1
  9
$QTEXTMODE
 70
     0
  9
$MIRRTEXT
 70
     0
  9
$DRAGMODE
 70
     2
  9
$LTSCALE
 40
0.6431102362
  9
$OSMODE
 70
  3071
  9
$ATTMODE
 70
     1
  9
$TEXTSIZE
 40
0.2
  9
$TRACEWID
 40
0.05
  9
$TEXTSTYLE
  7
STANDARD
  9
$CLAYER
  8
0
  9
$CELTYPE
  6
BYLAYER
  9
$CECOLOR
 62
   256
  9
$DIMSCALE
 40
1.0
  9
$DIMASZ
 40
0.1875
  9
$DIMEXO
 40
0.0625
  9
$DIMDLI
 40
0.4443307087
  9
$DIMRND
 40
0.0
  9
$DIMDLE
 40
0.0
  9
$DIMEXE
 40
0.125
  9
$DIMTP
 40
0.01
  9
$DIMTM
 40
0.01
  9
$DIMTXT
 40
1.0
  9
$DIMCEN
 40
0.1052362205
  9
$DIMTSZ
 40
0.0
  9
$DIMTOL
 70
     1
  9
$DIMLIM
 70
     0
  9
$DIMTIH
 70
     0
  9
$DIMTOH
 70
     1
  9
$DIMSE1
 70
     0
  9
$DIMSE2
 70
     0
  9
$DIMTAD
 70
     0
  9
$DIMZIN
 70
     0
  9
$DIMBLK
  1

  9
$DIMASO
 70
     1
  9
$DIMSHO
 70
     1
  9
$DIMPOST
  1
\X
  9
$DIMAPOST
  1

  9
$DIMALT
 70
     1
  9
$DIMALTD
 70
     2
  9
$DIMALTF
 40
25.399999999999999
  9
$DIMLFAC
 40
1.0
  9
$DIMTOFL
 70
     0
  9
$DIMTVP
 40
0.0
  9
$DIMTIX
 70
     0
  9
$DIMSOXD
 70
     0
  9
$DIMSAH
 70
     0
  9
$DIMBLK1
  1

  9
$DIMBLK2
  1

  9
$DIMSTYLE
  2
STANDARD
  9
$DIMCLRD
 70
     0
  9
$DIMCLRE
 70
     0
  9
$DIMCLRT
 70
     0
  9
$DIMTFAC
 40
1.0
  9
$DIMGAP
 40
0.09
  9
$LUNITS
 70
     2
  9
$LUPREC
 70
     4
  9
$SKETCHINC
 40
0.1
  9
$FILLETRAD
 40
0.0
  9
$AUNITS
 70
     0
  9
$AUPREC
 70
     0
  9
$MENU
  1
.
  9
$ELEVATION
 40
0.0
  9
$PELEVATION
 40
0.0
  9
$THICKNESS
 40
0.0
  9
$LIMCHECK
 70
     0
  9
$BLIPMODE
 70
     0
  9
$CHAMFERA
 40
0.0
  9
$CHAMFERB
 40
0.0
  9
$SKPOLY
 70
     0
  9
$TDCREATE
 40
2458172.5207663891
  9
$TDUPDATE
 40
2458446.5951407412
  9
$TDINDWG
 40
0.1030796528
  9
$TDUSRTIMER
 40
0.1030796528
  9
$USRTIMER
 70
     1
  9
$ANGBASE
 50
0.0
  9
$ANGDIR
 70
     0
  9
$PDMODE
 70
     0
  9
$PDSIZE
 40
0.3125
  9
$PLINEWID
 40
0.0
  9
$COORDS
 70
     2
  9
$SPLFRAME
 70
     0
  9
$SPLINETYPE
 70
     6
  9
$SPLINESEGS
 70
     8
  9
$ATTDIA
 70
     1
  9
$ATTREQ
 70
     1
  9
$HANDLING
 70
     1
  9
$HANDSEED
  5
4372
  9
$SURFTAB1
 70
     6
  9
$SURFTAB2
 70
     6
  9
$SURFTYPE
 70
     6
  9
$SURFU
 70
     6
  9
$SURFV
 70
     6
  9
$UCSNAME
  2

  9
$UCSORG
 10
0.0
 20
0.0
 30
0.0
  9
$UCSXDIR
 10
1.0
 20
0.0
 30
0.0
  9
$UCSYDIR
 10
0.0
 20
1.0
 30
0.0
  9
$PUCSNAME
  2

  9
$PUCSORG
 10
0.0
 20
0.0
 30
0.0
  9
$PUCSXDIR
 10
1.0
 20
0.0
 30
0.0
  9
$PUCSYDIR
 10
0.0
 20
1.0
 30
0.0
  9
$USERI1
 70
     0
  9
$USERI2
 70
     0
  9
$USERI3
 70
     0
  9
$USERI4
 70
     0
  9
$USERI5
 70
     0
  9
$USERR1
 40
0.0
  9
$USERR2
 40
0.0
  9
$USERR3
 40
0.0
  9
$USERR4
 40
0.0
  9
$USERR5
 40
0.0
  9
$WORLDVIEW
 70
     1
  9
$SHADEDGE
 70
     3
  9
$SHADEDIF
 70
    70
  9
$TILEMODE
 70
     1
  9
$MAXACTVP
 70
    64
  9
$PLIMCHECK
 70
     0
  9
$PEXTMIN
 10
1.0000000000000000E+020
 20
1.0000000000000000E+020
 30
1.0000000000000000E+020
  9
$PEXTMAX
 10
-1.0000000000000000E+020
 20
-1.0000000000000000E+020
 30
-1.0000000000000000E+020
  9
$PLIMMIN
 10
0.0
 20
0.0
  9
$PLIMMAX
 10
12.0
 20
9.0
  9
$UNITMODE
 70
     0
  9
$VISRETAIN
 70
     1
  9
$PLINEGEN
 70
     0
  9
$PSLTSCALE
 70
     1
  0
ENDSEC
  0
SECTION
  2
TABLES
  0
TABLE
  2
VPORT
 70
     1
  0
VPORT
  2
*ACTIVE
 70
     0
 10
0.0
 20
0.0
 11
1.0
 21
1.0
 12
0.0
 22
0.0
 13
0.0
 23
0.0
 14
1.0
 24
1.0
 15
0.0
 25
0.0
 16
0.0
 26
0.0
 36
21.38226836581461
 17
321.67264570217668
 27
23.976335933154481
 37
0.0
 40
7.420543529473588
 41
2.1638418079096038
 42
50.0
 43
0.0
 44
0.0
 50
0.0
 51
0.0
 71
     0
 72
   100
 73
     1
 74
     1
 75
     0
 76
     0
 77
     0
 78
     0
  0
ENDTAB
  0
TABLE
  2
LTYPE
 70
     3
  0
LTYPE
  2
CONTINUOUS
 70
     0
  3
Solid line
 72
    65
 73
     0
 40
0.0
  0
LTYPE
  2
PHANTOM2
 70
     0
  3
___ _ _ ___ _ _ ___ _ _ ___ _ _
 72
    65
 73
     6
 40
1.25
 49
0.625
 49
-0.125
 49
0.125
 49
-0.125
 49
0.125
 49
-0.125
  0
ENDTAB
  0
TABLE
  2
LAYER
 70
     2
  0
LAYER
  2
0
 70
     0
 62
   255
  6
CONTINUOUS
  0
LAYER
  2
DEFPOINTS
 70
     0
 62
     7
  6
CONTINUOUS
  0
ENDTAB
  0
TABLE
  2
STYLE
 70
     1
  0
STYLE
  2
STANDARD
 70
     0
 40
0.0
 41
0.8
 50
0.0
 71
     0
 42
0.2
  3
txt
  4

  0
ENDTAB
  0
TABLE
  2
VIEW
 70
     0
  0
ENDTAB
  0
TABLE
  2
UCS
 70
     0
  0
ENDTAB
  0
TABLE
  2
APPID
 70
    10
  0
APPID
  2
ACAD
 70
     0
  0
APPID
  2
ACAD_MLEADERVER
 70
     0
  0
APPID
  2
ACAD_EXEMPT_FROM_CAD_STANDARDS
 70
     0
  0
APPID
  2
ACAD_DSTYLE_DIMJAG
 70
     0
  0
APPID
  2
ACAD_DSTYLE_DIMTALN
 70
     0
  0
APPID
  2
ACAD_NAV_VCDISPLAY
 70
     0
  0
APPID
  2
ACAECLAYERSTANDARD
 70
     0
  0
APPID
  2
ACCMTRANSPARENCY
 70
     0
  0
APPID
  2
DCO15
 70
     0
  0
APPID
  2
ACDBATTR
 70
     0
  0
ENDTAB
  0
TABLE
  2
DIMSTYLE
 70
     2
  0
DIMSTYLE
  2
STANDARD
 70
     0
  3

  4

  5

  6

  7

 40
1.0
 41
0.1875
 42
0.0625
 43
0.38
 44
0.125
 45
0.0
 46
0.0
 47
0.01
 48
0.01
140
0.15625
141
0.09
142
0.0
143
25.399999999999999
144
1.0
145
0.0
146
1.0
147
0.09
 71
     1
 72
     0
 73
     1
 74
     1
 75
     0
 76
     0
 77
     0
 78
     4
170
     0
171
     2
172
     0
173
     0
174
     0
175
     0
176
     0
177
     0
178
     0
  0
ENDTAB
  0
ENDSEC
  0
SECTION
  2
BLOCKS
  0
BLOCK
  8
0
  2
$MODEL_SPACE
 70
     0
 10
0.0
 20
0.0
 30
0.0
  3
$MODEL_SPACE
  1

  0
ENDBLK
  5
21
  8
0
  0
BLOCK
 67
     1
  8
0
  2
$PAPER_SPACE
 70
     0
 10
0.0
 20
0.0
 30
0.0
  3
$PAPER_SPACE
  1

  0
ENDBLK
  5
1D
 67
     1
  8
0
  0
ENDSEC
  0
SECTION
  2
ENTITIES
  0
ATTDEF
  5
829
  8
DEFPOINTS
 10
321.6695800337049
 20
25.835176031121321
 30
0.0
 40
0.001
  1
K-939
  3

  2
MODELNUMBER
 70
     0
1001
ACDBATTR
1070
     0
1070
     1
  0
ATTDEF
  5
82A
  8
DEFPOINTS
 10
321.6695800337049
 20
25.833509364454649
 30
0.0
 40
0.001
  1
PURIST
  3

  2
TRADENAME
 70
     0
1001
ACDBATTR
1070
     0
1070
     1
  0
ATTDEF
  5
82B
  8
DEFPOINTS
 10
321.6695800337049
 20
25.831842697787991
 30
0.0
 40
0.001
  1
SHOWERHEAD
  3

  2
PRODUCT
 70
     0
1001
ACDBATTR
1070
     0
1070
     1
  0
ATTDEF
  5
82C
  8
DEFPOINTS
 10
321.6695800337049
 20
25.830176031121329
 30
0.0
 40
0.001
  1
PREMIUM MATERIALS
  3

  2
MATERIAL
 70
     0
1001
ACDBATTR
1070
     0
1070
     1
  0
LINE
  5
40EC
  8
0
 10
321.21764009475959
 20
25.447056373716428
 30
0.0
 11
321.21764009475982
 21
25.882744785013578
 31
0.0
  0
LINE
  5
40ED
  8
0
 10
322.12764009475973
 20
25.447056342413578
 30
0.0
 11
322.12764009475973
 21
25.882691722110629
 31
0.0
  0
LINE
  5
40EE
  8
0
 10
318.95937312350981
 20
23.365498750363589
 30
0.0
 11
318.93788934770981
 21
24.23567960346357
 31
0.0
  0
LINE
  5
40EF
  8
0
 10
321.17764570730981
 20
26.051608376875791
 30
0.0
 11
321.17764570730981
 21
26.12789401156359
 31
0.0
  0
LINE
  5
40F0
  8
0
 10
320.90445969010977
 20
25.293294533563589
 30
0.0
 11
320.89351716790969
 21
24.85482024356358
 31
0.0
  0
ARC
  5
40F1
  8
0
 10
322.11430852575347
 20
30.90511190537633
 30
0.0
 40
9.446540153512009
 50
263.72112082280751
 51
267.32022055304441
  0
ARC
  5
40F2
  8
0
 10
321.52948904921578
 20
24.620669702556778
 30
0.0
 40
3.137626912117268
 50
235.35129394186541
 51
261.7850109942143
  0
ARC
  5
40F3
  8
0
 10
320.84925590888793
 20
23.649425158164959
 30
0.0
 40
1.9519013838309021
 50
207.1930872312202
 51
235.56855757563389
  0
ARC
  5
40F4
  8
0
 10
320.4222512113322
 20
23.411848903905678
 30
0.0
 40
1.463612187898246
 50
181.81476506387071
 51
206.55967187866781
  0
ARC
  5
40F5
  8
0
 10
320.80463376305312
 20
24.166096358591851
 30
0.0
 40
1.8680408293670829
 50
156.3813149395464
 51
177.8652774978452
  0
ARC
  5
40F6
  8
0
 10
320.67040297849439
 20
24.122980227761762
 30
0.0
 40
1.764795778691499
 50
139.40048228603931
 51
153.3513598391269
  0
ARC
  5
40F7
  8
0
 10
320.97306962223638
 20
23.86466818475639
 30
0.0
 40
2.162704862953241
 50
127.81293030989571
 51
139.42261361428251
  0
ARC
  5
40F8
  8
0
 10
321.33708615561062
 20
23.380381105113631
 30
0.0
 40
2.768488659184114
 50
112.2491904928046
 51
127.6198353085358
  0
ARC
  5
40F9
  8
0
 10
321.58679480341709
 20
22.7996981552762
 30
0.0
 40
3.4005045327077159
 50
102.2105915355863
 51
112.43873760900971
  0
ARC
  5
40FA
  8
0
 10
321.65479325653411
 20
22.510811910622309
 30
0.0
 40
3.6972411788299411
 50
97.332445115507284
 51
102.2936408337556
  0
ARC
  5
40FB
  8
0
 10
321.46458111951023
 20
26.122775236750648
 30
0.0
 40
0.2869810666755583
 50
139.6215124059859
 51
178.97798224165089
  0
ARC
  5
40FC
  8
0
 10
321.59116961938338
 20
26.013466130359269
 30
0.0
 40
0.4542297553434576
 50
111.5472390178944
 51
139.46240877893959
  0
ARC
  5
40FD
  8
0
 10
321.68876804285071
 20
25.635845334323491
 30
0.0
 40
0.8480776568927336
 50
91.08928435702019
 51
100.2319374481374
  0
ARC
  5
40FE
  8
0
 10
321.65811642677079
 20
25.869585155662609
 30
0.0
 40
0.6127155523402053
 50
101.2938952293017
 51
112.42864763598929
  0
ARC
  5
40FF
  8
0
 10
321.59858706673089
 20
25.64179587679039
 30
0.0
 40
0.4289567424862151
 50
207.6848802266357
 51
237.01236944991891
  0
ARC
  5
4100
  8
0
 10
321.66761808844842
 20
25.754849345635531
 30
0.0
 40
0.5613810085826853
 50
237.38494603322491
 51
270.51313616618421
  0
ARC
  5
4101
  8
0
 10
321.65397723868239
 20
25.50242864244003
 30
0.0
 40
0.3634254883201861
 50
217.3406317683928
 51
272.94446911675112
  0
ARC
  5
4102
  8
0
 10
321.40234386985662
 20
24.87631864910108
 30
0.0
 40
0.5092806633426982
 50
182.41936148947499
 51
244.30713463441549
  0
ARC
  5
4103
  8
0
 10
321.66212773453208
 20
25.29269198842044
 30
0.0
 40
0.998554702291457
 50
241.23119496196969
 51
270.60351856318442
  0
ARC
  5
4104
  8
0
 10
321.43462767987307
 20
25.255177280311148
 30
0.0
 40
0.531536473321
 50
114.0935116157236
 51
175.887706605072
  0
ARC
  5
4105
  8
0
 10
321.4055624633038
 20
25.325335366716409
 30
0.0
 40
0.502126084058486
 50
183.65854848778699
 51
243.0026187368322
  0
ARC
  5
4106
  8
0
 10
321.66082555028942
 20
25.726799819281371
 30
0.0
 40
0.97676493920085
 50
240.35019916113271
 51
270.69337188486048
  0
ARC
  5
4107
  8
0
 10
320.5748961651899
 20
24.338803590487839
 30
0.0
 40
1.64025177249597
 50
183.60461044430741
 51
219.67244073971881
  0
ARC
  5
4108
  8
0
 10
321.17135788883178
 20
24.888430260869001
 30
0.0
 40
2.450597355769573
 50
220.66081304234251
 51
247.39184914114759
  0
ARC
  5
4109
  8
0
 10
321.6521151518827
 20
25.955667161910771
 30
0.0
 40
3.620794258710454
 50
246.86111071764839
 51
270.32487904648298
  0
ARC
  5
410A
  8
0
 10
321.62864370338309
 20
22.731218337046592
 30
0.0
 40
3.398125604327876
 50
97.626778132901421
 51
109.97311662690549
  0
ARC
  5
410B
  8
0
 10
321.31028298650591
 20
23.51649302294496
 30
0.0
 40
2.551525508675486
 50
109.27745567087391
 51
135.24981881549181
  0
ARC
  5
410C
  8
0
 10
320.81213229399549
 20
24.057340972212099
 30
0.0
 40
1.817288002210711
 50
136.3027476675237
 51
147.40035522622679
  0
ARC
  5
410D
  8
0
 10
320.47213375310258
 20
24.25940548583025
 30
0.0
 40
1.422047837673615
 50
146.87861552757241
 51
179.47458416685981
  0
ARC
  5
410E
  8
0
 10
320.47828366502239
 20
24.288209257578981
 30
0.0
 40
1.42822495161844
 50
180.63239121447879
 51
216.4796776682648
  0
ARC
  5
410F
  8
0
 10
321.09906260580158
 20
24.751590005262688
 30
0.0
 40
2.2028733937217591
 50
216.57105175786421
 51
243.28453441676751
  0
ARC
  5
4110
  8
0
 10
321.6434570683914
 20
25.81915119761981
 30
0.0
 40
3.4012164729415511
 50
243.17760729634321
 51
270.49170820720019
  0
ARC
  5
4111
  8
0
 10
321.58043066143563
 20
22.899847605522559
 30
0.0
 40
3.2461152976057019
 50
97.127754003659078
 51
120.431890148992
  0
ARC
  5
4112
  8
0
 10
320.90001213642591
 20
24.000982006548721
 30
0.0
 40
1.9522552662568871
 50
119.5825475298014
 51
158.36996023061451
  0
ARC
  5
4113
  8
0
 10
320.4287368921876
 20
24.25976782762752
 30
0.0
 40
1.42034792048786
 50
161.06744601495001
 51
227.69642966497361
  0
ARC
  5
4114
  8
0
 10
321.29460333242599
 20
25.030158584057109
 30
0.0
 40
2.575783975809816
 50
224.98459904999331
 51
254.2533622851457
  0
ARC
  5
4115
  8
0
 10
321.66897287828198
 20
26.062497275158069
 30
0.0
 40
3.671853172897511
 50
253.0024466473287
 51
270.0573109362586
  0
ARC
  5
4116
  8
0
 10
320.43842813507371
 20
24.17585891316336
 30
0.0
 40
1.411377024696594
 50
163.0189742353036
 51
190.98263578531009
  0
ARC
  5
4117
  8
0
 10
320.43286709381903
 20
24.235005491286572
 30
0.0
 40
1.383228184675648
 50
178.44896544199031
 51
198.95599378074991
  0
ARC
  5
4118
  8
0
 10
317.8145580963743
 20
23.59988900221903
 30
0.0
 40
1.323203251100495
 50
3.1148623449559718
 51
8.0713583780578624
  0
ARC
  5
4119
  8
0
 10
321.49144376281851
 20
26.144903622756271
 30
0.0
 40
0.3142587254380957
 50
183.10271551023331
 51
239.09892001700581
  0
ARC
  5
411A
  8
0
 10
321.64343307283991
 20
26.350876642995871
 30
0.0
 40
0.569583237237864
 50
236.6199258658535
 51
258.74033341741841
  0
ARC
  5
411B
  8
0
 10
321.67210341692862
 20
26.465418435289799
 30
0.0
 40
0.6875424943184627
 50
258.26085977700058
 51
270.04519089290869
  0
ARC
  5
411C
  8
0
 10
321.67041371244233
 20
25.85430349246381
 30
0.0
 40
0.5776507472435356
 50
89.778613789517763
 51
110.2262578299792
  0
ARC
  5
411D
  8
0
 10
321.59984906141608
 20
26.026984006454441
 30
0.0
 40
0.3912766438127948
 50
109.27253641819379
 51
143.95511888092059
  0
ARC
  5
411E
  8
0
 10
321.47124595239069
 20
26.126822548206601
 30
0.0
 40
0.2286027561807788
 50
145.22157822357161
 51
234.31048021767799
  0
ARC
  5
411F
  8
0
 10
321.66076620905233
 20
26.352480521403031
 30
0.0
 40
0.5229195158304192
 50
231.86862001917291
 51
271.30173641933379
  0
ARC
  5
4120
  8
0
 10
321.54727425067682
 20
26.041981283604549
 30
0.0
 40
0.3095850045310706
 50
115.09102544125371
 51
168.5550146770544
  0
ARC
  5
4121
  8
0
 10
321.6678014458231
 20
25.825079198471549
 30
0.0
 40
0.5573943051554373
 50
89.502042027461684
 51
116.8567303701432
  0
LINE
  5
4122
  8
0
 10
324.38591828084361
 20
23.365498750363589
 30
0.0
 11
324.4074020566436
 21
24.23567960346357
 31
0.0
  0
LINE
  5
4123
  8
0
 10
322.16764569704361
 20
26.04682171158991
 30
0.0
 11
322.16764569704361
 21
26.12789401156359
 31
0.0
  0
LINE
  5
4124
  8
0
 10
322.4408317142437
 20
25.293294533563589
 30
0.0
 11
322.45177423644361
 21
24.85482024356358
 31
0.0
  0
ARC
  5
4125
  8
0
 10
321.23098287859989
 20
30.90511190537633
 30
0.0
 40
9.446540153512009
 50
272.679779446959
 51
276.27887917719249
  0
ARC
  5
4126
  8
0
 10
321.81580235513752
 20
24.620669702556778
 30
0.0
 40
3.137626912117268
 50
278.21498900578581
 51
304.64870605813189
  0
ARC
  5
4127
  8
0
 10
322.49603549546538
 20
23.649425158164959
 30
0.0
 40
1.9519013838309021
 50
304.43144242436608
 51
332.8069127687798
  0
ARC
  5
4128
  8
0
 10
322.92304019302122
 20
23.411848903905678
 30
0.0
 40
1.463612187898246
 50
333.44032812133219
 51
358.18523493612912
  0
ARC
  5
4129
  8
0
 10
322.5406576413003
 20
24.166096358591851
 30
0.0
 40
1.8680408293670829
 50
2.134722502154577
 51
23.618685060453188
  0
ARC
  5
412A
  8
0
 10
322.67488842585891
 20
24.122980227761762
 30
0.0
 40
1.764795778691499
 50
26.64864016087304
 51
40.599517713960658
  0
ARC
  5
412B
  8
0
 10
322.37222178211698
 20
23.86466818475639
 30
0.0
 40
2.162704862953241
 50
40.577386385717467
 51
52.187069690104259
  0
ARC
  5
412C
  8
0
 10
322.00820524874268
 20
23.380381105113631
 30
0.0
 40
2.768488659184114
 50
52.380164691464223
 51
67.750809507195385
  0
ARC
  5
412D
  8
0
 10
321.75849660093621
 20
22.7996981552762
 30
0.0
 40
3.4005045327077159
 50
67.561262390990223
 51
77.789408464410457
  0
ARC
  5
412E
  8
0
 10
321.69049814781943
 20
22.510811910622309
 30
0.0
 40
3.6972411788299411
 50
77.706359166244425
 51
82.66755488449364
  0
ARC
  5
412F
  8
0
 10
321.88071028484308
 20
26.122775236750648
 30
0.0
 40
0.2869810666755583
 50
1.022017758349032
 51
40.378487594013983
  0
ARC
  5
4130
  8
0
 10
321.75412178496998
 20
26.013466130359269
 30
0.0
 40
0.4542297553434576
 50
40.537591221060367
 51
68.452760982105602
  0
ARC
  5
4131
  8
0
 10
321.65652336150282
 20
25.635845334323491
 30
0.0
 40
0.8480776568927336
 50
79.768062551862613
 51
88.910715642976555
  0
ARC
  5
4132
  8
0
 10
321.68717497758269
 20
25.869585155662609
 30
0.0
 40
0.6127155523402053
 50
67.571352364010679
 51
78.706104770698332
  0
ARC
  5
4133
  8
0
 10
321.82665901373161
 20
25.590782213272739
 30
0.0
 40
0.3345401554282835
 50
324.69085490677111
 51
333.690914180748
  0
ARC
  5
4134
  8
0
 10
321.7409542653574
 20
25.64900725369829
 30
0.0
 40
0.4381371502777469
 50
303.10490646495282
 51
324.95527976138447
  0
ARC
  5
4135
  8
0
 10
321.67767331590511
 20
25.754849345635531
 30
0.0
 40
0.5613810085826853
 50
269.48686383381579
 51
302.61505396677512
  0
ARC
  5
4136
  8
0
 10
321.69131416567097
 20
25.50242864244003
 30
0.0
 40
0.3634254883201861
 50
267.05553088324888
 51
322.65936823160501
  0
ARC
  5
4137
  8
0
 10
321.94294753449668
 20
24.87631864910108
 30
0.0
 40
0.5092806633426982
 50
295.69286536558451
 51
357.58063851052481
  0
ARC
  5
4138
  8
0
 10
321.68316366982128
 20
25.29269198842044
 30
0.0
 40
0.998554702291457
 50
269.39648143681882
 51
298.76880503802738
  0
ARC
  5
4139
  8
0
 10
321.91066372448017
 20
25.255177280311148
 30
0.0
 40
0.531536473321
 50
4.112293394927768
 51
65.907812622977175
  0
ARC
  5
413A
  8
0
 10
321.93972894104962
 20
25.325335366716409
 30
0.0
 40
0.502126084058486
 50
296.99738126316782
 51
356.34145151221298
  0
ARC
  5
413B
  8
0
 10
321.68446585406389
 20
25.726799819281371
 30
0.0
 40
0.97676493920085
 50
269.30662811513952
 51
299.64980083886729
  0
ARC
  5
413C
  8
0
 10
322.77039523916352
 20
24.338803590487839
 30
0.0
 40
1.64025177249597
 50
320.32755926028119
 51
356.39538955569259
  0
ARC
  5
413D
  8
0
 10
322.17393351552158
 20
24.888430260869001
 30
0.0
 40
2.450597355769573
 50
292.60815085884929
 51
319.33918695765539
  0
ARC
  5
413E
  8
0
 10
321.69317625247078
 20
25.955667161910771
 30
0.0
 40
3.620794258710454
 50
269.67512095351691
 51
293.13888928235161
  0
ARC
  5
413F
  8
0
 10
321.71664770097021
 20
22.731218337046592
 30
0.0
 40
3.398125604327876
 50
70.026883373094492
 51
82.373221867097726
  0
ARC
  5
4140
  8
0
 10
322.03500841784751
 20
23.51649302294496
 30
0.0
 40
2.551525508675486
 50
44.750181184508158
 51
70.722544329122812
  0
ARC
  5
4141
  8
0
 10
322.53315911035781
 20
24.057340972212099
 30
0.0
 40
1.817288002210711
 50
32.599644773773143
 51
43.697252332476133
  0
ARC
  5
4142
  8
0
 10
322.87315765125072
 20
24.25940548583025
 30
0.0
 40
1.422047837673615
 50
0.5254158331402279
 51
33.12138447242755
  0
ARC
  5
4143
  8
0
 10
322.86700773933109
 20
24.288209257578981
 30
0.0
 40
1.42822495161844
 50
323.52032233173412
 51
359.3676087855207
  0
ARC
  5
4144
  8
0
 10
322.24622879855178
 20
24.751590005262688
 30
0.0
 40
2.2028733937217591
 50
296.71546558323251
 51
323.42894824213562
  0
ARC
  5
4145
  8
0
 10
321.70183433596202
 20
25.81915119761981
 30
0.0
 40
3.4012164729415511
 50
269.50829179279651
 51
296.82239270365682
  0
ARC
  5
4146
  8
0
 10
321.76486074291779
 20
22.899847605522559
 30
0.0
 40
3.2461152976057019
 50
59.568109851007918
 51
82.872245996340908
  0
ARC
  5
4147
  8
0
 10
322.4452792679275
 20
24.000982006548721
 30
0.0
 40
1.9522552662568871
 50
21.630039769385441
 51
60.417452470198569
  0
ARC
  5
4148
  8
0
 10
322.91655451216582
 20
24.25976782762752
 30
0.0
 40
1.42034792048786
 50
312.30357033502628
 51
18.932553985049989
  0
ARC
  5
4149
  8
0
 10
322.05068807192742
 20
25.030158584057109
 30
0.0
 40
2.575783975809816
 50
285.74663771485439
 51
315.01540095000672
  0
ARC
  5
414A
  8
0
 10
321.67631852607133
 20
26.062497275158069
 30
0.0
 40
3.671853172897511
 50
269.9426890637381
 51
286.99755335267128
  0
ARC
  5
414B
  8
0
 10
322.90686326927971
 20
24.17585891316336
 30
0.0
 40
1.411377024696594
 50
349.01736421468968
 51
16.981025764696241
  0
ARC
  5
414C
  8
0
 10
322.91242431053428
 20
24.235005491286572
 30
0.0
 40
1.383228184675648
 50
341.0440062192497
 51
1.551034558009724
  0
ARC
  5
414D
  8
0
 10
325.53073330797912
 20
23.59988900221903
 30
0.0
 40
1.323203251100495
 50
171.92864162194189
 51
176.88513765504399
  0
ARC
  5
414E
  8
0
 10
321.85384764153491
 20
26.144903622756271
 30
0.0
 40
0.3142587254380957
 50
300.90107998299419
 51
356.89728448976661
  0
ARC
  5
414F
  8
0
 10
321.70185833151339
 20
26.350876642995871
 30
0.0
 40
0.569583237237864
 50
281.25966658258159
 51
303.38007413414653
  0
ARC
  5
4150
  8
0
 10
321.67318798742491
 20
26.465418435289799
 30
0.0
 40
0.6875424943184627
 50
269.95480910709131
 51
281.73914022299942
  0
ARC
  5
4151
  8
0
 10
321.67487769191121
 20
25.85430349246381
 30
0.0
 40
0.5776507472435356
 50
69.773742170020753
 51
90.221386210482223
  0
ARC
  5
4152
  8
0
 10
321.74544234293728
 20
26.026984006454441
 30
0.0
 40
0.3912766438127948
 50
36.044881119079349
 51
70.72746358180612
  0
ARC
  5
4153
  8
0
 10
321.87404545196267
 20
26.126822548206601
 30
0.0
 40
0.2286027561807788
 50
305.6895197823219
 51
34.778421776428402
  0
ARC
  5
4154
  8
0
 10
321.68452519530109
 20
26.352480521403031
 30
0.0
 40
0.5229195158304192
 50
268.69826358066291
 51
308.13137998082709
  0
ARC
  5
4155
  8
0
 10
321.7980171536766
 20
26.041981283604549
 30
0.0
 40
0.3095850045310706
 50
11.44498532294555
 51
64.908974558745939
  0
ARC
  5
4156
  8
0
 10
321.67748995853032
 20
25.825079198471549
 30
0.0
 40
0.5573943051554373
 50
63.143269629856817
 51
90.497957972535033
  0
ARC
  5
4158
  8
0
 10
321.6645345014129
 20
26.082511201275949
 30
0.0
 40
0.5043754701044049
 50
336.66090623259112
 51
355.9423732440282
  0
ARC
  5
4159
  8
0
 10
321.6653928820603
 20
26.07796052060009
 30
0.0
 40
0.4884585365781638
 50
183.0925859422814
 51
203.5567200160479
  0
ARC
  5
415A
  8
0
 10
321.2276414441622
 20
25.44705656730121
 30
0.0
 40
0.0100013494045305
 50
180.00110900941789
 51
207.1098162310318
  0
ARC
  5
415B
  8
0
 10
322.11728583850658
 20
25.44714241914394
 30
0.0
 40
0.0103546140323173
 50
333.42168449254552
 51
359.5237012068398
  0
ARC
  5
415C
  8
0
 10
321.66630627130189
 20
25.643443885653308
 30
0.0
 40
0.2759261379766456
 50
88.683507844384238
 51
129.1300552798632
  0
ARC
  5
415D
  8
0
 10
321.6691858318564
 20
25.607603606819868
 30
0.0
 40
0.2787680106670094
 50
89.288867268567472
 51
120.785364585856
  0
ARC
  5
415E
  8
0
 10
321.67898513305539
 20
25.643443885653308
 30
0.0
 40
0.2759261379766456
 50
50.869944720450228
 51
91.316492155619017
  0
ARC
  5
415F
  8
0
 10
321.67610557250089
 20
25.607603606819868
 30
0.0
 40
0.2787680106670094
 50
59.214635414435797
 51
90.711132731432514
  0
ARC
  5
4160
  8
0
 10
321.42569334831228
 20
25.33042610037862
 30
0.0
 40
0.270684141522734
 50
140.2301301574297
 51
197.35565349109959
  0
ARC
  5
4161
  8
0
 10
321.5184102415364
 20
25.37921697693195
 30
0.0
 40
0.3742123826641293
 50
200.25248768991071
 51
243.09340803276751
  0
ARC
  5
4162
  8
0
 10
321.6498404996691
 20
25.59121171201026
 30
0.0
 40
0.6230978548313633
 50
241.1374790090218
 51
259.50920204678539
  0
ARC
  5
4163
  8
0
 10
321.67224951097609
 20
25.691332361985872
 30
0.0
 40
0.7256350580740328
 50
259.20878365834631
 51
270.03128305979692
  0
ARC
  5
4164
  8
0
 10
321.43524180071142
 20
25.297592861135168
 30
0.0
 40
0.2721593250061882
 50
143.0860014592898
 51
190.13950370323849
  0
ARC
  5
4165
  8
0
 10
321.67273428977848
 20
25.088404079619892
 30
0.0
 40
0.5280965684219793
 50
144.03872592597469
 51
162.63515498222131
  0
ARC
  5
4166
  8
0
 10
321.919598056045
 20
25.33042610037862
 30
0.0
 40
0.270684141522734
 50
342.6443465088683
 51
39.773580542007252
  0
ARC
  5
4167
  8
0
 10
321.826881162821
 20
25.37921697693195
 30
0.0
 40
0.3742123826641293
 50
296.90659196722959
 51
339.74751231008912
  0
ARC
  5
4168
  8
0
 10
321.69545090468819
 20
25.59121171201026
 30
0.0
 40
0.6230978548313633
 50
280.49079795321461
 51
298.86252099097823
  0
ARC
  5
4169
  8
0
 10
321.67304189338108
 20
25.691332361985872
 30
0.0
 40
0.7256350580740328
 50
269.96871694020308
 51
280.79121634165051
  0
ARC
  5
416A
  8
0
 10
321.91004960364592
 20
25.297592861135168
 30
0.0
 40
0.2721593250061882
 50
349.86049629676148
 51
36.917929295816073
  0
ARC
  5
416B
  8
0
 10
321.67255711457881
 20
25.088404079619892
 30
0.0
 40
0.5280965684219793
 50
17.364845017778482
 51
35.920996959621782
  0
ARC
  5
416C
  8
0
 10
321.47673131798319
 20
26.051639189560269
 30
0.0
 40
0.1945721501976326
 50
147.0638650145662
 51
201.46225367232179
  0
ARC
  5
416D
  8
0
 10
321.58314686935068
 20
25.976590479436378
 30
0.0
 40
0.3247290570500549
 50
110.40749112011051
 51
146.1590128219247
  0
ARC
  5
416E
  8
0
 10
321.65128391673289
 20
25.82894086439806
 30
0.0
 40
0.4870279393554548
 50
97.154602388850748
 51
111.8635947564095
  0
ARC
  5
416F
  8
0
 10
321.65761868576237
 20
25.7874806117647
 30
0.0
 40
0.5289555363185626
 50
88.372073995474565
 51
97.276102509610567
  0
ARC
  5
4170
  8
0
 10
321.49759084335818
 20
26.023237693565481
 30
0.0
 40
0.1843355296598296
 50
130.74986446394411
 51
204.2891287996828
  0
ARC
  5
4171
  8
0
 10
321.61984830985091
 20
25.90192190234005
 30
0.0
 40
0.3562979830244671
 50
103.51271597044391
 51
132.90976468628929
  0
ARC
  5
4172
  8
0
 10
321.66025785066358
 20
25.77360224399489
 30
0.0
 40
0.4905959480496194
 50
88.553092299595434
 51
104.5997991324693
  0
ARC
  5
4173
  8
0
 10
321.53367249265023
 20
25.9552281466331
 30
0.0
 40
0.2206774563642133
 50
121.7923686691157
 51
170.53058704078219
  0
ARC
  5
4174
  8
0
 10
321.637076483692
 20
25.814007910028241
 30
0.0
 40
0.3954171756248896
 50
100.3011036434952
 51
123.7472573521821
  0
ARC
  5
4175
  8
0
 10
321.66063619312803
 20
25.718083635557679
 30
0.0
 40
0.494045038347411
 50
88.607086573923453
 51
101.00005112657961
  0
ARC
  5
4176
  8
0
 10
321.54925225989263
 20
25.893284983330449
 30
0.0
 40
0.2374819405713244
 50
118.9899815306765
 51
162.48594283734829
  0
ARC
  5
4177
  8
0
 10
321.64313405377482
 20
25.74856467979922
 30
0.0
 40
0.409745021650613
 50
98.840093119247797
 51
120.6652996420551
  0
ARC
  5
4178
  8
0
 10
321.66079461032751
 20
25.666013188152931
 30
0.0
 40
0.4940528922720477
 50
88.625485872135485
 51
99.392642509305958
  0
ARC
  5
4179
  8
0
 10
321.55553150365432
 20
25.8352652676238
 30
0.0
 40
0.2450648625346993
 50
121.5896144974312
 51
153.93053323447819
  0
ARC
  5
417A
  8
0
 10
321.63831030746923
 20
25.711291540359341
 30
0.0
 40
0.3940699314620138
 50
101.480564055019
 51
122.3997026070203
  0
ARC
  5
417B
  8
0
 10
321.6606156785013
 20
25.62115528908927
 30
0.0
 40
0.4868580942135584
 50
88.584105406337358
 51
101.94174931672551
  0
ARC
  5
417C
  8
0
 10
321.58381865866352
 20
25.755331231597982
 30
0.0
 40
0.2835333890915003
 50
116.25296659142811
 51
142.900726076826
  0
ARC
  5
417D
  8
0
 10
321.64493584643583
 20
25.642171408427021
 30
0.0
 40
0.4120825111397112
 50
101.01468923547731
 51
116.9145838072621
  0
ARC
  5
417E
  8
0
 10
321.66067742275669
 20
25.570963644768462
 30
0.0
 40
0.4849896132293604
 50
88.585945970644516
 51
101.23284211913681
  0
ARC
  5
417F
  8
0
 10
321.65076866231209
 20
25.599609076358401
 30
0.0
 40
0.4047294573586163
 50
86.901452998388393
 51
130.62432842899099
  0
ARC
  5
4180
  8
0
 10
321.8685600863742
 20
26.051639189560269
 30
0.0
 40
0.1945721501976326
 50
338.53774632767801
 51
32.936134985433831
  0
ARC
  5
4181
  8
0
 10
321.7621445350066
 20
25.976590479436378
 30
0.0
 40
0.3247290570500549
 50
33.840987178075217
 51
69.592508879889479
  0
ARC
  5
4182
  8
0
 10
321.69400748762439
 20
25.82894086439806
 30
0.0
 40
0.4870279393554548
 50
68.136405243590289
 51
82.845397611149266
  0
ARC
  5
4183
  8
0
 10
321.68767271859491
 20
25.7874806117647
 30
0.0
 40
0.5289555363185626
 50
82.723897490389433
 51
91.627926004522124
  0
ARC
  5
4184
  8
0
 10
321.8477005609991
 20
26.023237693565481
 30
0.0
 40
0.1843355296598296
 50
335.71087120357691
 51
49.250135536055893
  0
ARC
  5
4185
  8
0
 10
321.72544309450637
 20
25.90192190234005
 30
0.0
 40
0.3562979830244671
 50
47.0902353137107
 51
76.487284029556051
  0
ARC
  5
4186
  8
0
 10
321.68503355369359
 20
25.77360224399489
 30
0.0
 40
0.4905959480496194
 50
75.400200867530657
 51
91.44690770040458
  0
ARC
  5
4187
  8
0
 10
321.81161891170711
 20
25.9552281466331
 30
0.0
 40
0.2206774563642133
 50
9.4694129592283982
 51
58.207631330884247
  0
ARC
  5
4188
  8
0
 10
321.70821492066528
 20
25.814007910028241
 30
0.0
 40
0.3954171756248896
 50
56.252742647817911
 51
79.698896356501535
  0
ARC
  5
4189
  8
0
 10
321.68465521122943
 20
25.718083635557679
 30
0.0
 40
0.494045038347411
 50
78.999948873423577
 51
91.392913426073264
  0
ARC
  5
418A
  8
0
 10
321.79603914446483
 20
25.893284983330449
 30
0.0
 40
0.2374819405713244
 50
17.514057162656972
 51
61.010018469323477
  0
ARC
  5
418B
  8
0
 10
321.70215735058252
 20
25.74856467979922
 30
0.0
 40
0.409745021650613
 50
59.334700357944882
 51
81.159906880752203
  0
ARC
  5
418C
  8
0
 10
321.68449679402988
 20
25.666013188152931
 30
0.0
 40
0.4940528922720477
 50
80.607357490694042
 51
91.374514127864515
  0
ARC
  5
418D
  8
0
 10
321.78975990070307
 20
25.8352652676238
 30
0.0
 40
0.2450648625346993
 50
26.069466766082709
 51
58.410385502568822
  0
ARC
  5
418E
  8
0
 10
321.706981096888
 20
25.711291540359341
 30
0.0
 40
0.3940699314620138
 50
57.600297392979648
 51
78.519435944980984
  0
ARC
  5
418F
  8
0
 10
321.68467572585598
 20
25.62115528908927
 30
0.0
 40
0.4868580942135584
 50
78.058250683274423
 51
91.415894593659374
  0
ARC
  5
4190
  8
0
 10
321.76147274569382
 20
25.755331231597982
 30
0.0
 40
0.2835333890915003
 50
37.09927392363808
 51
63.747033408571859
  0
ARC
  5
4191
  8
0
 10
321.70035555792151
 20
25.642171408427021
 30
0.0
 40
0.4120825111397112
 50
63.085416192737817
 51
78.98531076452268
  0
ARC
  5
4192
  8
0
 10
321.68461398160071
 20
25.570963644768462
 30
0.0
 40
0.4849896132293604
 50
78.767157880863181
 51
91.414054029355498
  0
ARC
  5
4193
  8
0
 10
321.69452274204531
 20
25.599609076358401
 30
0.0
 40
0.4047294573586163
 50
49.375671571317042
 51
93.098547001608353
  0
ARC
  5
4194
  8
0
 10
321.67264651958487
 20
25.543703605861911
 30
0.0
 40
0.3154895055593046
 50
69.407243313425866
 51
110.59286430966171
  0
ARC
  5
4195
  8
0
 10
321.67264544315452
 20
25.558651714800291
 30
0.0
 40
0.2782678546008247
 50
78.535466275038189
 51
101.4645020262857
  0
ENDSEC
  0
EOF
