  0
SECTION
  2
HEADER
  9
$ACADVER
  1
AC1009
  9
$INSBASE
 10
309.83581184801108
 20
31.610074026810089
 30
0.0
  9
$EXTMIN
 10
307.1010554935458
 20
26.59520477870997
 30
0.0
  9
$EXTMAX
 10
312.57056820247971
 20
31.610074026810089
 30
0.0
  9
$LIMMIN
 10
0.0
 20
0.0
  9
$LIMMAX
 10
11.692913385800001
 20
8.2677165353999982
  9
$ORTHOMODE
 70
     1
  9
$REGENMODE
 70
     1
  9
$FILLMODE
 70
     1
  9
$QTEXTMODE
 70
     0
  9
$MIRRTEXT
 70
     0
  9
$DRAGMODE
 70
     2
  9
$LTSCALE
 40
0.6431102362
  9
$OSMODE
 70
  3071
  9
$ATTMODE
 70
     1
  9
$TEXTSIZE
 40
0.2
  9
$TRACEWID
 40
0.05
  9
$TEXTSTYLE
  7
STANDARD
  9
$CLAYER
  8
0
  9
$CELTYPE
  6
BYLAYER
  9
$CECOLOR
 62
   256
  9
$DIMSCALE
 40
1.0
  9
$DIMASZ
 40
0.1875
  9
$DIMEXO
 40
0.0625
  9
$DIMDLI
 40
0.4443307087
  9
$DIMRND
 40
0.0
  9
$DIMDLE
 40
0.0
  9
$DIMEXE
 40
0.125
  9
$DIMTP
 40
0.01
  9
$DIMTM
 40
0.01
  9
$DIMTXT
 40
1.0
  9
$DIMCEN
 40
0.1052362205
  9
$DIMTSZ
 40
0.0
  9
$DIMTOL
 70
     1
  9
$DIMLIM
 70
     0
  9
$DIMTIH
 70
     0
  9
$DIMTOH
 70
     1
  9
$DIMSE1
 70
     0
  9
$DIMSE2
 70
     0
  9
$DIMTAD
 70
     0
  9
$DIMZIN
 70
     0
  9
$DIMBLK
  1

  9
$DIMASO
 70
     1
  9
$DIMSHO
 70
     1
  9
$DIMPOST
  1
\X
  9
$DIMAPOST
  1

  9
$DIMALT
 70
     1
  9
$DIMALTD
 70
     2
  9
$DIMALTF
 40
25.399999999999999
  9
$DIMLFAC
 40
1.0
  9
$DIMTOFL
 70
     0
  9
$DIMTVP
 40
0.0
  9
$DIMTIX
 70
     0
  9
$DIMSOXD
 70
     0
  9
$DIMSAH
 70
     0
  9
$DIMBLK1
  1

  9
$DIMBLK2
  1

  9
$DIMSTYLE
  2
STANDARD
  9
$DIMCLRD
 70
     0
  9
$DIMCLRE
 70
     0
  9
$DIMCLRT
 70
     0
  9
$DIMTFAC
 40
1.0
  9
$DIMGAP
 40
0.09
  9
$LUNITS
 70
     2
  9
$LUPREC
 70
     4
  9
$SKETCHINC
 40
0.1
  9
$FILLETRAD
 40
0.0
  9
$AUNITS
 70
     0
  9
$AUPREC
 70
     0
  9
$MENU
  1
.
  9
$ELEVATION
 40
0.0
  9
$PELEVATION
 40
0.0
  9
$THICKNESS
 40
0.0
  9
$LIMCHECK
 70
     0
  9
$BLIPMODE
 70
     0
  9
$CHAMFERA
 40
0.0
  9
$CHAMFERB
 40
0.0
  9
$SKPOLY
 70
     0
  9
$TDCREATE
 40
2458172.5207663891
  9
$TDUPDATE
 40
2458443.6495459718
  9
$TDINDWG
 40
0.0937042708
  9
$TDUSRTIMER
 40
0.0937042708
  9
$USRTIMER
 70
     1
  9
$ANGBASE
 50
0.0
  9
$ANGDIR
 70
     0
  9
$PDMODE
 70
     0
  9
$PDSIZE
 40
0.3125
  9
$PLINEWID
 40
0.0
  9
$COORDS
 70
     1
  9
$SPLFRAME
 70
     0
  9
$SPLINETYPE
 70
     6
  9
$SPLINESEGS
 70
     8
  9
$ATTDIA
 70
     1
  9
$ATTREQ
 70
     1
  9
$HANDLING
 70
     1
  9
$HANDSEED
  5
468A
  9
$SURFTAB1
 70
     6
  9
$SURFTAB2
 70
     6
  9
$SURFTYPE
 70
     6
  9
$SURFU
 70
     6
  9
$SURFV
 70
     6
  9
$UCSNAME
  2

  9
$UCSORG
 10
0.0
 20
0.0
 30
0.0
  9
$UCSXDIR
 10
1.0
 20
0.0
 30
0.0
  9
$UCSYDIR
 10
0.0
 20
1.0
 30
0.0
  9
$PUCSNAME
  2

  9
$PUCSORG
 10
0.0
 20
0.0
 30
0.0
  9
$PUCSXDIR
 10
1.0
 20
0.0
 30
0.0
  9
$PUCSYDIR
 10
0.0
 20
1.0
 30
0.0
  9
$USERI1
 70
     0
  9
$USERI2
 70
     0
  9
$USERI3
 70
     0
  9
$USERI4
 70
     0
  9
$USERI5
 70
     0
  9
$USERR1
 40
0.0
  9
$USERR2
 40
0.0
  9
$USERR3
 40
0.0
  9
$USERR4
 40
0.0
  9
$USERR5
 40
0.0
  9
$WORLDVIEW
 70
     1
  9
$SHADEDGE
 70
     3
  9
$SHADEDIF
 70
    70
  9
$TILEMODE
 70
     1
  9
$MAXACTVP
 70
    64
  9
$PLIMCHECK
 70
     0
  9
$PEXTMIN
 10
1.0000000000000000E+020
 20
1.0000000000000000E+020
 30
1.0000000000000000E+020
  9
$PEXTMAX
 10
-1.0000000000000000E+020
 20
-1.0000000000000000E+020
 30
-1.0000000000000000E+020
  9
$PLIMMIN
 10
0.0
 20
0.0
  9
$PLIMMAX
 10
12.0
 20
9.0
  9
$UNITMODE
 70
     0
  9
$VISRETAIN
 70
     1
  9
$PLINEGEN
 70
     0
  9
$PSLTSCALE
 70
     1
  0
ENDSEC
  0
SECTION
  2
TABLES
  0
TABLE
  2
VPORT
 70
     1
  0
VPORT
  2
*ACTIVE
 70
     0
 10
0.0
 20
0.0
 11
1.0
 21
1.0
 12
0.0
 22
0.0
 13
0.0
 23
0.0
 14
1.0
 24
1.0
 15
0.0
 25
0.0
 16
0.0
 26
0.0
 36
21.38180842139079
 17
309.83581184801278
 27
29.10263940276003
 37
0.0
 40
7.4242603129039706
 41
2.1637831603229518
 42
50.0
 43
0.0
 44
0.0
 50
0.0
 51
0.0
 71
     0
 72
   100
 73
     1
 74
     1
 75
     0
 76
     0
 77
     0
 78
     0
  0
ENDTAB
  0
TABLE
  2
LTYPE
 70
     2
  0
LTYPE
  2
CONTINUOUS
 70
     0
  3
Solid line
 72
    65
 73
     0
 40
0.0
  0
LTYPE
  2
PHANTOM2
 70
     0
  3
___ _ _ ___ _ _ ___ _ _ ___ _ _
 72
    65
 73
     6
 40
1.25
 49
0.625
 49
-0.125
 49
0.125
 49
-0.125
 49
0.125
 49
-0.125
  0
ENDTAB
  0
TABLE
  2
LAYER
 70
     2
  0
LAYER
  2
0
 70
     0
 62
   255
  6
CONTINUOUS
  0
LAYER
  2
DEFPOINTS
 70
     0
 62
     7
  6
CONTINUOUS
  0
ENDTAB
  0
TABLE
  2
STYLE
 70
     1
  0
STYLE
  2
STANDARD
 70
     0
 40
0.0
 41
0.8
 50
0.0
 71
     0
 42
0.2
  3
txt
  4

  0
ENDTAB
  0
TABLE
  2
VIEW
 70
     0
  0
ENDTAB
  0
TABLE
  2
UCS
 70
     0
  0
ENDTAB
  0
TABLE
  2
APPID
 70
    10
  0
APPID
  2
ACAD
 70
     0
  0
APPID
  2
ACAD_MLEADERVER
 70
     0
  0
APPID
  2
ACAD_EXEMPT_FROM_CAD_STANDARDS
 70
     0
  0
APPID
  2
ACAD_DSTYLE_DIMJAG
 70
     0
  0
APPID
  2
ACAD_DSTYLE_DIMTALN
 70
     0
  0
APPID
  2
ACAD_NAV_VCDISPLAY
 70
     0
  0
APPID
  2
ACAECLAYERSTANDARD
 70
     0
  0
APPID
  2
ACCMTRANSPARENCY
 70
     0
  0
APPID
  2
DCO15
 70
     0
  0
APPID
  2
ACDBATTR
 70
     0
  0
ENDTAB
  0
TABLE
  2
DIMSTYLE
 70
     1
  0
DIMSTYLE
  2
STANDARD
 70
     0
  3

  4

  5

  6

  7

 40
1.0
 41
0.1875
 42
0.0625
 43
0.38
 44
0.125
 45
0.0
 46
0.0
 47
0.01
 48
0.01
140
0.15625
141
0.09
142
0.0
143
25.399999999999999
144
1.0
145
0.0
146
1.0
147
0.09
 71
     1
 72
     0
 73
     1
 74
     1
 75
     0
 76
     0
 77
     0
 78
     4
170
     0
171
     2
172
     0
173
     0
174
     0
175
     0
176
     0
177
     0
178
     0
  0
ENDTAB
  0
ENDSEC
  0
SECTION
  2
BLOCKS
  0
BLOCK
  8
0
  2
$MODEL_SPACE
 70
     0
 10
0.0
 20
0.0
 30
0.0
  3
$MODEL_SPACE
  1

  0
ENDBLK
  5
21
  8
0
  0
BLOCK
 67
     1
  8
0
  2
$PAPER_SPACE
 70
     0
 10
0.0
 20
0.0
 30
0.0
  3
$PAPER_SPACE
  1

  0
ENDBLK
  5
1D
 67
     1
  8
0
  0
ENDSEC
  0
SECTION
  2
ENTITIES
  0
ATTDEF
  5
829
  8
DEFPOINTS
 10
309.83072729515692
 20
31.607737174800072
 30
0.0
 40
0.001
  1
K-939
  3

  2
MODELNUMBER
 70
     0
1001
ACDBATTR
1070
     0
1070
     1
  0
ATTDEF
  5
82A
  8
DEFPOINTS
 10
309.83072729515692
 20
31.606070508133399
 30
0.0
 40
0.001
  1
PURIST
  3

  2
TRADENAME
 70
     0
1001
ACDBATTR
1070
     0
1070
     1
  0
ATTDEF
  5
82B
  8
DEFPOINTS
 10
309.83072729515692
 20
31.604403841466741
 30
0.0
 40
0.001
  1
SHOWERHEAD
  3

  2
PRODUCT
 70
     0
1001
ACDBATTR
1070
     0
1070
     1
  0
ATTDEF
  5
82C
  8
DEFPOINTS
 10
309.83072729515692
 20
31.602737174800069
 30
0.0
 40
0.001
  1
PREMIUM MATERIALS
  3

  2
MATERIAL
 70
     0
1001
ACDBATTR
1070
     0
1070
     1
  0
LINE
  5
41EB
  8
0
 10
307.1010554935458
 20
29.361754752510109
 30
0.0
 11
307.12254487549581
 21
28.491574424510109
 31
0.0
  0
ARC
  5
41EC
  8
0
 10
309.83939632098878
 20
30.9679040869086
 30
0.0
 40
0.6421799437537852
 50
90.319811046497279
 51
126.1305481379663
  0
ARC
  5
41ED
  8
0
 10
309.66244382426169
 20
31.231957477305009
 30
0.0
 40
0.3248256973936075
 50
128.38411564360371
 51
167.21504654655041
  0
ARC
  5
41EE
  8
0
 10
309.83502681138492
 20
27.503195736576821
 30
0.0
 40
3.8320174172894381
 50
89.98826224389164
 51
97.336807061411676
  0
ARC
  5
41EF
  8
0
 10
309.7904683899875
 20
27.787914034849521
 30
0.0
 40
3.5439486886625371
 50
97.210143768551021
 51
110.4473725549816
  0
ARC
  5
41F0
  8
0
 10
309.54227522624768
 20
28.432424303842961
 30
0.0
 40
2.8533508595795252
 50
110.2988248532081
 51
126.1374259504467
  0
ARC
  5
41F1
  8
0
 10
309.01210589881322
 20
29.1278832555783
 30
0.0
 40
1.979123462441889
 50
125.6152035453522
 51
152.18457865347219
  0
ARC
  5
41F2
  8
0
 10
308.69063680165192
 20
29.355088891229212
 30
0.0
 40
1.5895952845887951
 50
154.02126982831521
 51
179.75973328476729
  0
ARC
  5
41F3
  8
0
 10
308.72107077268743
 20
28.571393760140658
 30
0.0
 40
1.6005174695493369
 50
182.85858104645311
 51
226.894700185217
  0
ARC
  5
41F4
  8
0
 10
309.50485405097572
 20
29.367244716670179
 30
0.0
 40
2.717307438509823
 50
226.29582723983211
 51
252.8522923401467
  0
ARC
  5
41F5
  8
0
 10
309.80126398436897
 20
30.158731626561099
 30
0.0
 40
3.561352647051824
 50
252.04986702083349
 51
262.99782512132907
  0
ARC
  5
41F6
  8
0
 10
310.15694752499189
 20
35.669753389282072
 30
0.0
 40
9.080229105516322
 50
265.00986005511919
 51
267.97322770403252
  0
ARC
  5
41F7
  8
0
 10
308.7396218748944
 20
28.47135610611226
 30
0.0
 40
1.6172033893059561
 50
129.07092331103431
 51
179.28366802845579
  0
ARC
  5
41F8
  8
0
 10
309.54078223545463
 20
27.593367638761698
 30
0.0
 40
2.8046403954388208
 50
105.6001975828611
 51
130.4727675313836
  0
ARC
  5
41F9
  8
0
 10
309.81102335094113
 20
26.81689866433263
 30
0.0
 40
3.6255450573500481
 50
95.898177146799355
 51
106.4137089838883
  0
ARC
  5
41FA
  8
0
 10
309.83537747667327
 20
26.624944298647979
 30
0.0
 40
3.8189885359431921
 50
89.993483184276343
 51
95.965686999597594
  0
ARC
  5
41FB
  8
0
 10
309.8300963888974
 20
26.785026752777579
 30
0.0
 40
3.5426178736149661
 50
89.907562192979512
 51
104.3367962026777
  0
ARC
  5
41FC
  8
0
 10
309.62055397637499
 20
27.493731112991949
 30
0.0
 40
2.8042327029465892
 50
103.7743720924835
 51
126.9345354717795
  0
ARC
  5
41FD
  8
0
 10
308.88859329558238
 20
28.40598614044157
 30
0.0
 40
1.635626118052506
 50
125.6419380640049
 51
166.9340732736575
  0
ARC
  5
41FE
  8
0
 10
308.63901200431161
 20
28.519745203995939
 30
0.0
 40
1.367870388014834
 50
169.2129228915563
 51
218.1136197462429
  0
ARC
  5
41FF
  8
0
 10
309.33171693569051
 20
29.049478025399281
 30
0.0
 40
2.2398716514883801
 50
217.83823117537531
 51
247.0487447343549
  0
ARC
  5
4200
  8
0
 10
309.81532742375867
 20
30.091681870306221
 30
0.0
 40
3.3883778692823752
 50
246.39059151542671
 51
270.34638350565632
  0
ARC
  5
4201
  8
0
 10
309.81534308804032
 20
27.325020200562552
 30
0.0
 40
2.9524956937295879
 50
89.602782501818908
 51
114.14865213249981
  0
ARC
  5
4202
  8
0
 10
309.45622309517768
 20
28.13641553557553
 30
0.0
 40
2.0651943419677972
 50
114.2666697390292
 51
134.12218818666881
  0
ARC
  5
4203
  8
0
 10
308.92524709967762
 20
28.650548288312351
 30
0.0
 40
1.3266634488647231
 50
133.1188744727354
 51
173.27472890223839
  0
ARC
  5
4204
  8
0
 10
308.77822517530751
 20
28.70293289985187
 30
0.0
 40
1.175034100606893
 50
174.97218010443871
 51
208.6565351750159
  0
ARC
  5
4205
  8
0
 10
309.07777179961607
 20
28.84463437474794
 30
0.0
 40
1.505967137853073
 50
207.92202212211029
 51
233.53327216895431
  0
ARC
  5
4206
  8
0
 10
309.64817502532492
 20
29.563962711527878
 30
0.0
 40
2.4236756411239861
 50
232.79609710044161
 51
255.4225823191035
  0
ARC
  5
4207
  8
0
 10
309.83087695169968
 20
30.16971718387413
 30
0.0
 40
3.0560108901147278
 50
254.9658744120953
 51
270.09252220103861
  0
ARC
  5
4208
  8
0
 10
309.83116237244877
 20
28.281556587129462
 30
0.0
 40
0.5765052443794947
 50
89.537908427873731
 51
116.2180471918785
  0
ARC
  5
4209
  8
0
 10
309.70345569744347
 20
28.51194743747131
 30
0.0
 40
0.3136584769725875
 50
113.8821372567959
 51
172.04245940107231
  0
ARC
  5
420A
  8
0
 10
309.65744308777158
 20
28.550896751973092
 30
0.0
 40
0.2646634350208397
 50
179.0315452730506
 51
234.2113365772997
  0
ARC
  5
420B
  8
0
 10
309.79998776051042
 20
28.714986970919011
 30
0.0
 40
0.4815316960174338
 50
231.87024132948429
 51
256.86525543483248
  0
ARC
  5
420C
  8
0
 10
309.83515973549271
 20
28.836907373716091
 30
0.0
 40
0.6082902324878661
 50
256.24862829092518
 51
270.06142347900271
  0
LINE
  5
420D
  8
0
 10
312.57056820247971
 20
29.361754752510109
 30
0.0
 11
312.5490788205297
 21
28.491574424510109
 31
0.0
  0
ARC
  5
420E
  8
0
 10
309.83222737503678
 20
30.967904086908739
 30
0.0
 40
0.6421799437536206
 50
53.869451862033671
 51
89.680188953812134
  0
ARC
  5
420F
  8
0
 10
310.00917987176382
 20
31.231957477305009
 30
0.0
 40
0.3248256973936075
 50
12.78495345344952
 51
51.615884356396244
  0
ARC
  5
4210
  8
0
 10
309.83659688464058
 20
27.503195736576821
 30
0.0
 40
3.8320174172894381
 50
82.66319293858831
 51
90.011737756111614
  0
ARC
  5
4211
  8
0
 10
309.88115530603801
 20
27.787914034849521
 30
0.0
 40
3.5439486886625371
 50
69.55262744501843
 51
82.789856231448965
  0
ARC
  5
4212
  8
0
 10
310.12934846977782
 20
28.432424303842961
 30
0.0
 40
2.8533508595795252
 50
53.862574049553317
 51
69.701175146791911
  0
ARC
  5
4213
  8
0
 10
310.65951779721229
 20
29.1278832555783
 30
0.0
 40
1.979123462441889
 50
27.815421346527621
 51
54.384796454647741
  0
ARC
  5
4214
  8
0
 10
310.98098689437359
 20
29.355088891229212
 30
0.0
 40
1.5895952845887951
 50
0.2402667152326203
 51
25.97873017168477
  0
ARC
  5
4215
  8
0
 10
310.95055292333808
 20
28.571393760140658
 30
0.0
 40
1.6005174695493369
 50
313.105299814783
 51
357.14141895354692
  0
ARC
  5
4216
  8
0
 10
310.16676964504978
 20
29.367244716670179
 30
0.0
 40
2.717307438509823
 50
287.1477076598502
 51
313.70417276016781
  0
ARC
  5
4217
  8
0
 10
309.87035971165648
 20
30.158731626561099
 30
0.0
 40
3.561352647051824
 50
277.00217487867081
 51
287.95013297916648
  0
ARC
  5
4218
  8
0
 10
309.51467617104811
 20
35.669753389090687
 30
0.0
 40
9.0802291053244275
 50
272.02677229589261
 51
274.99013994489718
  0
ARC
  5
4219
  8
0
 10
310.93200182113111
 20
28.47135610611226
 30
0.0
 40
1.6172033893059561
 50
0.7163319715441739
 51
50.929076688965722
  0
ARC
  5
421A
  8
0
 10
310.13084146057088
 20
27.593367638761698
 30
0.0
 40
2.8046403954388208
 50
49.527232468616148
 51
74.399802417138858
  0
ARC
  5
421B
  8
0
 10
309.86060034508438
 20
26.81689866433263
 30
0.0
 40
3.6255450573500481
 50
73.586291016108504
 51
84.101822853197362
  0
ARC
  5
421C
  8
0
 10
309.83624621935229
 20
26.624944298647979
 30
0.0
 40
3.8189885359431921
 50
84.034313000402392
 51
90.006516815726883
  0
ARC
  5
421D
  8
0
 10
309.84152730712822
 20
26.785026752777579
 30
0.0
 40
3.5426178736149661
 50
75.663203797322311
 51
90.092437807020474
  0
ARC
  5
421E
  8
0
 10
310.05106971965063
 20
27.493731112991949
 30
0.0
 40
2.8042327029465892
 50
53.065464528220502
 51
76.225627907516426
  0
ARC
  5
421F
  8
0
 10
310.78303040044312
 20
28.40598614044157
 30
0.0
 40
1.635626118052506
 50
13.065926726342321
 51
54.358061935995067
  0
ARC
  5
4220
  8
0
 10
311.0326116917139
 20
28.519745203995939
 30
0.0
 40
1.367870388014834
 50
321.88638025375712
 51
10.787077108443651
  0
ARC
  5
4221
  8
0
 10
310.339906760335
 20
29.049478025399281
 30
0.0
 40
2.2398716514883801
 50
292.9512552656451
 51
322.16176882462457
  0
ARC
  5
4222
  8
0
 10
309.85629627226677
 20
30.091681870306221
 30
0.0
 40
3.3883778692823752
 50
269.65361649434038
 51
293.60940848457318
  0
ARC
  5
4223
  8
0
 10
309.85628060798518
 20
27.325020200562552
 30
0.0
 40
2.9524956937295879
 50
65.851347867500138
 51
90.397217498181078
  0
ARC
  5
4224
  8
0
 10
310.21540060084789
 20
28.13641553557553
 30
0.0
 40
2.0651943419677972
 50
45.877811813331057
 51
65.733330260967762
  0
ARC
  5
4225
  8
0
 10
310.746376596348
 20
28.650548288312351
 30
0.0
 40
1.3266634488647231
 50
6.7252710977613743
 51
46.881125527264871
  0
ARC
  5
4226
  8
0
 10
310.89339852071799
 20
28.70293289985187
 30
0.0
 40
1.175034100606893
 50
331.34346482498381
 51
5.0278198955612901
  0
ARC
  5
4227
  8
0
 10
310.59385189640938
 20
28.84463437474794
 30
0.0
 40
1.505967137853073
 50
306.46672783104509
 51
332.07797787788962
  0
ARC
  5
4228
  8
0
 10
310.02344867070059
 20
29.563962711527878
 30
0.0
 40
2.4236756411239861
 50
284.57741768089647
 51
307.203902899561
  0
ARC
  5
4229
  8
0
 10
309.84074674432583
 20
30.16971718387413
 30
0.0
 40
3.0560108901147278
 50
269.9074777989581
 51
285.03412558790473
  0
ARC
  5
422A
  8
0
 10
309.84046132357668
 20
28.281556587129462
 30
0.0
 40
0.5765052443794947
 50
63.781952808121503
 51
90.462091572123015
  0
ARC
  5
422B
  8
0
 10
309.96816799858198
 20
28.51194743747131
 30
0.0
 40
0.3136584769725875
 50
7.9575405989272614
 51
66.117862743201087
  0
ARC
  5
422C
  8
0
 10
310.01418060825392
 20
28.550896751973092
 30
0.0
 40
0.2646634350208397
 50
305.78866342270032
 51
0.968454726949343
  0
ARC
  5
422D
  8
0
 10
309.87163593551509
 20
28.714986970919011
 30
0.0
 40
0.4815316960174338
 50
283.13474456516741
 51
308.12975867051318
  0
ARC
  5
422E
  8
0
 10
309.8364639605328
 20
28.836907373716091
 30
0.0
 40
0.6082902324878661
 50
269.9385765209941
 51
283.75137170907482
  0
LINE
  5
4230
  8
0
 10
309.78010527396452
 20
29.959964641716319
 30
0.0
 11
309.77754145106451
 21
30.001977304216329
 31
0.0
  0
LINE
  5
4231
  8
0
 10
309.89110062267451
 20
29.959013517070929
 30
0.0
 11
309.89600880736452
 21
30.000297391016328
 31
0.0
  0
ARC
  5
4232
  8
0
 10
309.82401428329121
 20
29.962830702646521
 30
0.0
 40
0.0440024477195299
 50
183.73455425856321
 51
228.64016983914291
  0
ARC
  5
4233
  8
0
 10
309.8343988189614
 20
29.974109424607839
 30
0.0
 40
0.0593309059771841
 50
228.31033496026981
 51
260.73002242222231
  0
ARC
  5
4234
  8
0
 10
309.83608073917981
 20
29.979104076901951
 30
0.0
 40
0.0645369333191782
 50
259.97059284585009
 51
293.7709003540927
  0
ARC
  5
4235
  8
0
 10
309.84451024904138
 20
29.963410299765769
 30
0.0
 40
0.0467973782742005
 50
292.07061931858777
 51
354.6089032123632
  0
CIRCLE
  5
4236
  8
0
 10
309.83519438148409
 20
29.954813012082418
 30
0.0
 40
0.0166555298752413
  0
ARC
  5
4237
  8
0
 10
309.82627014453959
 20
29.975981206472419
 30
0.0
 40
0.0552293641759222
 50
107.8497920275893
 51
151.92068328706441
  0
ARC
  5
4238
  8
0
 10
309.83581184793002
 20
29.95365314452032
 30
0.0
 40
0.0794389175188702
 50
66.513372559220343
 51
109.4644227635565
  0
ARC
  5
4239
  8
0
 10
309.8447203780774
 20
29.97310199404486
 30
0.0
 40
0.058052498612662
 50
27.934516089822228
 51
66.927347277579216
  0
ARC
  5
423A
  8
0
 10
309.82681830364743
 20
29.957955078750921
 30
0.0
 40
0.0467562347019241
 50
105.0695850748681
 51
177.5366931257231
  0
ARC
  5
423B
  8
0
 10
309.83477126956279
 20
29.94114929806571
 30
0.0
 40
0.0651359462523046
 50
50.132251168780257
 51
107.982517150398
  0
ARC
  5
423C
  8
0
 10
309.84862616097348
 20
29.95911520254127
 30
0.0
 40
0.0424745834202148
 50
359.86283199539753
 51
48.941761233987769
  0
ARC
  5
423D
  8
0
 10
309.8188482989101
 20
29.983413494886371
 30
0.0
 40
0.0452865399089404
 50
155.80025865475051
 51
211.1840303444863
  0
ARC
  5
423E
  8
0
 10
309.86243990369758
 20
29.983354652452189
 30
0.0
 40
0.0376022297732119
 50
319.65923561886621
 51
26.780775736759171
  0
LINE
  5
423F
  8
0
 10
309.78010527396452
 20
29.62823123215523
 30
0.0
 11
309.77754145106451
 21
29.67024389465524
 31
0.0
  0
LINE
  5
4240
  8
0
 10
309.89110062267451
 20
29.627280107509829
 30
0.0
 11
309.89600880736452
 21
29.668563981455229
 31
0.0
  0
ARC
  5
4241
  8
0
 10
309.82401428329121
 20
29.631097293085428
 30
0.0
 40
0.0440024477195299
 50
183.73455425856321
 51
228.64016983914291
  0
ARC
  5
4242
  8
0
 10
309.8343988189614
 20
29.642376015046739
 30
0.0
 40
0.0593309059771841
 50
228.31033496026981
 51
260.73002242222231
  0
ARC
  5
4243
  8
0
 10
309.83608073917981
 20
29.647370667340851
 30
0.0
 40
0.0645369333191782
 50
259.97059284585009
 51
293.7709003540927
  0
ARC
  5
4244
  8
0
 10
309.84451024904138
 20
29.63167689020467
 30
0.0
 40
0.0467973782742005
 50
292.07061931858777
 51
354.6089032123632
  0
CIRCLE
  5
4245
  8
0
 10
309.83519438148409
 20
29.623079602521319
 30
0.0
 40
0.0166555298752413
  0
ARC
  5
4246
  8
0
 10
309.82627014453959
 20
29.644247796911319
 30
0.0
 40
0.0552293641759222
 50
107.8497920275893
 51
151.92068328706441
  0
ARC
  5
4247
  8
0
 10
309.83581184793002
 20
29.621919734959231
 30
0.0
 40
0.0794389175188702
 50
66.513372559220343
 51
109.4644227635565
  0
ARC
  5
4248
  8
0
 10
309.8447203780774
 20
29.641368584483761
 30
0.0
 40
0.058052498612662
 50
27.934516089822228
 51
66.927347277579216
  0
ARC
  5
4249
  8
0
 10
309.82681830364743
 20
29.626221669189821
 30
0.0
 40
0.0467562347019241
 50
105.0695850748681
 51
177.5366931257231
  0
ARC
  5
424A
  8
0
 10
309.83477126956279
 20
29.609415888504611
 30
0.0
 40
0.0651359462523046
 50
50.132251168780257
 51
107.982517150398
  0
ARC
  5
424B
  8
0
 10
309.84862616097348
 20
29.627381792980181
 30
0.0
 40
0.0424745834202148
 50
359.86283199539753
 51
48.941761233987769
  0
ARC
  5
424C
  8
0
 10
309.8188482989101
 20
29.651680085325271
 30
0.0
 40
0.0452865399089404
 50
155.80025865475051
 51
211.1840303444863
  0
ARC
  5
424D
  8
0
 10
309.86243990369758
 20
29.651621242891089
 30
0.0
 40
0.0376022297732119
 50
319.65923561886621
 51
26.780775736759171
  0
LINE
  5
424E
  8
0
 10
309.78010527396452
 20
29.306854025305249
 30
0.0
 11
309.77754145106451
 21
29.348866687805259
 31
0.0
  0
LINE
  5
424F
  8
0
 10
309.89110062267451
 20
29.305902900659849
 30
0.0
 11
309.89600880736452
 21
29.347186774605259
 31
0.0
  0
ARC
  5
4250
  8
0
 10
309.82401428329121
 20
29.309720086235451
 30
0.0
 40
0.0440024477195299
 50
183.73455425856321
 51
228.64016983914291
  0
ARC
  5
4251
  8
0
 10
309.8343988189614
 20
29.320998808196769
 30
0.0
 40
0.0593309059771841
 50
228.31033496026981
 51
260.73002242222231
  0
ARC
  5
4252
  8
0
 10
309.83608073917981
 20
29.325993460490881
 30
0.0
 40
0.0645369333191782
 50
259.97059284585009
 51
293.7709003540927
  0
ARC
  5
4253
  8
0
 10
309.84451024904138
 20
29.310299683354689
 30
0.0
 40
0.0467973782742005
 50
292.07061931858777
 51
354.6089032123632
  0
CIRCLE
  5
4254
  8
0
 10
309.83519438148409
 20
29.301702395671342
 30
0.0
 40
0.0166555298752413
  0
ARC
  5
4255
  8
0
 10
309.82627014453959
 20
29.322870590061349
 30
0.0
 40
0.0552293641759222
 50
107.8497920275893
 51
151.92068328706441
  0
ARC
  5
4256
  8
0
 10
309.83581184793002
 20
29.300542528109251
 30
0.0
 40
0.0794389175188702
 50
66.513372559220343
 51
109.4644227635565
  0
ARC
  5
4257
  8
0
 10
309.8447203780774
 20
29.31999137763378
 30
0.0
 40
0.058052498612662
 50
27.934516089822228
 51
66.927347277579216
  0
ARC
  5
4258
  8
0
 10
309.82681830364743
 20
29.30484446233984
 30
0.0
 40
0.0467562347019241
 50
105.0695850748681
 51
177.5366931257231
  0
ARC
  5
4259
  8
0
 10
309.83477126956279
 20
29.28803868165463
 30
0.0
 40
0.0651359462523046
 50
50.132251168780257
 51
107.982517150398
  0
ARC
  5
425A
  8
0
 10
309.84862616097348
 20
29.3060045861302
 30
0.0
 40
0.0424745834202148
 50
359.86283199539753
 51
48.941761233987769
  0
ARC
  5
425B
  8
0
 10
309.8188482989101
 20
29.33030287847529
 30
0.0
 40
0.0452865399089404
 50
155.80025865475051
 51
211.1840303444863
  0
ARC
  5
425C
  8
0
 10
309.86243990369758
 20
29.330244036041108
 30
0.0
 40
0.0376022297732119
 50
319.65923561886621
 51
26.780775736759171
  0
LINE
  5
425D
  8
0
 10
309.78010527396452
 20
28.995712863391098
 30
0.0
 11
309.77754145106451
 21
29.037725525891108
 31
0.0
  0
LINE
  5
425E
  8
0
 10
309.89110062267451
 20
28.994761738745709
 30
0.0
 11
309.89600880736452
 21
29.036045612691112
 31
0.0
  0
ARC
  5
425F
  8
0
 10
309.82401428329121
 20
28.998578924321301
 30
0.0
 40
0.0440024477195299
 50
183.73455425856321
 51
228.64016983914291
  0
ARC
  5
4260
  8
0
 10
309.8343988189614
 20
29.009857646282619
 30
0.0
 40
0.0593309059771841
 50
228.31033496026981
 51
260.73002242222231
  0
ARC
  5
4261
  8
0
 10
309.83608073917981
 20
29.014852298576731
 30
0.0
 40
0.0645369333191782
 50
259.97059284585009
 51
293.7709003540927
  0
ARC
  5
4262
  8
0
 10
309.84451024904138
 20
28.999158521440549
 30
0.0
 40
0.0467973782742005
 50
292.07061931858777
 51
354.6089032123632
  0
CIRCLE
  5
4263
  8
0
 10
309.83519438148409
 20
28.990561233757202
 30
0.0
 40
0.0166555298752413
  0
ARC
  5
4264
  8
0
 10
309.82627014453959
 20
29.011729428147198
 30
0.0
 40
0.0552293641759222
 50
107.8497920275893
 51
151.92068328706441
  0
ARC
  5
4265
  8
0
 10
309.83581184793002
 20
28.9894013661951
 30
0.0
 40
0.0794389175188702
 50
66.513372559220343
 51
109.4644227635565
  0
ARC
  5
4266
  8
0
 10
309.8447203780774
 20
29.00885021571964
 30
0.0
 40
0.058052498612662
 50
27.934516089822228
 51
66.927347277579216
  0
ARC
  5
4267
  8
0
 10
309.82681830364743
 20
28.9937033004257
 30
0.0
 40
0.0467562347019241
 50
105.0695850748681
 51
177.5366931257231
  0
ARC
  5
4268
  8
0
 10
309.83477126956279
 20
28.976897519740479
 30
0.0
 40
0.0651359462523046
 50
50.132251168780257
 51
107.982517150398
  0
ARC
  5
4269
  8
0
 10
309.84862616097348
 20
28.994863424216049
 30
0.0
 40
0.0424745834202148
 50
359.86283199539753
 51
48.941761233987769
  0
ARC
  5
426A
  8
0
 10
309.8188482989101
 20
29.01916171656115
 30
0.0
 40
0.0452865399089404
 50
155.80025865475051
 51
211.1840303444863
  0
ARC
  5
426B
  8
0
 10
309.86243990369758
 20
29.019102874126968
 30
0.0
 40
0.0376022297732119
 50
319.65923561886621
 51
26.780775736759171
  0
LINE
  5
426C
  8
0
 10
310.4961693652703
 20
29.858714827801691
 30
0.0
 11
310.49360554237018
 21
29.900727490301691
 31
0.0
  0
LINE
  5
426D
  8
0
 10
310.60716471398018
 20
29.857763703156291
 30
0.0
 11
310.61207289867031
 21
29.89904757710169
 31
0.0
  0
ARC
  5
426E
  8
0
 10
310.54007837459687
 20
29.861580888731879
 30
0.0
 40
0.0440024477195299
 50
183.73455425856321
 51
228.64016983914291
  0
ARC
  5
426F
  8
0
 10
310.55046291026707
 20
29.872859610693201
 30
0.0
 40
0.0593309059771841
 50
228.31033496026981
 51
260.73002242222231
  0
ARC
  5
4270
  8
0
 10
310.55214483048547
 20
29.877854262987309
 30
0.0
 40
0.0645369333191782
 50
259.97059284585009
 51
293.7709003540927
  0
ARC
  5
4271
  8
0
 10
310.5605743403471
 20
29.862160485851131
 30
0.0
 40
0.0467973782742005
 50
292.07061931858777
 51
354.6089032123632
  0
CIRCLE
  5
4272
  8
0
 10
310.55125847278981
 20
29.85356319816778
 30
0.0
 40
0.0166555298752413
  0
ARC
  5
4273
  8
0
 10
310.54233423584532
 20
29.874731392557781
 30
0.0
 40
0.0552293641759222
 50
107.8497920275893
 51
151.92068328706441
  0
ARC
  5
4274
  8
0
 10
310.5518759392358
 20
29.852403330605679
 30
0.0
 40
0.0794389175188702
 50
66.513372559220343
 51
109.4644227635565
  0
ARC
  5
4275
  8
0
 10
310.56078446938312
 20
29.871852180130219
 30
0.0
 40
0.058052498612662
 50
27.934516089822228
 51
66.927347277579216
  0
ARC
  5
4276
  8
0
 10
310.54288239495321
 20
29.856705264836279
 30
0.0
 40
0.0467562347019241
 50
105.0695850748681
 51
177.5366931257231
  0
ARC
  5
4277
  8
0
 10
310.55083536086852
 20
29.839899484151069
 30
0.0
 40
0.0651359462523046
 50
50.132251168780257
 51
107.982517150398
  0
ARC
  5
4278
  8
0
 10
310.56469025227932
 20
29.857865388626639
 30
0.0
 40
0.0424745834202148
 50
359.86283199539753
 51
48.941761233987769
  0
ARC
  5
4279
  8
0
 10
310.53491239021582
 20
29.882163680971729
 30
0.0
 40
0.0452865399089404
 50
155.80025865475051
 51
211.1840303444863
  0
ARC
  5
427A
  8
0
 10
310.5785039950033
 20
29.882104838537551
 30
0.0
 40
0.0376022297732119
 50
319.65923561886621
 51
26.780775736759171
  0
LINE
  5
427B
  8
0
 10
310.34042014777032
 20
29.549061098901689
 30
0.0
 11
310.33785632487019
 21
29.591073761401699
 31
0.0
  0
LINE
  5
427C
  8
0
 10
310.45141549648019
 20
29.548109974256288
 30
0.0
 11
310.45632368117032
 21
29.589393848201691
 31
0.0
  0
ARC
  5
427D
  8
0
 10
310.38432915709689
 20
29.551927159831891
 30
0.0
 40
0.0440024477195299
 50
183.73455425856321
 51
228.64016983914291
  0
ARC
  5
427E
  8
0
 10
310.3947136927672
 20
29.563205881793198
 30
0.0
 40
0.0593309059771841
 50
228.31033496026981
 51
260.73002242222231
  0
ARC
  5
427F
  8
0
 10
310.39639561298549
 20
29.56820053408731
 30
0.0
 40
0.0645369333191782
 50
259.97059284585009
 51
293.7709003540927
  0
ARC
  5
4280
  8
0
 10
310.40482512284711
 20
29.552506756951129
 30
0.0
 40
0.0467973782742005
 50
292.07061931858777
 51
354.6089032123632
  0
CIRCLE
  5
4281
  8
0
 10
310.39550925528982
 20
29.543909469267781
 30
0.0
 40
0.0166555298752413
  0
ARC
  5
4282
  8
0
 10
310.38658501834527
 20
29.565077663657782
 30
0.0
 40
0.0552293641759222
 50
107.8497920275893
 51
151.92068328706441
  0
ARC
  5
4283
  8
0
 10
310.39612672173581
 20
29.54274960170569
 30
0.0
 40
0.0794389175188702
 50
66.513372559220343
 51
109.4644227635565
  0
ARC
  5
4284
  8
0
 10
310.40503525188308
 20
29.56219845123022
 30
0.0
 40
0.058052498612662
 50
27.934516089822228
 51
66.927347277579216
  0
ARC
  5
4285
  8
0
 10
310.38713317745322
 20
29.54705153593628
 30
0.0
 40
0.0467562347019241
 50
105.0695850748681
 51
177.5366931257231
  0
ARC
  5
4286
  8
0
 10
310.39508614336847
 20
29.53024575525107
 30
0.0
 40
0.0651359462523046
 50
50.132251168780257
 51
107.982517150398
  0
ARC
  5
4287
  8
0
 10
310.40894103477928
 20
29.54821165972664
 30
0.0
 40
0.0424745834202148
 50
359.86283199539753
 51
48.941761233987769
  0
ARC
  5
4288
  8
0
 10
310.37916317271578
 20
29.57250995207173
 30
0.0
 40
0.0452865399089404
 50
155.80025865475051
 51
211.1840303444863
  0
ARC
  5
4289
  8
0
 10
310.42275477750343
 20
29.572451109637552
 30
0.0
 40
0.0376022297732119
 50
319.65923561886621
 51
26.780775736759171
  0
LINE
  5
428A
  8
0
 10
310.23905870952018
 20
28.861197296301679
 30
0.0
 11
310.23649488662028
 21
28.903209958801689
 31
0.0
  0
LINE
  5
428B
  8
0
 10
310.35005405823023
 20
28.860246171656289
 30
0.0
 11
310.35496224292018
 21
28.901530045601689
 31
0.0
  0
ARC
  5
428C
  8
0
 10
310.28296771884698
 20
28.864063357231881
 30
0.0
 40
0.0440024477195299
 50
183.73455425856321
 51
228.64016983914291
  0
ARC
  5
428D
  8
0
 10
310.29335225451717
 20
28.875342079193199
 30
0.0
 40
0.0593309059771841
 50
228.31033496026981
 51
260.73002242222231
  0
ARC
  5
428E
  8
0
 10
310.29503417473558
 20
28.880336731487311
 30
0.0
 40
0.0645369333191782
 50
259.97059284585009
 51
293.7709003540927
  0
ARC
  5
428F
  8
0
 10
310.3034636845972
 20
28.86464295435113
 30
0.0
 40
0.0467973782742005
 50
292.07061931858777
 51
354.6089032123632
  0
CIRCLE
  5
4290
  8
0
 10
310.29414781703991
 20
28.856045666667779
 30
0.0
 40
0.0166555298752413
  0
ARC
  5
4291
  8
0
 10
310.28522358009542
 20
28.877213861057779
 30
0.0
 40
0.0552293641759222
 50
107.8497920275893
 51
151.92068328706441
  0
ARC
  5
4292
  8
0
 10
310.29476528348579
 20
28.854885799105681
 30
0.0
 40
0.0794389175188702
 50
66.513372559220343
 51
109.4644227635565
  0
ARC
  5
4293
  8
0
 10
310.30367381363322
 20
28.874334648630221
 30
0.0
 40
0.058052498612662
 50
27.934516089822228
 51
66.927347277579216
  0
ARC
  5
4294
  8
0
 10
310.2857717392032
 20
28.859187733336281
 30
0.0
 40
0.0467562347019241
 50
105.0695850748681
 51
177.5366931257231
  0
ARC
  5
4295
  8
0
 10
310.29372470511862
 20
28.842381952651071
 30
0.0
 40
0.0651359462523046
 50
50.132251168780257
 51
107.982517150398
  0
ARC
  5
4296
  8
0
 10
310.30757959652931
 20
28.86034785712663
 30
0.0
 40
0.0424745834202148
 50
359.86283199539753
 51
48.941761233987769
  0
ARC
  5
4297
  8
0
 10
310.27780173446592
 20
28.884646149471731
 30
0.0
 40
0.0452865399089404
 50
155.80025865475051
 51
211.1840303444863
  0
ARC
  5
4298
  8
0
 10
310.3213933392534
 20
28.884587307037549
 30
0.0
 40
0.0376022297732119
 50
319.65923561886621
 51
26.780775736759171
  0
LINE
  5
4299
  8
0
 10
310.51891074607022
 20
29.086833262701688
 30
0.0
 11
310.5163469231702
 21
29.128845925201698
 31
0.0
  0
LINE
  5
429A
  8
0
 10
310.62990609478021
 20
29.085882138056292
 30
0.0
 11
310.63481427947022
 21
29.127166012001702
 31
0.0
  0
ARC
  5
429B
  8
0
 10
310.5628197553969
 20
29.08969932363188
 30
0.0
 40
0.0440024477195299
 50
183.73455425856321
 51
228.64016983914291
  0
ARC
  5
429C
  8
0
 10
310.57320429106721
 20
29.100978045593202
 30
0.0
 40
0.0593309059771841
 50
228.31033496026981
 51
260.73002242222231
  0
ARC
  5
429D
  8
0
 10
310.5748862112855
 20
29.10597269788731
 30
0.0
 40
0.0645369333191782
 50
259.97059284585009
 51
293.7709003540927
  0
ARC
  5
429E
  8
0
 10
310.58331572114707
 20
29.090278920751128
 30
0.0
 40
0.0467973782742005
 50
292.07061931858777
 51
354.6089032123632
  0
CIRCLE
  5
429F
  8
0
 10
310.5739998535899
 20
29.081681633067781
 30
0.0
 40
0.0166555298752413
  0
ARC
  5
42A0
  8
0
 10
310.5650756166454
 20
29.102849827457781
 30
0.0
 40
0.0552293641759222
 50
107.8497920275893
 51
151.92068328706441
  0
ARC
  5
42A1
  8
0
 10
310.57461732003583
 20
29.08052176550569
 30
0.0
 40
0.0794389175188702
 50
66.513372559220343
 51
109.4644227635565
  0
ARC
  5
42A2
  8
0
 10
310.58352585018309
 20
29.09997061503022
 30
0.0
 40
0.058052498612662
 50
27.934516089822228
 51
66.927347277579216
  0
ARC
  5
42A3
  8
0
 10
310.56562377575318
 20
29.08482369973628
 30
0.0
 40
0.0467562347019241
 50
105.0695850748681
 51
177.5366931257231
  0
ARC
  5
42A4
  8
0
 10
310.57357674166849
 20
29.068017919051059
 30
0.0
 40
0.0651359462523046
 50
50.132251168780257
 51
107.982517150398
  0
ARC
  5
42A5
  8
0
 10
310.58743163307929
 20
29.085983823526639
 30
0.0
 40
0.0424745834202148
 50
359.86283199539753
 51
48.941761233987769
  0
ARC
  5
42A6
  8
0
 10
310.55765377101591
 20
29.110282115871719
 30
0.0
 40
0.0452865399089404
 50
155.80025865475051
 51
211.1840303444863
  0
ARC
  5
42A7
  8
0
 10
310.60124537580339
 20
29.110223273437551
 30
0.0
 40
0.0376022297732119
 50
319.65923561886621
 51
26.780775736759171
  0
LINE
  5
42A8
  8
0
 10
310.81072170607018
 20
29.323638371501691
 30
0.0
 11
310.80815788317022
 21
29.365651034001701
 31
0.0
  0
LINE
  5
42A9
  8
0
 10
310.92171705478017
 20
29.32268724685629
 30
0.0
 11
310.92662523947018
 21
29.3639711208017
 31
0.0
  0
ARC
  5
42AA
  8
0
 10
310.85463071539692
 20
29.326504432431879
 30
0.0
 40
0.0440024477195299
 50
183.73455425856321
 51
228.64016983914291
  0
ARC
  5
42AB
  8
0
 10
310.86501525106712
 20
29.3377831543932
 30
0.0
 40
0.0593309059771841
 50
228.31033496026981
 51
260.73002242222231
  0
ARC
  5
42AC
  8
0
 10
310.86669717128552
 20
29.342777806687309
 30
0.0
 40
0.0645369333191782
 50
259.97059284585009
 51
293.7709003540927
  0
ARC
  5
42AD
  8
0
 10
310.87512668114709
 20
29.327084029551131
 30
0.0
 40
0.0467973782742005
 50
292.07061931858777
 51
354.6089032123632
  0
CIRCLE
  5
42AE
  8
0
 10
310.8658108135898
 20
29.31848674186778
 30
0.0
 40
0.0166555298752413
  0
ARC
  5
42AF
  8
0
 10
310.85688657664531
 20
29.33965493625778
 30
0.0
 40
0.0552293641759222
 50
107.8497920275893
 51
151.92068328706441
  0
ARC
  5
42B0
  8
0
 10
310.86642828003579
 20
29.317326874305689
 30
0.0
 40
0.0794389175188702
 50
66.513372559220343
 51
109.4644227635565
  0
ARC
  5
42B1
  8
0
 10
310.87533681018311
 20
29.336775723830218
 30
0.0
 40
0.058052498612662
 50
27.934516089822228
 51
66.927347277579216
  0
ARC
  5
42B2
  8
0
 10
310.8574347357532
 20
29.321628808536278
 30
0.0
 40
0.0467562347019241
 50
105.0695850748681
 51
177.5366931257231
  0
ARC
  5
42B3
  8
0
 10
310.86538770166851
 20
29.304823027851072
 30
0.0
 40
0.0651359462523046
 50
50.132251168780257
 51
107.982517150398
  0
ARC
  5
42B4
  8
0
 10
310.87924259307931
 20
29.322788932326631
 30
0.0
 40
0.0424745834202148
 50
359.86283199539753
 51
48.941761233987769
  0
ARC
  5
42B5
  8
0
 10
310.84946473101581
 20
29.347087224671728
 30
0.0
 40
0.0452865399089404
 50
155.80025865475051
 51
211.1840303444863
  0
ARC
  5
42B6
  8
0
 10
310.89305633580329
 20
29.34702838223755
 30
0.0
 40
0.0376022297732119
 50
319.65923561886621
 51
26.780775736759171
  0
LINE
  5
42B7
  8
0
 10
311.09027705777021
 20
29.568875710001691
 30
0.0
 11
311.08771323487031
 21
29.610888372501702
 31
0.0
  0
LINE
  5
42B8
  8
0
 10
311.2012724064802
 20
29.567924585356291
 30
0.0
 11
311.20618059117021
 21
29.609208459301701
 31
0.0
  0
ARC
  5
42B9
  8
0
 10
311.13418606709689
 20
29.57174177093188
 30
0.0
 40
0.0440024477195299
 50
183.73455425856321
 51
228.64016983914291
  0
ARC
  5
42BA
  8
0
 10
311.1445706027672
 20
29.583020492893201
 30
0.0
 40
0.0593309059771841
 50
228.31033496026981
 51
260.73002242222231
  0
ARC
  5
42BB
  8
0
 10
311.14625252298561
 20
29.58801514518731
 30
0.0
 40
0.0645369333191782
 50
259.97059284585009
 51
293.7709003540927
  0
ARC
  5
42BC
  8
0
 10
311.15468203284712
 20
29.572321368051131
 30
0.0
 40
0.0467973782742005
 50
292.07061931858777
 51
354.6089032123632
  0
CIRCLE
  5
42BD
  8
0
 10
311.14536616528977
 20
29.563724080367781
 30
0.0
 40
0.0166555298752413
  0
ARC
  5
42BE
  8
0
 10
311.13644192834528
 20
29.584892274757781
 30
0.0
 40
0.0552293641759222
 50
107.8497920275893
 51
151.92068328706441
  0
ARC
  5
42BF
  8
0
 10
311.14598363173582
 20
29.56256421280569
 30
0.0
 40
0.0794389175188702
 50
66.513372559220343
 51
109.4644227635565
  0
ARC
  5
42C0
  8
0
 10
311.15489216188308
 20
29.582013062330219
 30
0.0
 40
0.058052498612662
 50
27.934516089822228
 51
66.927347277579216
  0
ARC
  5
42C1
  8
0
 10
311.13699008745323
 20
29.566866147036279
 30
0.0
 40
0.0467562347019241
 50
105.0695850748681
 51
177.5366931257231
  0
ARC
  5
42C2
  8
0
 10
311.14494305336848
 20
29.550060366351062
 30
0.0
 40
0.0651359462523046
 50
50.132251168780257
 51
107.982517150398
  0
ARC
  5
42C3
  8
0
 10
311.15879794477928
 20
29.568026270826639
 30
0.0
 40
0.0424745834202148
 50
359.86283199539753
 51
48.941761233987769
  0
ARC
  5
42C4
  8
0
 10
311.12902008271578
 20
29.592324563171719
 30
0.0
 40
0.0452865399089404
 50
155.80025865475051
 51
211.1840303444863
  0
ARC
  5
42C5
  8
0
 10
311.17261168750338
 20
29.592265720737551
 30
0.0
 40
0.0376022297732119
 50
319.65923561886621
 51
26.780775736759171
  0
LINE
  5
42C6
  8
0
 10
311.12445662297017
 20
28.986050139701689
 30
0.0
 11
311.12189280007033
 21
29.028062802201699
 31
0.0
  0
LINE
  5
42C7
  8
0
 10
311.23545197168022
 20
28.985099015056289
 30
0.0
 11
311.24036015637017
 21
29.026382889001699
 31
0.0
  0
ARC
  5
42C8
  8
0
 10
311.16836563229703
 20
28.988916200631891
 30
0.0
 40
0.0440024477195299
 50
183.73455425856321
 51
228.64016983914291
  0
ARC
  5
42C9
  8
0
 10
311.17875016796722
 20
29.000194922593199
 30
0.0
 40
0.0593309059771841
 50
228.31033496026981
 51
260.73002242222231
  0
ARC
  5
42CA
  8
0
 10
311.18043208818551
 20
29.005189574887311
 30
0.0
 40
0.0645369333191782
 50
259.97059284585009
 51
293.7709003540927
  0
ARC
  5
42CB
  8
0
 10
311.18886159804708
 20
28.989495797751129
 30
0.0
 40
0.0467973782742005
 50
292.07061931858777
 51
354.6089032123632
  0
CIRCLE
  5
42CC
  8
0
 10
311.17954573048991
 20
28.980898510067782
 30
0.0
 40
0.0166555298752413
  0
ARC
  5
42CD
  8
0
 10
311.17062149354541
 20
29.002066704457778
 30
0.0
 40
0.0552293641759222
 50
107.8497920275893
 51
151.92068328706441
  0
ARC
  5
42CE
  8
0
 10
311.18016319693578
 20
28.979738642505691
 30
0.0
 40
0.0794389175188702
 50
66.513372559220343
 51
109.4644227635565
  0
ARC
  5
42CF
  8
0
 10
311.18907172708322
 20
28.99918749203022
 30
0.0
 40
0.058052498612662
 50
27.934516089822228
 51
66.927347277579216
  0
ARC
  5
42D0
  8
0
 10
311.17116965265319
 20
28.98404057673628
 30
0.0
 40
0.0467562347019241
 50
105.0695850748681
 51
177.5366931257231
  0
ARC
  5
42D1
  8
0
 10
311.1791226185685
 20
28.96723479605107
 30
0.0
 40
0.0651359462523046
 50
50.132251168780257
 51
107.982517150398
  0
ARC
  5
42D2
  8
0
 10
311.1929775099793
 20
28.98520070052664
 30
0.0
 40
0.0424745834202148
 50
359.86283199539753
 51
48.941761233987769
  0
ARC
  5
42D3
  8
0
 10
311.16319964791592
 20
29.00949899287173
 30
0.0
 40
0.0452865399089404
 50
155.80025865475051
 51
211.1840303444863
  0
ARC
  5
42D4
  8
0
 10
311.2067912527034
 20
29.009440150437548
 30
0.0
 40
0.0376022297732119
 50
319.65923561886621
 51
26.780775736759171
  0
LINE
  5
42D5
  8
0
 10
311.5044338009202
 20
29.138999659001691
 30
0.0
 11
311.50186997802018
 21
29.18101232150169
 31
0.0
  0
LINE
  5
42D6
  8
0
 10
311.61542914963019
 20
29.13804853435629
 30
0.0
 11
311.6203373343202
 21
29.1793324083017
 31
0.0
  0
ARC
  5
42D7
  8
0
 10
311.54834281024688
 20
29.141865719931879
 30
0.0
 40
0.0440024477195299
 50
183.73455425856321
 51
228.64016983914291
  0
ARC
  5
42D8
  8
0
 10
311.55872734591708
 20
29.1531444418932
 30
0.0
 40
0.0593309059771841
 50
228.31033496026981
 51
260.73002242222231
  0
ARC
  5
42D9
  8
0
 10
311.56040926613548
 20
29.158139094187309
 30
0.0
 40
0.0645369333191782
 50
259.97059284585009
 51
293.7709003540927
  0
ARC
  5
42DA
  8
0
 10
311.56883877599711
 20
29.142445317051131
 30
0.0
 40
0.0467973782742005
 50
292.07061931858777
 51
354.6089032123632
  0
CIRCLE
  5
42DB
  8
0
 10
311.55952290843982
 20
29.13384802936778
 30
0.0
 40
0.0166555298752413
  0
ARC
  5
42DC
  8
0
 10
311.55059867149532
 20
29.15501622375778
 30
0.0
 40
0.0552293641759222
 50
107.8497920275893
 51
151.92068328706441
  0
ARC
  5
42DD
  8
0
 10
311.5601403748858
 20
29.132688161805689
 30
0.0
 40
0.0794389175188702
 50
66.513372559220343
 51
109.4644227635565
  0
ARC
  5
42DE
  8
0
 10
311.56904890503313
 20
29.152137011330211
 30
0.0
 40
0.058052498612662
 50
27.934516089822228
 51
66.927347277579216
  0
ARC
  5
42DF
  8
0
 10
311.55114683060322
 20
29.136990096036271
 30
0.0
 40
0.0467562347019241
 50
105.0695850748681
 51
177.5366931257231
  0
ARC
  5
42E0
  8
0
 10
311.55909979651852
 20
29.120184315351061
 30
0.0
 40
0.0651359462523046
 50
50.132251168780257
 51
107.982517150398
  0
ARC
  5
42E1
  8
0
 10
311.57295468792933
 20
29.138150219826642
 30
0.0
 40
0.0424745834202148
 50
359.86283199539753
 51
48.941761233987769
  0
ARC
  5
42E2
  8
0
 10
311.54317682586583
 20
29.162448512171729
 30
0.0
 40
0.0452865399089404
 50
155.80025865475051
 51
211.1840303444863
  0
ARC
  5
42E3
  8
0
 10
311.58676843065342
 20
29.16238966973755
 30
0.0
 40
0.0376022297732119
 50
319.65923561886621
 51
26.780775736759171
  0
LINE
  5
42E4
  8
0
 10
310.42102330617018
 20
28.53621041340169
 30
0.0
 11
310.41845948327023
 21
28.57822307590169
 31
0.0
  0
LINE
  5
42E5
  8
0
 10
310.53201865488018
 20
28.53525928875629
 30
0.0
 11
310.5369268395703
 21
28.576543162701689
 31
0.0
  0
ARC
  5
42E6
  8
0
 10
310.46493231549692
 20
28.539076474331878
 30
0.0
 40
0.0440024477195299
 50
183.73455425856321
 51
228.64016983914291
  0
ARC
  5
42E7
  8
0
 10
310.47531685116712
 20
28.5503551962932
 30
0.0
 40
0.0593309059771841
 50
228.31033496026981
 51
260.73002242222231
  0
ARC
  5
42E8
  8
0
 10
310.47699877138552
 20
28.555349848587309
 30
0.0
 40
0.0645369333191782
 50
259.97059284585009
 51
293.7709003540927
  0
ARC
  5
42E9
  8
0
 10
310.4854282812471
 20
28.53965607145113
 30
0.0
 40
0.0467973782742005
 50
292.07061931858777
 51
354.6089032123632
  0
CIRCLE
  5
42EA
  8
0
 10
310.4761124136898
 20
28.531058783767779
 30
0.0
 40
0.0166555298752413
  0
ARC
  5
42EB
  8
0
 10
310.46718817674531
 20
28.55222697815778
 30
0.0
 40
0.0552293641759222
 50
107.8497920275893
 51
151.92068328706441
  0
ARC
  5
42EC
  8
0
 10
310.47672988013579
 20
28.529898916205681
 30
0.0
 40
0.0794389175188702
 50
66.513372559220343
 51
109.4644227635565
  0
ARC
  5
42ED
  8
0
 10
310.48563841028312
 20
28.549347765730211
 30
0.0
 40
0.058052498612662
 50
27.934516089822228
 51
66.927347277579216
  0
ARC
  5
42EE
  8
0
 10
310.46773633585309
 20
28.534200850436271
 30
0.0
 40
0.0467562347019241
 50
105.0695850748681
 51
177.5366931257231
  0
ARC
  5
42EF
  8
0
 10
310.47568930176851
 20
28.517395069751071
 30
0.0
 40
0.0651359462523046
 50
50.132251168780257
 51
107.982517150398
  0
ARC
  5
42F0
  8
0
 10
310.4895441931792
 20
28.535360974226641
 30
0.0
 40
0.0424745834202148
 50
359.86283199539753
 51
48.941761233987769
  0
ARC
  5
42F1
  8
0
 10
310.45976633111582
 20
28.559659266571732
 30
0.0
 40
0.0452865399089404
 50
155.80025865475051
 51
211.1840303444863
  0
ARC
  5
42F2
  8
0
 10
310.50335793590341
 20
28.55960042413755
 30
0.0
 40
0.0376022297732119
 50
319.65923561886621
 51
26.780775736759171
  0
LINE
  5
42F3
  8
0
 10
310.82828909777021
 20
28.55711568420169
 30
0.0
 11
310.82572527487019
 21
28.59912834670169
 31
0.0
  0
LINE
  5
42F4
  8
0
 10
310.9392844464802
 20
28.55616455955629
 30
0.0
 11
310.94419263117021
 21
28.59744843350169
 31
0.0
  0
ARC
  5
42F5
  8
0
 10
310.87219810709689
 20
28.559981745131878
 30
0.0
 40
0.0440024477195299
 50
183.73455425856321
 51
228.64016983914291
  0
ARC
  5
42F6
  8
0
 10
310.8825826427672
 20
28.5712604670932
 30
0.0
 40
0.0593309059771841
 50
228.31033496026981
 51
260.73002242222231
  0
ARC
  5
42F7
  8
0
 10
310.88426456298549
 20
28.576255119387309
 30
0.0
 40
0.0645369333191782
 50
259.97059284585009
 51
293.7709003540927
  0
ARC
  5
42F8
  8
0
 10
310.89269407284712
 20
28.56056134225113
 30
0.0
 40
0.0467973782742005
 50
292.07061931858777
 51
354.6089032123632
  0
CIRCLE
  5
42F9
  8
0
 10
310.88337820528977
 20
28.55196405456778
 30
0.0
 40
0.0166555298752413
  0
ARC
  5
42FA
  8
0
 10
310.87445396834528
 20
28.57313224895778
 30
0.0
 40
0.0552293641759222
 50
107.8497920275893
 51
151.92068328706441
  0
ARC
  5
42FB
  8
0
 10
310.8839956717357
 20
28.550804187005681
 30
0.0
 40
0.0794389175188702
 50
66.513372559220343
 51
109.4644227635565
  0
ARC
  5
42FC
  8
0
 10
310.89290420188308
 20
28.570253036530211
 30
0.0
 40
0.058052498612662
 50
27.934516089822228
 51
66.927347277579216
  0
ARC
  5
42FD
  8
0
 10
310.87500212745317
 20
28.555106121236278
 30
0.0
 40
0.0467562347019241
 50
105.0695850748681
 51
177.5366931257231
  0
ARC
  5
42FE
  8
0
 10
310.88295509336848
 20
28.538300340551071
 30
0.0
 40
0.0651359462523046
 50
50.132251168780257
 51
107.982517150398
  0
ARC
  5
42FF
  8
0
 10
310.89680998477928
 20
28.556266245026642
 30
0.0
 40
0.0424745834202148
 50
359.86283199539753
 51
48.941761233987769
  0
ARC
  5
4300
  8
0
 10
310.8670321227159
 20
28.580564537371728
 30
0.0
 40
0.0452865399089404
 50
155.80025865475051
 51
211.1840303444863
  0
ARC
  5
4301
  8
0
 10
310.91062372750338
 20
28.58050569493755
 30
0.0
 40
0.0376022297732119
 50
319.65923561886621
 51
26.780775736759171
  0
LINE
  5
4302
  8
0
 10
311.23977041497022
 20
28.58885671480169
 30
0.0
 11
311.23720659207032
 21
28.6308693773017
 31
0.0
  0
LINE
  5
4303
  8
0
 10
311.35076576368022
 20
28.587905590156289
 30
0.0
 11
311.35567394837022
 21
28.6291894641017
 31
0.0
  0
ARC
  5
4304
  8
0
 10
311.28367942429702
 20
28.591722775731881
 30
0.0
 40
0.0440024477195299
 50
183.73455425856321
 51
228.64016983914291
  0
ARC
  5
4305
  8
0
 10
311.2940639599671
 20
28.60300149769321
 30
0.0
 40
0.0593309059771841
 50
228.31033496026981
 51
260.73002242222231
  0
ARC
  5
4306
  8
0
 10
311.29574588018562
 20
28.607996149987311
 30
0.0
 40
0.0645369333191782
 50
259.97059284585009
 51
293.7709003540927
  0
ARC
  5
4307
  8
0
 10
311.30417539004708
 20
28.59230237285113
 30
0.0
 40
0.0467973782742005
 50
292.07061931858777
 51
354.6089032123632
  0
CIRCLE
  5
4308
  8
0
 10
311.29485952248979
 20
28.583705085167779
 30
0.0
 40
0.0166555298752413
  0
ARC
  5
4309
  8
0
 10
311.28593528554541
 20
28.604873279557779
 30
0.0
 40
0.0552293641759222
 50
107.8497920275893
 51
151.92068328706441
  0
ARC
  5
430A
  8
0
 10
311.29547698893577
 20
28.582545217605691
 30
0.0
 40
0.0794389175188702
 50
66.513372559220343
 51
109.4644227635565
  0
ARC
  5
430B
  8
0
 10
311.30438551908321
 20
28.601994067130221
 30
0.0
 40
0.058052498612662
 50
27.934516089822228
 51
66.927347277579216
  0
ARC
  5
430C
  8
0
 10
311.28648344465319
 20
28.586847151836281
 30
0.0
 40
0.0467562347019241
 50
105.0695850748681
 51
177.5366931257231
  0
ARC
  5
430D
  8
0
 10
311.29443641056861
 20
28.570041371151071
 30
0.0
 40
0.0651359462523046
 50
50.132251168780257
 51
107.982517150398
  0
ARC
  5
430E
  8
0
 10
311.3082913019793
 20
28.588007275626641
 30
0.0
 40
0.0424745834202148
 50
359.86283199539753
 51
48.941761233987769
  0
ARC
  5
430F
  8
0
 10
311.27851343991591
 20
28.612305567971731
 30
0.0
 40
0.0452865399089404
 50
155.80025865475051
 51
211.1840303444863
  0
ARC
  5
4310
  8
0
 10
311.32210504470339
 20
28.612246725537549
 30
0.0
 40
0.0376022297732119
 50
319.65923561886621
 51
26.780775736759171
  0
LINE
  5
4311
  8
0
 10
311.64701595907019
 20
28.630392418201691
 30
0.0
 11
311.64445213617017
 21
28.672405080701701
 31
0.0
  0
LINE
  5
4312
  8
0
 10
311.75801130778018
 20
28.62944129355629
 30
0.0
 11
311.76291949247019
 21
28.670725167501701
 31
0.0
  0
ARC
  5
4313
  8
0
 10
311.69092496839693
 20
28.633258479131879
 30
0.0
 40
0.0440024477195299
 50
183.73455425856321
 51
228.64016983914291
  0
ARC
  5
4314
  8
0
 10
311.70130950406713
 20
28.6445372010932
 30
0.0
 40
0.0593309059771841
 50
228.31033496026981
 51
260.73002242222231
  0
ARC
  5
4315
  8
0
 10
311.70299142428553
 20
28.649531853387309
 30
0.0
 40
0.0645369333191782
 50
259.97059284585009
 51
293.7709003540927
  0
ARC
  5
4316
  8
0
 10
311.7114209341471
 20
28.633838076251131
 30
0.0
 40
0.0467973782742005
 50
292.07061931858777
 51
354.6089032123632
  0
CIRCLE
  5
4317
  8
0
 10
311.70210506658981
 20
28.62524078856778
 30
0.0
 40
0.0166555298752413
  0
ARC
  5
4318
  8
0
 10
311.69318082964531
 20
28.64640898295778
 30
0.0
 40
0.0552293641759222
 50
107.8497920275893
 51
151.92068328706441
  0
ARC
  5
4319
  8
0
 10
311.70272253303568
 20
28.624080921005689
 30
0.0
 40
0.0794389175188702
 50
66.513372559220343
 51
109.4644227635565
  0
ARC
  5
431A
  8
0
 10
311.71163106318312
 20
28.643529770530218
 30
0.0
 40
0.058052498612662
 50
27.934516089822228
 51
66.927347277579216
  0
ARC
  5
431B
  8
0
 10
311.69372898875309
 20
28.628382855236278
 30
0.0
 40
0.0467562347019241
 50
105.0695850748681
 51
177.5366931257231
  0
ARC
  5
431C
  8
0
 10
311.70168195466852
 20
28.611577074551061
 30
0.0
 40
0.0651359462523046
 50
50.132251168780257
 51
107.982517150398
  0
ARC
  5
431D
  8
0
 10
311.71553684607932
 20
28.629542979026638
 30
0.0
 40
0.0424745834202148
 50
359.86283199539753
 51
48.941761233987769
  0
ARC
  5
431E
  8
0
 10
311.68575898401582
 20
28.653841271371721
 30
0.0
 40
0.0452865399089404
 50
155.80025865475051
 51
211.1840303444863
  0
ARC
  5
431F
  8
0
 10
311.72935058880341
 20
28.65378242893755
 30
0.0
 40
0.0376022297732119
 50
319.65923561886621
 51
26.780775736759171
  0
LINE
  5
4320
  8
0
 10
310.24463940287029
 20
28.21190653050169
 30
0.0
 11
310.24207557997028
 21
28.253919193001689
 31
0.0
  0
LINE
  5
4321
  8
0
 10
310.35563475158023
 20
28.210955405856289
 30
0.0
 11
310.36054293627018
 21
28.252239279801689
 31
0.0
  0
ARC
  5
4322
  8
0
 10
310.28854841219697
 20
28.214772591431881
 30
0.0
 40
0.0440024477195299
 50
183.73455425856321
 51
228.64016983914291
  0
ARC
  5
4323
  8
0
 10
310.29893294786717
 20
28.226051313393199
 30
0.0
 40
0.0593309059771841
 50
228.31033496026981
 51
260.73002242222231
  0
ARC
  5
4324
  8
0
 10
310.30061486808557
 20
28.231045965687311
 30
0.0
 40
0.0645369333191782
 50
259.97059284585009
 51
293.7709003540927
  0
ARC
  5
4325
  8
0
 10
310.3090443779472
 20
28.21535218855113
 30
0.0
 40
0.0467973782742005
 50
292.07061931858777
 51
354.6089032123632
  0
CIRCLE
  5
4326
  8
0
 10
310.2997285103898
 20
28.206754900867779
 30
0.0
 40
0.0166555298752413
  0
ARC
  5
4327
  8
0
 10
310.2908042734453
 20
28.227923095257779
 30
0.0
 40
0.0552293641759222
 50
107.8497920275893
 51
151.92068328706441
  0
ARC
  5
4328
  8
0
 10
310.30034597683579
 20
28.205595033305691
 30
0.0
 40
0.0794389175188702
 50
66.513372559220343
 51
109.4644227635565
  0
ARC
  5
4329
  8
0
 10
310.30925450698322
 20
28.225043882830221
 30
0.0
 40
0.058052498612662
 50
27.934516089822228
 51
66.927347277579216
  0
ARC
  5
432A
  8
0
 10
310.2913524325532
 20
28.209896967536281
 30
0.0
 40
0.0467562347019241
 50
105.0695850748681
 51
177.5366931257231
  0
ARC
  5
432B
  8
0
 10
310.29930539846862
 20
28.193091186851071
 30
0.0
 40
0.0651359462523046
 50
50.132251168780257
 51
107.982517150398
  0
ARC
  5
432C
  8
0
 10
310.31316028987931
 20
28.211057091326641
 30
0.0
 40
0.0424745834202148
 50
359.86283199539753
 51
48.941761233987769
  0
ARC
  5
432D
  8
0
 10
310.28338242781592
 20
28.235355383671731
 30
0.0
 40
0.0452865399089404
 50
155.80025865475051
 51
211.1840303444863
  0
ARC
  5
432E
  8
0
 10
310.3269740326034
 20
28.235296541237549
 30
0.0
 40
0.0376022297732119
 50
319.65923561886621
 51
26.780775736759171
  0
LINE
  5
432F
  8
0
 10
310.53310075467022
 20
28.028023912901691
 30
0.0
 11
310.53053693177031
 21
28.070036575401701
 31
0.0
  0
LINE
  5
4330
  8
0
 10
310.64409610338021
 20
28.027072788256291
 30
0.0
 11
310.64900428807022
 21
28.068356662201701
 31
0.0
  0
ARC
  5
4331
  8
0
 10
310.57700976399701
 20
28.030889973831879
 30
0.0
 40
0.0440024477195299
 50
183.73455425856321
 51
228.64016983914291
  0
ARC
  5
4332
  8
0
 10
310.58739429966721
 20
28.042168695793201
 30
0.0
 40
0.0593309059771841
 50
228.31033496026981
 51
260.73002242222231
  0
ARC
  5
4333
  8
0
 10
310.58907621988561
 20
28.047163348087309
 30
0.0
 40
0.0645369333191782
 50
259.97059284585009
 51
293.7709003540927
  0
ARC
  5
4334
  8
0
 10
310.59750572974713
 20
28.031469570951131
 30
0.0
 40
0.0467973782742005
 50
292.07061931858777
 51
354.6089032123632
  0
CIRCLE
  5
4335
  8
0
 10
310.58818986218978
 20
28.02287228326778
 30
0.0
 40
0.0166555298752413
  0
ARC
  5
4336
  8
0
 10
310.57926562524528
 20
28.044040477657781
 30
0.0
 40
0.0552293641759222
 50
107.8497920275893
 51
151.92068328706441
  0
ARC
  5
4337
  8
0
 10
310.58880732863582
 20
28.021712415705689
 30
0.0
 40
0.0794389175188702
 50
66.513372559220343
 51
109.4644227635565
  0
ARC
  5
4338
  8
0
 10
310.59771585878309
 20
28.041161265230219
 30
0.0
 40
0.058052498612662
 50
27.934516089822228
 51
66.927347277579216
  0
ARC
  5
4339
  8
0
 10
310.57981378435318
 20
28.026014349936279
 30
0.0
 40
0.0467562347019241
 50
105.0695850748681
 51
177.5366931257231
  0
ARC
  5
433A
  8
0
 10
310.5877667502686
 20
28.009208569251062
 30
0.0
 40
0.0651359462523046
 50
50.132251168780257
 51
107.982517150398
  0
ARC
  5
433B
  8
0
 10
310.60162164167929
 20
28.027174473726639
 30
0.0
 40
0.0424745834202148
 50
359.86283199539753
 51
48.941761233987769
  0
ARC
  5
433C
  8
0
 10
310.57184377961579
 20
28.051472766071718
 30
0.0
 40
0.0452865399089404
 50
155.80025865475051
 51
211.1840303444863
  0
ARC
  5
433D
  8
0
 10
310.61543538440338
 20
28.051413923637551
 30
0.0
 40
0.0376022297732119
 50
319.65923561886621
 51
26.780775736759171
  0
LINE
  5
433E
  8
0
 10
311.12773285152019
 20
28.190998244901689
 30
0.0
 11
311.12516902862029
 21
28.233010907401699
 31
0.0
  0
LINE
  5
433F
  8
0
 10
311.23872820023018
 20
28.190047120256288
 30
0.0
 11
311.24363638492019
 21
28.231330994201699
 31
0.0
  0
ARC
  5
4340
  8
0
 10
311.17164186084699
 20
28.19386430583188
 30
0.0
 40
0.0440024477195299
 50
183.73455425856321
 51
228.64016983914291
  0
ARC
  5
4341
  8
0
 10
311.18202639651707
 20
28.205143027793198
 30
0.0
 40
0.0593309059771841
 50
228.31033496026981
 51
260.73002242222231
  0
ARC
  5
4342
  8
0
 10
311.18370831673548
 20
28.21013768008731
 30
0.0
 40
0.0645369333191782
 50
259.97059284585009
 51
293.7709003540927
  0
ARC
  5
4343
  8
0
 10
311.1921378265971
 20
28.194443902951129
 30
0.0
 40
0.0467973782742005
 50
292.07061931858777
 51
354.6089032123632
  0
CIRCLE
  5
4344
  8
0
 10
311.18282195903981
 20
28.185846615267781
 30
0.0
 40
0.0166555298752413
  0
ARC
  5
4345
  8
0
 10
311.17389772209532
 20
28.207014809657782
 30
0.0
 40
0.0552293641759222
 50
107.8497920275893
 51
151.92068328706441
  0
ARC
  5
4346
  8
0
 10
311.1834394254858
 20
28.18468674770569
 30
0.0
 40
0.0794389175188702
 50
66.513372559220343
 51
109.4644227635565
  0
ARC
  5
4347
  8
0
 10
311.19234795563312
 20
28.20413559723022
 30
0.0
 40
0.058052498612662
 50
27.934516089822228
 51
66.927347277579216
  0
ARC
  5
4348
  8
0
 10
311.17444588120321
 20
28.18898868193628
 30
0.0
 40
0.0467562347019241
 50
105.0695850748681
 51
177.5366931257231
  0
ARC
  5
4349
  8
0
 10
311.18239884711852
 20
28.172182901251059
 30
0.0
 40
0.0651359462523046
 50
50.132251168780257
 51
107.982517150398
  0
ARC
  5
434A
  8
0
 10
311.19625373852932
 20
28.19014880572664
 30
0.0
 40
0.0424745834202148
 50
359.86283199539753
 51
48.941761233987769
  0
ARC
  5
434B
  8
0
 10
311.16647587646582
 20
28.21444709807173
 30
0.0
 40
0.0452865399089404
 50
155.80025865475051
 51
211.1840303444863
  0
ARC
  5
434C
  8
0
 10
311.21006748125342
 20
28.214388255637552
 30
0.0
 40
0.0376022297732119
 50
319.65923561886621
 51
26.780775736759171
  0
LINE
  5
434D
  8
0
 10
311.5076551226702
 20
28.122017686401691
 30
0.0
 11
311.50509129977019
 21
28.164030348901701
 31
0.0
  0
LINE
  5
434E
  8
0
 10
311.61865047138019
 20
28.12106656175629
 30
0.0
 11
311.6235586560702
 21
28.1623504357017
 31
0.0
  0
ARC
  5
434F
  8
0
 10
311.55156413199688
 20
28.124883747331879
 30
0.0
 40
0.0440024477195299
 50
183.73455425856321
 51
228.64016983914291
  0
ARC
  5
4350
  8
0
 10
311.56194866766708
 20
28.1361624692932
 30
0.0
 40
0.0593309059771841
 50
228.31033496026981
 51
260.73002242222231
  0
ARC
  5
4351
  8
0
 10
311.56363058788548
 20
28.141157121587309
 30
0.0
 40
0.0645369333191782
 50
259.97059284585009
 51
293.7709003540927
  0
ARC
  5
4352
  8
0
 10
311.57206009774711
 20
28.125463344451131
 30
0.0
 40
0.0467973782742005
 50
292.07061931858777
 51
354.6089032123632
  0
CIRCLE
  5
4353
  8
0
 10
311.56274423018982
 20
28.11686605676778
 30
0.0
 40
0.0166555298752413
  0
ARC
  5
4354
  8
0
 10
311.55381999324533
 20
28.13803425115778
 30
0.0
 40
0.0552293641759222
 50
107.8497920275893
 51
151.92068328706441
  0
ARC
  5
4355
  8
0
 10
311.5633616966357
 20
28.115706189205689
 30
0.0
 40
0.0794389175188702
 50
66.513372559220343
 51
109.4644227635565
  0
ARC
  5
4356
  8
0
 10
311.57227022678308
 20
28.135155038730218
 30
0.0
 40
0.058052498612662
 50
27.934516089822228
 51
66.927347277579216
  0
ARC
  5
4357
  8
0
 10
311.55436815235322
 20
28.120008123436278
 30
0.0
 40
0.0467562347019241
 50
105.0695850748681
 51
177.5366931257231
  0
ARC
  5
4358
  8
0
 10
311.56232111826853
 20
28.103202342751072
 30
0.0
 40
0.0651359462523046
 50
50.132251168780257
 51
107.982517150398
  0
ARC
  5
4359
  8
0
 10
311.57617600967927
 20
28.121168247226631
 30
0.0
 40
0.0424745834202148
 50
359.86283199539753
 51
48.941761233987769
  0
ARC
  5
435A
  8
0
 10
311.54639814761578
 20
28.145466539571729
 30
0.0
 40
0.0452865399089404
 50
155.80025865475051
 51
211.1840303444863
  0
ARC
  5
435B
  8
0
 10
311.58998975240343
 20
28.14540769713755
 30
0.0
 40
0.0376022297732119
 50
319.65923561886621
 51
26.780775736759171
  0
LINE
  5
435C
  8
0
 10
310.81275130677022
 20
27.854090617001692
 30
0.0
 11
310.81018748387032
 21
27.896103279501698
 31
0.0
  0
LINE
  5
435D
  8
0
 10
310.92374665548022
 20
27.853139492356291
 30
0.0
 11
310.92865484017022
 21
27.894423366301702
 31
0.0
  0
ARC
  5
435E
  8
0
 10
310.85666031609702
 20
27.85695667793188
 30
0.0
 40
0.0440024477195299
 50
183.73455425856321
 51
228.64016983914291
  0
ARC
  5
435F
  8
0
 10
310.8670448517671
 20
27.868235399893202
 30
0.0
 40
0.0593309059771841
 50
228.31033496026981
 51
260.73002242222231
  0
ARC
  5
4360
  8
0
 10
310.86872677198562
 20
27.87323005218731
 30
0.0
 40
0.0645369333191782
 50
259.97059284585009
 51
293.7709003540927
  0
ARC
  5
4361
  8
0
 10
310.87715628184708
 20
27.857536275051132
 30
0.0
 40
0.0467973782742005
 50
292.07061931858777
 51
354.6089032123632
  0
CIRCLE
  5
4362
  8
0
 10
310.86784041428979
 20
27.848938987367781
 30
0.0
 40
0.0166555298752413
  0
ARC
  5
4363
  8
0
 10
310.85891617734541
 20
27.870107181757781
 30
0.0
 40
0.0552293641759222
 50
107.8497920275893
 51
151.92068328706441
  0
ARC
  5
4364
  8
0
 10
310.86845788073578
 20
27.84777911980569
 30
0.0
 40
0.0794389175188702
 50
66.513372559220343
 51
109.4644227635565
  0
ARC
  5
4365
  8
0
 10
310.87736641088321
 20
27.867227969330219
 30
0.0
 40
0.058052498612662
 50
27.934516089822228
 51
66.927347277579216
  0
ARC
  5
4366
  8
0
 10
310.85946433645319
 20
27.85208105403628
 30
0.0
 40
0.0467562347019241
 50
105.0695850748681
 51
177.5366931257231
  0
ARC
  5
4367
  8
0
 10
310.86741730236861
 20
27.835275273351058
 30
0.0
 40
0.0651359462523046
 50
50.132251168780257
 51
107.982517150398
  0
ARC
  5
4368
  8
0
 10
310.8812721937793
 20
27.853241177826639
 30
0.0
 40
0.0424745834202148
 50
359.86283199539753
 51
48.941761233987769
  0
ARC
  5
4369
  8
0
 10
310.85149433171591
 20
27.87753947017173
 30
0.0
 40
0.0452865399089404
 50
155.80025865475051
 51
211.1840303444863
  0
ARC
  5
436A
  8
0
 10
310.89508593650339
 20
27.877480627737551
 30
0.0
 40
0.0376022297732119
 50
319.65923561886621
 51
26.780775736759171
  0
LINE
  5
436B
  8
0
 10
311.10539385642022
 20
27.690802557401689
 30
0.0
 11
311.10283003352032
 21
27.732815219901699
 31
0.0
  0
LINE
  5
436C
  8
0
 10
311.21638920513021
 20
27.689851432756281
 30
0.0
 11
311.22129738982022
 21
27.731135306701692
 31
0.0
  0
ARC
  5
436D
  8
0
 10
311.14930286574702
 20
27.693668618331891
 30
0.0
 40
0.0440024477195299
 50
183.73455425856321
 51
228.64016983914291
  0
ARC
  5
436E
  8
0
 10
311.15968740141722
 20
27.704947340293199
 30
0.0
 40
0.0593309059771841
 50
228.31033496026981
 51
260.73002242222231
  0
ARC
  5
436F
  8
0
 10
311.16136932163562
 20
27.709941992587311
 30
0.0
 40
0.0645369333191782
 50
259.97059284585009
 51
293.7709003540927
  0
ARC
  5
4370
  8
0
 10
311.16979883149719
 20
27.694248215451129
 30
0.0
 40
0.0467973782742005
 50
292.07061931858777
 51
354.6089032123632
  0
CIRCLE
  5
4371
  8
0
 10
311.16048296393978
 20
27.685650927767782
 30
0.0
 40
0.0166555298752413
  0
ARC
  5
4372
  8
0
 10
311.15155872699529
 20
27.706819122157778
 30
0.0
 40
0.0552293641759222
 50
107.8497920275893
 51
151.92068328706441
  0
ARC
  5
4373
  8
0
 10
311.16110043038577
 20
27.684491060205691
 30
0.0
 40
0.0794389175188702
 50
66.513372559220343
 51
109.4644227635565
  0
ARC
  5
4374
  8
0
 10
311.1700089605331
 20
27.70393990973022
 30
0.0
 40
0.058052498612662
 50
27.934516089822228
 51
66.927347277579216
  0
ARC
  5
4375
  8
0
 10
311.15210688610318
 20
27.68879299443628
 30
0.0
 40
0.0467562347019241
 50
105.0695850748681
 51
177.5366931257231
  0
ARC
  5
4376
  8
0
 10
311.16005985201861
 20
27.67198721375107
 30
0.0
 40
0.0651359462523046
 50
50.132251168780257
 51
107.982517150398
  0
ARC
  5
4377
  8
0
 10
311.17391474342929
 20
27.68995311822664
 30
0.0
 40
0.0424745834202148
 50
359.86283199539753
 51
48.941761233987769
  0
ARC
  5
4378
  8
0
 10
311.1441368813658
 20
27.71425141057173
 30
0.0
 40
0.0452865399089404
 50
155.80025865475051
 51
211.1840303444863
  0
ARC
  5
4379
  8
0
 10
311.18772848615339
 20
27.714192568137548
 30
0.0
 40
0.0376022297732119
 50
319.65923561886621
 51
26.780775736759171
  0
LINE
  5
437A
  8
0
 10
310.5000225651703
 20
27.40249323985169
 30
0.0
 11
310.49745874227023
 21
27.4445059023517
 31
0.0
  0
LINE
  5
437B
  8
0
 10
310.61101791388018
 20
27.40154211520629
 30
0.0
 11
310.61592609857018
 21
27.4428259891517
 31
0.0
  0
ARC
  5
437C
  8
0
 10
310.54393157449692
 20
27.405359300781878
 30
0.0
 40
0.0440024477195299
 50
183.73455425856321
 51
228.64016983914291
  0
ARC
  5
437D
  8
0
 10
310.55431611016712
 20
27.4166380227432
 30
0.0
 40
0.0593309059771841
 50
228.31033496026981
 51
260.73002242222231
  0
ARC
  5
437E
  8
0
 10
310.55599803038552
 20
27.421632675037309
 30
0.0
 40
0.0645369333191782
 50
259.97059284585009
 51
293.7709003540927
  0
ARC
  5
437F
  8
0
 10
310.5644275402471
 20
27.40593889790113
 30
0.0
 40
0.0467973782742005
 50
292.07061931858777
 51
354.6089032123632
  0
CIRCLE
  5
4380
  8
0
 10
310.5551116726898
 20
27.397341610217779
 30
0.0
 40
0.0166555298752413
  0
ARC
  5
4381
  8
0
 10
310.54618743574531
 20
27.41850980460778
 30
0.0
 40
0.0552293641759222
 50
107.8497920275893
 51
151.92068328706441
  0
ARC
  5
4382
  8
0
 10
310.55572913913579
 20
27.396181742655688
 30
0.0
 40
0.0794389175188702
 50
66.513372559220343
 51
109.4644227635565
  0
ARC
  5
4383
  8
0
 10
310.56463766928312
 20
27.415630592180221
 30
0.0
 40
0.058052498612662
 50
27.934516089822228
 51
66.927347277579216
  0
ARC
  5
4384
  8
0
 10
310.54673559485309
 20
27.400483676886282
 30
0.0
 40
0.0467562347019241
 50
105.0695850748681
 51
177.5366931257231
  0
ARC
  5
4385
  8
0
 10
310.55468856076851
 20
27.383677896201061
 30
0.0
 40
0.0651359462523046
 50
50.132251168780257
 51
107.982517150398
  0
ARC
  5
4386
  8
0
 10
310.56854345217931
 20
27.401643800676641
 30
0.0
 40
0.0424745834202148
 50
359.86283199539753
 51
48.941761233987769
  0
ARC
  5
4387
  8
0
 10
310.53876559011582
 20
27.425942093021721
 30
0.0
 40
0.0452865399089404
 50
155.80025865475051
 51
211.1840303444863
  0
ARC
  5
4388
  8
0
 10
310.5823571949033
 20
27.42588325058755
 30
0.0
 40
0.0376022297732119
 50
319.65923561886621
 51
26.780775736759171
  0
LINE
  5
4389
  8
0
 10
310.33972502007032
 20
27.628854461501689
 30
0.0
 11
310.3371611971703
 21
27.670867124001699
 31
0.0
  0
LINE
  5
438A
  8
0
 10
310.4507203687802
 20
27.627903336856289
 30
0.0
 11
310.45562855347032
 21
27.669187210801699
 31
0.0
  0
ARC
  5
438B
  8
0
 10
310.383634029397
 20
27.63172052243188
 30
0.0
 40
0.0440024477195299
 50
183.73455425856321
 51
228.64016983914291
  0
ARC
  5
438C
  8
0
 10
310.39401856506709
 20
27.642999244393199
 30
0.0
 40
0.0593309059771841
 50
228.31033496026981
 51
260.73002242222231
  0
ARC
  5
438D
  8
0
 10
310.39570048528549
 20
27.647993896687311
 30
0.0
 40
0.0645369333191782
 50
259.97059284585009
 51
293.7709003540927
  0
ARC
  5
438E
  8
0
 10
310.40412999514712
 20
27.632300119551129
 30
0.0
 40
0.0467973782742005
 50
292.07061931858777
 51
354.6089032123632
  0
CIRCLE
  5
438F
  8
0
 10
310.39481412758983
 20
27.623702831867782
 30
0.0
 40
0.0166555298752413
  0
ARC
  5
4390
  8
0
 10
310.38588989064527
 20
27.644871026257778
 30
0.0
 40
0.0552293641759222
 50
107.8497920275893
 51
151.92068328706441
  0
ARC
  5
4391
  8
0
 10
310.39543159403581
 20
27.622542964305691
 30
0.0
 40
0.0794389175188702
 50
66.513372559220343
 51
109.4644227635565
  0
ARC
  5
4392
  8
0
 10
310.40434012418319
 20
27.64199181383022
 30
0.0
 40
0.058052498612662
 50
27.934516089822228
 51
66.927347277579216
  0
ARC
  5
4393
  8
0
 10
310.38643804975322
 20
27.62684489853628
 30
0.0
 40
0.0467562347019241
 50
105.0695850748681
 51
177.5366931257231
  0
ARC
  5
4394
  8
0
 10
310.39439101566848
 20
27.61003911785107
 30
0.0
 40
0.0651359462523046
 50
50.132251168780257
 51
107.982517150398
  0
ARC
  5
4395
  8
0
 10
310.40824590707928
 20
27.62800502232664
 30
0.0
 40
0.0424745834202148
 50
359.86283199539753
 51
48.941761233987769
  0
ARC
  5
4396
  8
0
 10
310.37846804501578
 20
27.65230331467173
 30
0.0
 40
0.0452865399089404
 50
155.80025865475051
 51
211.1840303444863
  0
ARC
  5
4397
  8
0
 10
310.42205964980337
 20
27.652244472237552
 30
0.0
 40
0.0376022297732119
 50
319.65923561886621
 51
26.780775736759171
  0
LINE
  5
4398
  8
0
 10
309.78048688768172
 20
27.301254223518139
 30
0.0
 11
309.7779230647817
 21
27.343266886018149
 31
0.0
  0
LINE
  5
4399
  8
0
 10
309.89148223639171
 20
27.300303098872739
 30
0.0
 11
309.89639042108172
 21
27.341586972818149
 31
0.0
  0
ARC
  5
439A
  8
0
 10
309.8243958970084
 20
27.304120284448331
 30
0.0
 40
0.0440024477195299
 50
183.73455425856321
 51
228.64016983914291
  0
ARC
  5
439B
  8
0
 10
309.8347804326786
 20
27.315399006409649
 30
0.0
 40
0.0593309059771841
 50
228.31033496026981
 51
260.73002242222231
  0
ARC
  5
439C
  8
0
 10
309.836462352897
 20
27.320393658703761
 30
0.0
 40
0.0645369333191782
 50
259.97059284585009
 51
293.7709003540927
  0
ARC
  5
439D
  8
0
 10
309.84489186275857
 20
27.304699881567579
 30
0.0
 40
0.0467973782742005
 50
292.07061931858777
 51
354.6089032123632
  0
CIRCLE
  5
439E
  8
0
 10
309.83557599520128
 20
27.296102593884228
 30
0.0
 40
0.0166555298752413
  0
ARC
  5
439F
  8
0
 10
309.82665175825679
 20
27.317270788274229
 30
0.0
 40
0.0552293641759222
 50
107.8497920275893
 51
151.92068328706441
  0
ARC
  5
43A0
  8
0
 10
309.83619346164721
 20
27.294942726322141
 30
0.0
 40
0.0794389175188702
 50
66.513372559220343
 51
109.4644227635565
  0
ARC
  5
43A1
  8
0
 10
309.84510199179459
 20
27.31439157584667
 30
0.0
 40
0.058052498612662
 50
27.934516089822228
 51
66.927347277579216
  0
ARC
  5
43A2
  8
0
 10
309.82719991736462
 20
27.299244660552731
 30
0.0
 40
0.0467562347019241
 50
105.0695850748681
 51
177.5366931257231
  0
ARC
  5
43A3
  8
0
 10
309.83515288327999
 20
27.28243887986752
 30
0.0
 40
0.0651359462523046
 50
50.132251168780257
 51
107.982517150398
  0
ARC
  5
43A4
  8
0
 10
309.84900777469068
 20
27.30040478434309
 30
0.0
 40
0.0424745834202148
 50
359.86283199539753
 51
48.941761233987769
  0
ARC
  5
43A5
  8
0
 10
309.81922991262729
 20
27.324703076688181
 30
0.0
 40
0.0452865399089404
 50
155.80025865475051
 51
211.1840303444863
  0
ARC
  5
43A6
  8
0
 10
309.86282151741477
 20
27.324644234253999
 30
0.0
 40
0.0376022297732119
 50
319.65923561886621
 51
26.780775736759171
  0
LINE
  5
43A7
  8
0
 10
309.78048695707031
 20
27.549731344301691
 30
0.0
 11
309.77792313417018
 21
27.591744006801701
 31
0.0
  0
LINE
  5
43A8
  8
0
 10
309.89148230578019
 20
27.54878021965629
 30
0.0
 11
309.89639049047031
 21
27.590064093601701
 31
0.0
  0
ARC
  5
43A9
  8
0
 10
309.82439596639688
 20
27.552597405231879
 30
0.0
 40
0.0440024477195299
 50
183.73455425856321
 51
228.64016983914291
  0
ARC
  5
43AA
  8
0
 10
309.83478050206708
 20
27.5638761271932
 30
0.0
 40
0.0593309059771841
 50
228.31033496026981
 51
260.73002242222231
  0
ARC
  5
43AB
  8
0
 10
309.83646242228548
 20
27.568870779487309
 30
0.0
 40
0.0645369333191782
 50
259.97059284585009
 51
293.7709003540927
  0
ARC
  5
43AC
  8
0
 10
309.84489193214711
 20
27.553177002351131
 30
0.0
 40
0.0467973782742005
 50
292.07061931858777
 51
354.6089032123632
  0
CIRCLE
  5
43AD
  8
0
 10
309.83557606458982
 20
27.54457971466778
 30
0.0
 40
0.0166555298752413
  0
ARC
  5
43AE
  8
0
 10
309.82665182764532
 20
27.56574790905778
 30
0.0
 40
0.0552293641759222
 50
107.8497920275893
 51
151.92068328706441
  0
ARC
  5
43AF
  8
0
 10
309.8361935310358
 20
27.543419847105689
 30
0.0
 40
0.0794389175188702
 50
66.513372559220343
 51
109.4644227635565
  0
ARC
  5
43B0
  8
0
 10
309.84510206118313
 20
27.562868696630218
 30
0.0
 40
0.058052498612662
 50
27.934516089822228
 51
66.927347277579216
  0
ARC
  5
43B1
  8
0
 10
309.8271999867531
 20
27.547721781336278
 30
0.0
 40
0.0467562347019241
 50
105.0695850748681
 51
177.5366931257231
  0
ARC
  5
43B2
  8
0
 10
309.83515295266852
 20
27.530916000651061
 30
0.0
 40
0.0651359462523046
 50
50.132251168780257
 51
107.982517150398
  0
ARC
  5
43B3
  8
0
 10
309.84900784407932
 20
27.548881905126638
 30
0.0
 40
0.0424745834202148
 50
359.86283199539753
 51
48.941761233987769
  0
ARC
  5
43B4
  8
0
 10
309.81922998201583
 20
27.573180197471721
 30
0.0
 40
0.0452865399089404
 50
155.80025865475051
 51
211.1840303444863
  0
ARC
  5
43B5
  8
0
 10
309.86282158680342
 20
27.57312135503755
 30
0.0
 40
0.0376022297732119
 50
319.65923561886621
 51
26.780775736759171
  0
LINE
  5
43B6
  8
0
 10
309.78048697117032
 20
27.80852188170169
 30
0.0
 11
309.77792314827019
 21
27.85053454420169
 31
0.0
  0
LINE
  5
43B7
  8
0
 10
309.8914823198802
 20
27.80757075705629
 30
0.0
 11
309.89639050457032
 21
27.848854631001689
 31
0.0
  0
ARC
  5
43B8
  8
0
 10
309.82439598049689
 20
27.811387942631882
 30
0.0
 40
0.0440024477195299
 50
183.73455425856321
 51
228.64016983914291
  0
ARC
  5
43B9
  8
0
 10
309.83478051616709
 20
27.8226666645932
 30
0.0
 40
0.0593309059771841
 50
228.31033496026981
 51
260.73002242222231
  0
ARC
  5
43BA
  8
0
 10
309.83646243638549
 20
27.827661316887308
 30
0.0
 40
0.0645369333191782
 50
259.97059284585009
 51
293.7709003540927
  0
ARC
  5
43BB
  8
0
 10
309.84489194624712
 20
27.81196753975113
 30
0.0
 40
0.0467973782742005
 50
292.07061931858777
 51
354.6089032123632
  0
CIRCLE
  5
43BC
  8
0
 10
309.83557607868983
 20
27.803370252067779
 30
0.0
 40
0.0166555298752413
  0
ARC
  5
43BD
  8
0
 10
309.82665184174539
 20
27.82453844645778
 30
0.0
 40
0.0552293641759222
 50
107.8497920275893
 51
151.92068328706441
  0
ARC
  5
43BE
  8
0
 10
309.83619354513581
 20
27.802210384505688
 30
0.0
 40
0.0794389175188702
 50
66.513372559220343
 51
109.4644227635565
  0
ARC
  5
43BF
  8
0
 10
309.84510207528308
 20
27.821659234030221
 30
0.0
 40
0.058052498612662
 50
27.934516089822228
 51
66.927347277579216
  0
ARC
  5
43C0
  8
0
 10
309.82720000085311
 20
27.806512318736281
 30
0.0
 40
0.0467562347019241
 50
105.0695850748681
 51
177.5366931257231
  0
ARC
  5
43C1
  8
0
 10
309.83515296676848
 20
27.789706538051071
 30
0.0
 40
0.0651359462523046
 50
50.132251168780257
 51
107.982517150398
  0
ARC
  5
43C2
  8
0
 10
309.84900785817928
 20
27.807672442526631
 30
0.0
 40
0.0424745834202148
 50
359.86283199539753
 51
48.941761233987769
  0
ARC
  5
43C3
  8
0
 10
309.81922999611589
 20
27.831970734871732
 30
0.0
 40
0.0452865399089404
 50
155.80025865475051
 51
211.1840303444863
  0
ARC
  5
43C4
  8
0
 10
309.86282160090337
 20
27.831911892437549
 30
0.0
 40
0.0376022297732119
 50
319.65923561886621
 51
26.780775736759171
  0
LINE
  5
43C5
  8
0
 10
309.78048694247019
 20
28.077517039001691
 30
0.0
 11
309.77792311957018
 21
28.119529701501701
 31
0.0
  0
LINE
  5
43C6
  8
0
 10
309.89148229118018
 20
28.076565914356291
 30
0.0
 11
309.89639047587019
 21
28.117849788301701
 31
0.0
  0
ARC
  5
43C7
  8
0
 10
309.82439595179687
 20
28.080383099931879
 30
0.0
 40
0.0440024477195299
 50
183.73455425856321
 51
228.64016983914291
  0
ARC
  5
43C8
  8
0
 10
309.83478048746713
 20
28.091661821893201
 30
0.0
 40
0.0593309059771841
 50
228.31033496026981
 51
260.73002242222231
  0
ARC
  5
43C9
  8
0
 10
309.83646240768547
 20
28.096656474187309
 30
0.0
 40
0.0645369333191782
 50
259.97059284585009
 51
293.7709003540927
  0
ARC
  5
43CA
  8
0
 10
309.8448919175471
 20
28.080962697051131
 30
0.0
 40
0.0467973782742005
 50
292.07061931858777
 51
354.6089032123632
  0
CIRCLE
  5
43CB
  8
0
 10
309.83557604998981
 20
28.07236540936778
 30
0.0
 40
0.0166555298752413
  0
ARC
  5
43CC
  8
0
 10
309.82665181304532
 20
28.093533603757781
 30
0.0
 40
0.0552293641759222
 50
107.8497920275893
 51
151.92068328706441
  0
ARC
  5
43CD
  8
0
 10
309.8361935164358
 20
28.071205541805689
 30
0.0
 40
0.0794389175188702
 50
66.513372559220343
 51
109.4644227635565
  0
ARC
  5
43CE
  8
0
 10
309.84510204658312
 20
28.090654391330219
 30
0.0
 40
0.058052498612662
 50
27.934516089822228
 51
66.927347277579216
  0
ARC
  5
43CF
  8
0
 10
309.82719997215321
 20
28.075507476036279
 30
0.0
 40
0.0467562347019241
 50
105.0695850748681
 51
177.5366931257231
  0
ARC
  5
43D0
  8
0
 10
309.83515293806852
 20
28.058701695351061
 30
0.0
 40
0.0651359462523046
 50
50.132251168780257
 51
107.982517150398
  0
ARC
  5
43D1
  8
0
 10
309.84900782947932
 20
28.076667599826639
 30
0.0
 40
0.0424745834202148
 50
359.86283199539753
 51
48.941761233987769
  0
ARC
  5
43D2
  8
0
 10
309.81922996741582
 20
28.100965892171718
 30
0.0
 40
0.0452865399089404
 50
155.80025865475051
 51
211.1840303444863
  0
ARC
  5
43D3
  8
0
 10
309.86282157220342
 20
28.10090704973755
 30
0.0
 40
0.0376022297732119
 50
319.65923561886621
 51
26.780775736759171
  0
LINE
  5
43D4
  8
0
 10
309.06850999927019
 20
27.402196276301691
 30
0.0
 11
309.06594617637018
 21
27.444208938801701
 31
0.0
  0
LINE
  5
43D5
  8
0
 10
309.17950534798018
 20
27.40124515165629
 30
0.0
 11
309.18441353267019
 21
27.442529025601701
 31
0.0
  0
ARC
  5
43D6
  8
0
 10
309.11241900859687
 20
27.405062337231879
 30
0.0
 40
0.0440024477195299
 50
183.73455425856321
 51
228.64016983914291
  0
ARC
  5
43D7
  8
0
 10
309.12280354426707
 20
27.416341059193201
 30
0.0
 40
0.0593309059771841
 50
228.31033496026981
 51
260.73002242222231
  0
ARC
  5
43D8
  8
0
 10
309.12448546448547
 20
27.421335711487309
 30
0.0
 40
0.0645369333191782
 50
259.97059284585009
 51
293.7709003540927
  0
ARC
  5
43D9
  8
0
 10
309.1329149743471
 20
27.405641934351131
 30
0.0
 40
0.0467973782742005
 50
292.07061931858777
 51
354.6089032123632
  0
CIRCLE
  5
43DA
  8
0
 10
309.12359910678981
 20
27.39704464666778
 30
0.0
 40
0.0166555298752413
  0
ARC
  5
43DB
  8
0
 10
309.11467486984532
 20
27.41821284105778
 30
0.0
 40
0.0552293641759222
 50
107.8497920275893
 51
151.92068328706441
  0
ARC
  5
43DC
  8
0
 10
309.1242165732358
 20
27.395884779105689
 30
0.0
 40
0.0794389175188702
 50
66.513372559220343
 51
109.4644227635565
  0
ARC
  5
43DD
  8
0
 10
309.13312510338312
 20
27.415333628630218
 30
0.0
 40
0.058052498612662
 50
27.934516089822228
 51
66.927347277579216
  0
ARC
  5
43DE
  8
0
 10
309.11522302895321
 20
27.400186713336279
 30
0.0
 40
0.0467562347019241
 50
105.0695850748681
 51
177.5366931257231
  0
ARC
  5
43DF
  8
0
 10
309.12317599486852
 20
27.383380932651061
 30
0.0
 40
0.0651359462523046
 50
50.132251168780257
 51
107.982517150398
  0
ARC
  5
43E0
  8
0
 10
309.13703088627932
 20
27.401346837126638
 30
0.0
 40
0.0424745834202148
 50
359.86283199539753
 51
48.941761233987769
  0
ARC
  5
43E1
  8
0
 10
309.10725302421582
 20
27.425645129471722
 30
0.0
 40
0.0452865399089404
 50
155.80025865475051
 51
211.1840303444863
  0
ARC
  5
43E2
  8
0
 10
309.1508446290033
 20
27.42558628703755
 30
0.0
 40
0.0376022297732119
 50
319.65923561886621
 51
26.780775736759171
  0
LINE
  5
43E3
  8
0
 10
309.22045858077018
 20
27.62887705990169
 30
0.0
 11
309.21789475787023
 21
27.670889722401689
 31
0.0
  0
LINE
  5
43E4
  8
0
 10
309.33145392948018
 20
27.62792593525629
 30
0.0
 11
309.3363621141703
 21
27.669209809201689
 31
0.0
  0
ARC
  5
43E5
  8
0
 10
309.26436759009692
 20
27.631743120831882
 30
0.0
 40
0.0440024477195299
 50
183.73455425856321
 51
228.64016983914291
  0
ARC
  5
43E6
  8
0
 10
309.27475212576712
 20
27.6430218427932
 30
0.0
 40
0.0593309059771841
 50
228.31033496026981
 51
260.73002242222231
  0
ARC
  5
43E7
  8
0
 10
309.27643404598552
 20
27.648016495087312
 30
0.0
 40
0.0645369333191782
 50
259.97059284585009
 51
293.7709003540927
  0
ARC
  5
43E8
  8
0
 10
309.2848635558471
 20
27.63232271795113
 30
0.0
 40
0.0467973782742005
 50
292.07061931858777
 51
354.6089032123632
  0
CIRCLE
  5
43E9
  8
0
 10
309.27554768828981
 20
27.623725430267779
 30
0.0
 40
0.0166555298752413
  0
ARC
  5
43EA
  8
0
 10
309.26662345134531
 20
27.644893624657779
 30
0.0
 40
0.0552293641759222
 50
107.8497920275893
 51
151.92068328706441
  0
ARC
  5
43EB
  8
0
 10
309.27616515473579
 20
27.622565562705681
 30
0.0
 40
0.0794389175188702
 50
66.513372559220343
 51
109.4644227635565
  0
ARC
  5
43EC
  8
0
 10
309.28507368488312
 20
27.642014412230221
 30
0.0
 40
0.058052498612662
 50
27.934516089822228
 51
66.927347277579216
  0
ARC
  5
43ED
  8
0
 10
309.26717161045309
 20
27.626867496936281
 30
0.0
 40
0.0467562347019241
 50
105.0695850748681
 51
177.5366931257231
  0
ARC
  5
43EE
  8
0
 10
309.27512457636851
 20
27.610061716251071
 30
0.0
 40
0.0651359462523046
 50
50.132251168780257
 51
107.982517150398
  0
ARC
  5
43EF
  8
0
 10
309.2889794677792
 20
27.62802762072663
 30
0.0
 40
0.0424745834202148
 50
359.86283199539753
 51
48.941761233987769
  0
ARC
  5
43F0
  8
0
 10
309.25920160571582
 20
27.652325913071731
 30
0.0
 40
0.0452865399089404
 50
155.80025865475051
 51
211.1840303444863
  0
ARC
  5
43F1
  8
0
 10
309.30279321050341
 20
27.652267070637549
 30
0.0
 40
0.0376022297732119
 50
319.65923561886621
 51
26.780775736759171
  0
LINE
  5
43F2
  8
0
 10
309.32735498972022
 20
28.211757866351689
 30
0.0
 11
309.32479116682021
 21
28.253770528851689
 31
0.0
  0
LINE
  5
43F3
  8
0
 10
309.43835033843021
 20
28.210806741706289
 30
0.0
 11
309.44325852312022
 21
28.252090615651699
 31
0.0
  0
ARC
  5
43F4
  8
0
 10
309.3712639990469
 20
28.214623927281881
 30
0.0
 40
0.0440024477195299
 50
183.73455425856321
 51
228.64016983914291
  0
ARC
  5
43F5
  8
0
 10
309.3816485347171
 20
28.225902649243199
 30
0.0
 40
0.0593309059771841
 50
228.31033496026981
 51
260.73002242222231
  0
ARC
  5
43F6
  8
0
 10
309.3833304549355
 20
28.230897301537311
 30
0.0
 40
0.0645369333191782
 50
259.97059284585009
 51
293.7709003540927
  0
ARC
  5
43F7
  8
0
 10
309.39175996479707
 20
28.215203524401129
 30
0.0
 40
0.0467973782742005
 50
292.07061931858777
 51
354.6089032123632
  0
CIRCLE
  5
43F8
  8
0
 10
309.38244409723978
 20
28.206606236717779
 30
0.0
 40
0.0166555298752413
  0
ARC
  5
43F9
  8
0
 10
309.37351986029529
 20
28.227774431107779
 30
0.0
 40
0.0552293641759222
 50
107.8497920275893
 51
151.92068328706441
  0
ARC
  5
43FA
  8
0
 10
309.38306156368583
 20
28.205446369155691
 30
0.0
 40
0.0794389175188702
 50
66.513372559220343
 51
109.4644227635565
  0
ARC
  5
43FB
  8
0
 10
309.39197009383309
 20
28.224895218680221
 30
0.0
 40
0.058052498612662
 50
27.934516089822228
 51
66.927347277579216
  0
ARC
  5
43FC
  8
0
 10
309.37406801940313
 20
28.209748303386281
 30
0.0
 40
0.0467562347019241
 50
105.0695850748681
 51
177.5366931257231
  0
ARC
  5
43FD
  8
0
 10
309.38202098531849
 20
28.19294252270107
 30
0.0
 40
0.0651359462523046
 50
50.132251168780257
 51
107.982517150398
  0
ARC
  5
43FE
  8
0
 10
309.39587587672929
 20
28.210908427176641
 30
0.0
 40
0.0424745834202148
 50
359.86283199539753
 51
48.941761233987769
  0
ARC
  5
43FF
  8
0
 10
309.36609801466579
 20
28.235206719521731
 30
0.0
 40
0.0452865399089404
 50
155.80025865475051
 51
211.1840303444863
  0
ARC
  5
4400
  8
0
 10
309.40968961945339
 20
28.235147877087549
 30
0.0
 40
0.0376022297732119
 50
319.65923561886621
 51
26.780775736759171
  0
LINE
  5
4401
  8
0
 10
309.03142070572022
 20
28.027989391901691
 30
0.0
 11
309.02885688282032
 21
28.070002054401701
 31
0.0
  0
LINE
  5
4402
  8
0
 10
309.14241605443021
 20
28.027038267256291
 30
0.0
 11
309.14732423912022
 21
28.068322141201701
 31
0.0
  0
ARC
  5
4403
  8
0
 10
309.07532971504691
 20
28.03085545283189
 30
0.0
 40
0.0440024477195299
 50
183.73455425856321
 51
228.64016983914291
  0
ARC
  5
4404
  8
0
 10
309.08571425071722
 20
28.042134174793201
 30
0.0
 40
0.0593309059771841
 50
228.31033496026981
 51
260.73002242222231
  0
ARC
  5
4405
  8
0
 10
309.08739617093562
 20
28.04712882708731
 30
0.0
 40
0.0645369333191782
 50
259.97059284585009
 51
293.7709003540927
  0
ARC
  5
4406
  8
0
 10
309.09582568079708
 20
28.031435049951131
 30
0.0
 40
0.0467973782742005
 50
292.07061931858777
 51
354.6089032123632
  0
CIRCLE
  5
4407
  8
0
 10
309.08650981323979
 20
28.02283776226778
 30
0.0
 40
0.0166555298752413
  0
ARC
  5
4408
  8
0
 10
309.07758557629529
 20
28.044005956657781
 30
0.0
 40
0.0552293641759222
 50
107.8497920275893
 51
151.92068328706441
  0
ARC
  5
4409
  8
0
 10
309.08712727968577
 20
28.021677894705689
 30
0.0
 40
0.0794389175188702
 50
66.513372559220343
 51
109.4644227635565
  0
ARC
  5
440A
  8
0
 10
309.0960358098331
 20
28.041126744230219
 30
0.0
 40
0.058052498612662
 50
27.934516089822228
 51
66.927347277579216
  0
ARC
  5
440B
  8
0
 10
309.07813373540318
 20
28.025979828936279
 30
0.0
 40
0.0467562347019241
 50
105.0695850748681
 51
177.5366931257231
  0
ARC
  5
440C
  8
0
 10
309.08608670131849
 20
28.009174048251069
 30
0.0
 40
0.0651359462523046
 50
50.132251168780257
 51
107.982517150398
  0
ARC
  5
440D
  8
0
 10
309.09994159272929
 20
28.027139952726639
 30
0.0
 40
0.0424745834202148
 50
359.86283199539753
 51
48.941761233987769
  0
ARC
  5
440E
  8
0
 10
309.07016373066591
 20
28.051438245071729
 30
0.0
 40
0.0452865399089404
 50
155.80025865475051
 51
211.1840303444863
  0
ARC
  5
440F
  8
0
 10
309.11375533545328
 20
28.051379402637551
 30
0.0
 40
0.0376022297732119
 50
319.65923561886621
 51
26.780775736759171
  0
LINE
  5
4410
  8
0
 10
308.74754372877021
 20
27.854133595401692
 30
0.0
 11
308.74497990587031
 21
27.896146257901702
 31
0.0
  0
LINE
  5
4411
  8
0
 10
308.8585390774802
 20
27.853182470756291
 30
0.0
 11
308.86344726217021
 21
27.894466344701701
 31
0.0
  0
ARC
  5
4412
  8
0
 10
308.79145273809701
 20
27.85699965633189
 30
0.0
 40
0.0440024477195299
 50
183.73455425856321
 51
228.64016983914291
  0
ARC
  5
4413
  8
0
 10
308.80183727376721
 20
27.868278378293201
 30
0.0
 40
0.0593309059771841
 50
228.31033496026981
 51
260.73002242222231
  0
ARC
  5
4414
  8
0
 10
308.80351919398561
 20
27.87327303058731
 30
0.0
 40
0.0645369333191782
 50
259.97059284585009
 51
293.7709003540927
  0
ARC
  5
4415
  8
0
 10
308.81194870384712
 20
27.857579253451132
 30
0.0
 40
0.0467973782742005
 50
292.07061931858777
 51
354.6089032123632
  0
CIRCLE
  5
4416
  8
0
 10
308.80263283628977
 20
27.848981965767781
 30
0.0
 40
0.0166555298752413
  0
ARC
  5
4417
  8
0
 10
308.79370859934528
 20
27.870150160157781
 30
0.0
 40
0.0552293641759222
 50
107.8497920275893
 51
151.92068328706441
  0
ARC
  5
4418
  8
0
 10
308.80325030273582
 20
27.84782209820569
 30
0.0
 40
0.0794389175188702
 50
66.513372559220343
 51
109.4644227635565
  0
ARC
  5
4419
  8
0
 10
308.81215883288309
 20
27.867270947730219
 30
0.0
 40
0.058052498612662
 50
27.934516089822228
 51
66.927347277579216
  0
ARC
  5
441A
  8
0
 10
308.79425675845317
 20
27.852124032436279
 30
0.0
 40
0.0467562347019241
 50
105.0695850748681
 51
177.5366931257231
  0
ARC
  5
441B
  8
0
 10
308.80220972436859
 20
27.835318251751069
 30
0.0
 40
0.0651359462523046
 50
50.132251168780257
 51
107.982517150398
  0
ARC
  5
441C
  8
0
 10
308.81606461577928
 20
27.853284156226639
 30
0.0
 40
0.0424745834202148
 50
359.86283199539753
 51
48.941761233987769
  0
ARC
  5
441D
  8
0
 10
308.78628675371579
 20
27.877582448571729
 30
0.0
 40
0.0452865399089404
 50
155.80025865475051
 51
211.1840303444863
  0
ARC
  5
441E
  8
0
 10
308.82987835850338
 20
27.877523606137551
 30
0.0
 40
0.0376022297732119
 50
319.65923561886621
 51
26.780775736759171
  0
LINE
  5
441F
  8
0
 10
308.46351056092021
 20
27.690111121001689
 30
0.0
 11
308.4609467380202
 21
27.732123783501699
 31
0.0
  0
LINE
  5
4420
  8
0
 10
308.5745059096302
 20
27.689159996356292
 30
0.0
 11
308.57941409432021
 21
27.730443870301698
 31
0.0
  0
ARC
  5
4421
  8
0
 10
308.5074195702469
 20
27.69297718193188
 30
0.0
 40
0.0440024477195299
 50
183.73455425856321
 51
228.64016983914291
  0
ARC
  5
4422
  8
0
 10
308.51780410591721
 20
27.704255903893198
 30
0.0
 40
0.0593309059771841
 50
228.31033496026981
 51
260.73002242222231
  0
ARC
  5
4423
  8
0
 10
308.5194860261355
 20
27.70925055618731
 30
0.0
 40
0.0645369333191782
 50
259.97059284585009
 51
293.7709003540927
  0
ARC
  5
4424
  8
0
 10
308.52791553599712
 20
27.693556779051129
 30
0.0
 40
0.0467973782742005
 50
292.07061931858777
 51
354.6089032123632
  0
CIRCLE
  5
4425
  8
0
 10
308.51859966843978
 20
27.684959491367781
 30
0.0
 40
0.0166555298752413
  0
ARC
  5
4426
  8
0
 10
308.5096754314954
 20
27.706127685757782
 30
0.0
 40
0.0552293641759222
 50
107.8497920275893
 51
151.92068328706441
  0
ARC
  5
4427
  8
0
 10
308.51921713488582
 20
27.68379962380569
 30
0.0
 40
0.0794389175188702
 50
66.513372559220343
 51
109.4644227635565
  0
ARC
  5
4428
  8
0
 10
308.52812566503309
 20
27.70324847333022
 30
0.0
 40
0.058052498612662
 50
27.934516089822228
 51
66.927347277579216
  0
ARC
  5
4429
  8
0
 10
308.51022359060318
 20
27.68810155803628
 30
0.0
 40
0.0467562347019241
 50
105.0695850748681
 51
177.5366931257231
  0
ARC
  5
442A
  8
0
 10
308.51817655651848
 20
27.671295777351069
 30
0.0
 40
0.0651359462523046
 50
50.132251168780257
 51
107.982517150398
  0
ARC
  5
442B
  8
0
 10
308.53203144792928
 20
27.68926168182664
 30
0.0
 40
0.0424745834202148
 50
359.86283199539753
 51
48.941761233987769
  0
ARC
  5
442C
  8
0
 10
308.5022535858659
 20
27.71355997417173
 30
0.0
 40
0.0452865399089404
 50
155.80025865475051
 51
211.1840303444863
  0
ARC
  5
442D
  8
0
 10
308.54584519065338
 20
27.713501131737551
 30
0.0
 40
0.0376022297732119
 50
319.65923561886621
 51
26.780775736759171
  0
LINE
  5
442E
  8
0
 10
308.05635369777019
 20
28.12159036995169
 30
0.0
 11
308.05378987487018
 21
28.1636030324517
 31
0.0
  0
LINE
  5
442F
  8
0
 10
308.16734904648018
 20
28.12063924530629
 30
0.0
 11
308.17225723117019
 21
28.1619231192517
 31
0.0
  0
ARC
  5
4430
  8
0
 10
308.10026270709687
 20
28.124456430881889
 30
0.0
 40
0.0440024477195299
 50
183.73455425856321
 51
228.64016983914291
  0
ARC
  5
4431
  8
0
 10
308.11064724276707
 20
28.1357351528432
 30
0.0
 40
0.0593309059771841
 50
228.31033496026981
 51
260.73002242222231
  0
ARC
  5
4432
  8
0
 10
308.11232916298547
 20
28.140729805137308
 30
0.0
 40
0.0645369333191782
 50
259.97059284585009
 51
293.7709003540927
  0
ARC
  5
4433
  8
0
 10
308.1207586728471
 20
28.12503602800113
 30
0.0
 40
0.0467973782742005
 50
292.07061931858777
 51
354.6089032123632
  0
CIRCLE
  5
4434
  8
0
 10
308.11144280528981
 20
28.116438740317779
 30
0.0
 40
0.0166555298752413
  0
ARC
  5
4435
  8
0
 10
308.10251856834532
 20
28.13760693470778
 30
0.0
 40
0.0552293641759222
 50
107.8497920275893
 51
151.92068328706441
  0
ARC
  5
4436
  8
0
 10
308.1120602717358
 20
28.115278872755692
 30
0.0
 40
0.0794389175188702
 50
66.513372559220343
 51
109.4644227635565
  0
ARC
  5
4437
  8
0
 10
308.12096880188312
 20
28.134727722280221
 30
0.0
 40
0.058052498612662
 50
27.934516089822228
 51
66.927347277579216
  0
ARC
  5
4438
  8
0
 10
308.10306672745321
 20
28.119580806986281
 30
0.0
 40
0.0467562347019241
 50
105.0695850748681
 51
177.5366931257231
  0
ARC
  5
4439
  8
0
 10
308.11101969336852
 20
28.102775026301071
 30
0.0
 40
0.0651359462523046
 50
50.132251168780257
 51
107.982517150398
  0
ARC
  5
443A
  8
0
 10
308.12487458477932
 20
28.120740930776641
 30
0.0
 40
0.0424745834202148
 50
359.86283199539753
 51
48.941761233987769
  0
ARC
  5
443B
  8
0
 10
308.09509672271582
 20
28.145039223121731
 30
0.0
 40
0.0452865399089404
 50
155.80025865475051
 51
211.1840303444863
  0
ARC
  5
443C
  8
0
 10
308.13868832750342
 20
28.144980380687549
 30
0.0
 40
0.0376022297732119
 50
319.65923561886621
 51
26.780775736759171
  0
LINE
  5
443D
  8
0
 10
308.43275864702031
 20
28.191048324801692
 30
0.0
 11
308.43019482412018
 21
28.233060987301691
 31
0.0
  0
LINE
  5
443E
  8
0
 10
308.54375399573019
 20
28.190097200156291
 30
0.0
 11
308.54866218042031
 21
28.231381074101702
 31
0.0
  0
ARC
  5
443F
  8
0
 10
308.47666765634688
 20
28.19391438573188
 30
0.0
 40
0.0440024477195299
 50
183.73455425856321
 51
228.64016983914291
  0
ARC
  5
4440
  8
0
 10
308.48705219201707
 20
28.205193107693201
 30
0.0
 40
0.0593309059771841
 50
228.31033496026981
 51
260.73002242222231
  0
ARC
  5
4441
  8
0
 10
308.48873411223548
 20
28.21018775998731
 30
0.0
 40
0.0645369333191782
 50
259.97059284585009
 51
293.7709003540927
  0
ARC
  5
4442
  8
0
 10
308.4971636220971
 20
28.194493982851132
 30
0.0
 40
0.0467973782742005
 50
292.07061931858777
 51
354.6089032123632
  0
CIRCLE
  5
4443
  8
0
 10
308.48784775453981
 20
28.185896695167781
 30
0.0
 40
0.0166555298752413
  0
ARC
  5
4444
  8
0
 10
308.47892351759532
 20
28.207064889557781
 30
0.0
 40
0.0552293641759222
 50
107.8497920275893
 51
151.92068328706441
  0
ARC
  5
4445
  8
0
 10
308.48846522098569
 20
28.18473682760569
 30
0.0
 40
0.0794389175188702
 50
66.513372559220343
 51
109.4644227635565
  0
ARC
  5
4446
  8
0
 10
308.49737375113313
 20
28.204185677130209
 30
0.0
 40
0.058052498612662
 50
27.934516089822228
 51
66.927347277579216
  0
ARC
  5
4447
  8
0
 10
308.4794716767031
 20
28.189038761836269
 30
0.0
 40
0.0467562347019241
 50
105.0695850748681
 51
177.5366931257231
  0
ARC
  5
4448
  8
0
 10
308.48742464261852
 20
28.172232981151069
 30
0.0
 40
0.0651359462523046
 50
50.132251168780257
 51
107.982517150398
  0
ARC
  5
4449
  8
0
 10
308.50127953402932
 20
28.190198885626639
 30
0.0
 40
0.0424745834202148
 50
359.86283199539753
 51
48.941761233987769
  0
ARC
  5
444A
  8
0
 10
308.47150167196583
 20
28.21449717797173
 30
0.0
 40
0.0452865399089404
 50
155.80025865475051
 51
211.1840303444863
  0
ARC
  5
444B
  8
0
 10
308.5150932767533
 20
28.214438335537551
 30
0.0
 40
0.0376022297732119
 50
319.65923561886621
 51
26.780775736759171
  0
LINE
  5
444C
  8
0
 10
307.91832110377021
 20
28.62958864265169
 30
0.0
 11
307.91575728087031
 21
28.6716013051517
 31
0.0
  0
LINE
  5
444D
  8
0
 10
308.0293164524802
 20
28.62863751800629
 30
0.0
 11
308.03422463717021
 21
28.669921391951689
 31
0.0
  0
ARC
  5
444E
  8
0
 10
307.96223011309701
 20
28.632454703581882
 30
0.0
 40
0.0440024477195299
 50
183.73455425856321
 51
228.64016983914291
  0
ARC
  5
444F
  8
0
 10
307.97261464876721
 20
28.6437334255432
 30
0.0
 40
0.0593309059771841
 50
228.31033496026981
 51
260.73002242222231
  0
ARC
  5
4450
  8
0
 10
307.97429656898561
 20
28.648728077837308
 30
0.0
 40
0.0645369333191782
 50
259.97059284585009
 51
293.7709003540927
  0
ARC
  5
4451
  8
0
 10
307.98272607884712
 20
28.63303430070113
 30
0.0
 40
0.0467973782742005
 50
292.07061931858777
 51
354.6089032123632
  0
CIRCLE
  5
4452
  8
0
 10
307.97341021128977
 20
28.624437013017779
 30
0.0
 40
0.0166555298752413
  0
ARC
  5
4453
  8
0
 10
307.96448597434528
 20
28.64560520740778
 30
0.0
 40
0.0552293641759222
 50
107.8497920275893
 51
151.92068328706441
  0
ARC
  5
4454
  8
0
 10
307.97402767773582
 20
28.623277145455688
 30
0.0
 40
0.0794389175188702
 50
66.513372559220343
 51
109.4644227635565
  0
ARC
  5
4455
  8
0
 10
307.98293620788309
 20
28.642725994980221
 30
0.0
 40
0.058052498612662
 50
27.934516089822228
 51
66.927347277579216
  0
ARC
  5
4456
  8
0
 10
307.96503413345317
 20
28.627579079686281
 30
0.0
 40
0.0467562347019241
 50
105.0695850748681
 51
177.5366931257231
  0
ARC
  5
4457
  8
0
 10
307.97298709936859
 20
28.610773299001071
 30
0.0
 40
0.0651359462523046
 50
50.132251168780257
 51
107.982517150398
  0
ARC
  5
4458
  8
0
 10
307.98684199077928
 20
28.628739203476631
 30
0.0
 40
0.0424745834202148
 50
359.86283199539753
 51
48.941761233987769
  0
ARC
  5
4459
  8
0
 10
307.95706412871579
 20
28.653037495821732
 30
0.0
 40
0.0452865399089404
 50
155.80025865475051
 51
211.1840303444863
  0
ARC
  5
445A
  8
0
 10
308.00065573350338
 20
28.652978653387549
 30
0.0
 40
0.0376022297732119
 50
319.65923561886621
 51
26.780775736759171
  0
LINE
  5
445B
  8
0
 10
308.32137279357022
 20
28.588835208501688
 30
0.0
 11
308.31880897067032
 21
28.630847871001698
 31
0.0
  0
LINE
  5
445C
  8
0
 10
308.43236814228021
 20
28.587884083856292
 30
0.0
 11
308.43727632697022
 21
28.629167957801691
 31
0.0
  0
ARC
  5
445D
  8
0
 10
308.3652818028969
 20
28.591701269431891
 30
0.0
 40
0.0440024477195299
 50
183.73455425856321
 51
228.64016983914291
  0
ARC
  5
445E
  8
0
 10
308.3756663385671
 20
28.602979991393202
 30
0.0
 40
0.0593309059771841
 50
228.31033496026981
 51
260.73002242222231
  0
ARC
  5
445F
  8
0
 10
308.37734825878562
 20
28.60797464368731
 30
0.0
 40
0.0645369333191782
 50
259.97059284585009
 51
293.7709003540927
  0
ARC
  5
4460
  8
0
 10
308.38577776864707
 20
28.592280866551128
 30
0.0
 40
0.0467973782742005
 50
292.07061931858777
 51
354.6089032123632
  0
CIRCLE
  5
4461
  8
0
 10
308.37646190108978
 20
28.583683578867781
 30
0.0
 40
0.0166555298752413
  0
ARC
  5
4462
  8
0
 10
308.36753766414529
 20
28.604851773257781
 30
0.0
 40
0.0552293641759222
 50
107.8497920275893
 51
151.92068328706441
  0
ARC
  5
4463
  8
0
 10
308.37707936753583
 20
28.58252371130569
 30
0.0
 40
0.0794389175188702
 50
66.513372559220343
 51
109.4644227635565
  0
ARC
  5
4464
  8
0
 10
308.38598789768309
 20
28.60197256083022
 30
0.0
 40
0.058052498612662
 50
27.934516089822228
 51
66.927347277579216
  0
ARC
  5
4465
  8
0
 10
308.36808582325318
 20
28.58682564553628
 30
0.0
 40
0.0467562347019241
 50
105.0695850748681
 51
177.5366931257231
  0
ARC
  5
4466
  8
0
 10
308.3760387891686
 20
28.570019864851069
 30
0.0
 40
0.0651359462523046
 50
50.132251168780257
 51
107.982517150398
  0
ARC
  5
4467
  8
0
 10
308.38989368057918
 20
28.587985769326629
 30
0.0
 40
0.0424745834202148
 50
359.86283199539753
 51
48.941761233987769
  0
ARC
  5
4468
  8
0
 10
308.36011581851591
 20
28.61228406167173
 30
0.0
 40
0.0452865399089404
 50
155.80025865475051
 51
211.1840303444863
  0
ARC
  5
4469
  8
0
 10
308.40370742330327
 20
28.612225219237551
 30
0.0
 40
0.0376022297732119
 50
319.65923561886621
 51
26.780775736759171
  0
LINE
  5
446A
  8
0
 10
308.72447506747022
 20
28.557765557051692
 30
0.0
 11
308.72191124457032
 21
28.599778219551691
 31
0.0
  0
LINE
  5
446B
  8
0
 10
308.83547041618021
 20
28.556814432406291
 30
0.0
 11
308.84037860087022
 21
28.598098306351702
 31
0.0
  0
ARC
  5
446C
  8
0
 10
308.76838407679691
 20
28.56063161798188
 30
0.0
 40
0.0440024477195299
 50
183.73455425856321
 51
228.64016983914291
  0
ARC
  5
446D
  8
0
 10
308.77876861246722
 20
28.571910339943202
 30
0.0
 40
0.0593309059771841
 50
228.31033496026981
 51
260.73002242222231
  0
ARC
  5
446E
  8
0
 10
308.78045053268562
 20
28.57690499223731
 30
0.0
 40
0.0645369333191782
 50
259.97059284585009
 51
293.7709003540927
  0
ARC
  5
446F
  8
0
 10
308.78888004254708
 20
28.561211215101132
 30
0.0
 40
0.0467973782742005
 50
292.07061931858777
 51
354.6089032123632
  0
CIRCLE
  5
4470
  8
0
 10
308.77956417498979
 20
28.552613927417781
 30
0.0
 40
0.0166555298752413
  0
ARC
  5
4471
  8
0
 10
308.77063993804529
 20
28.573782121807781
 30
0.0
 40
0.0552293641759222
 50
107.8497920275893
 51
151.92068328706441
  0
ARC
  5
4472
  8
0
 10
308.78018164143577
 20
28.55145405985569
 30
0.0
 40
0.0794389175188702
 50
66.513372559220343
 51
109.4644227635565
  0
ARC
  5
4473
  8
0
 10
308.7890901715831
 20
28.570902909380209
 30
0.0
 40
0.058052498612662
 50
27.934516089822228
 51
66.927347277579216
  0
ARC
  5
4474
  8
0
 10
308.77118809715319
 20
28.555755994086269
 30
0.0
 40
0.0467562347019241
 50
105.0695850748681
 51
177.5366931257231
  0
ARC
  5
4475
  8
0
 10
308.77914106306861
 20
28.538950213401069
 30
0.0
 40
0.0651359462523046
 50
50.132251168780257
 51
107.982517150398
  0
ARC
  5
4476
  8
0
 10
308.79299595447918
 20
28.556916117876639
 30
0.0
 40
0.0424745834202148
 50
359.86283199539753
 51
48.941761233987769
  0
ARC
  5
4477
  8
0
 10
308.7632180924158
 20
28.58121441022173
 30
0.0
 40
0.0452865399089404
 50
155.80025865475051
 51
211.1840303444863
  0
ARC
  5
4478
  8
0
 10
308.80680969720328
 20
28.581155567787551
 30
0.0
 40
0.0376022297732119
 50
319.65923561886621
 51
26.780775736759171
  0
LINE
  5
4479
  8
0
 10
309.13995808667022
 20
28.536211951701691
 30
0.0
 11
309.1373942637702
 21
28.578224614201702
 31
0.0
  0
LINE
  5
447A
  8
0
 10
309.25095343538021
 20
28.535260827056291
 30
0.0
 11
309.25586162007022
 21
28.576544701001701
 31
0.0
  0
ARC
  5
447B
  8
0
 10
309.1838670959969
 20
28.53907801263189
 30
0.0
 40
0.0440024477195299
 50
183.73455425856321
 51
228.64016983914291
  0
ARC
  5
447C
  8
0
 10
309.19425163166721
 20
28.550356734593201
 30
0.0
 40
0.0593309059771841
 50
228.31033496026981
 51
260.73002242222231
  0
ARC
  5
447D
  8
0
 10
309.1959335518855
 20
28.55535138688731
 30
0.0
 40
0.0645369333191782
 50
259.97059284585009
 51
293.7709003540927
  0
ARC
  5
447E
  8
0
 10
309.20436306174707
 20
28.539657609751131
 30
0.0
 40
0.0467973782742005
 50
292.07061931858777
 51
354.6089032123632
  0
CIRCLE
  5
447F
  8
0
 10
309.19504719418978
 20
28.531060322067781
 30
0.0
 40
0.0166555298752413
  0
ARC
  5
4480
  8
0
 10
309.18612295724529
 20
28.552228516457781
 30
0.0
 40
0.0552293641759222
 50
107.8497920275893
 51
151.92068328706441
  0
ARC
  5
4481
  8
0
 10
309.19566466063583
 20
28.52990045450569
 30
0.0
 40
0.0794389175188702
 50
66.513372559220343
 51
109.4644227635565
  0
ARC
  5
4482
  8
0
 10
309.20457319078309
 20
28.549349304030219
 30
0.0
 40
0.058052498612662
 50
27.934516089822228
 51
66.927347277579216
  0
ARC
  5
4483
  8
0
 10
309.18667111635318
 20
28.534202388736279
 30
0.0
 40
0.0467562347019241
 50
105.0695850748681
 51
177.5366931257231
  0
ARC
  5
4484
  8
0
 10
309.19462408226849
 20
28.517396608051069
 30
0.0
 40
0.0651359462523046
 50
50.132251168780257
 51
107.982517150398
  0
ARC
  5
4485
  8
0
 10
309.20847897367918
 20
28.535362512526639
 30
0.0
 40
0.0424745834202148
 50
359.86283199539753
 51
48.941761233987769
  0
ARC
  5
4486
  8
0
 10
309.17870111161591
 20
28.559660804871729
 30
0.0
 40
0.0452865399089404
 50
155.80025865475051
 51
211.1840303444863
  0
ARC
  5
4487
  8
0
 10
309.22229271640339
 20
28.559601962437551
 30
0.0
 40
0.0376022297732119
 50
319.65923561886621
 51
26.780775736759171
  0
LINE
  5
4488
  8
0
 10
308.05945951537018
 20
29.138634263601691
 30
0.0
 11
308.05689569247022
 21
29.180646926101691
 31
0.0
  0
LINE
  5
4489
  8
0
 10
308.17045486408023
 20
29.137683138956291
 30
0.0
 11
308.17536304877018
 21
29.178967012901701
 31
0.0
  0
ARC
  5
448A
  8
0
 10
308.10336852469692
 20
29.141500324531879
 30
0.0
 40
0.0440024477195299
 50
183.73455425856321
 51
228.64016983914041
  0
ARC
  5
448B
  8
0
 10
308.11375306036712
 20
29.152779046493201
 30
0.0
 40
0.0593309059771841
 50
228.31033496026981
 51
260.73002242222231
  0
ARC
  5
448C
  8
0
 10
308.11543498058552
 20
29.15777369878731
 30
0.0
 40
0.0645369333191782
 50
259.97059284585009
 51
293.7709003540927
  0
ARC
  5
448D
  8
0
 10
308.12386449044709
 20
29.142079921651131
 30
0.0
 40
0.0467973782742005
 50
292.07061931858777
 51
354.6089032123632
  0
CIRCLE
  5
448E
  8
0
 10
308.1145486228898
 20
29.13348263396778
 30
0.0
 40
0.0166555298752413
  0
ARC
  5
448F
  8
0
 10
308.1056243859453
 20
29.154650828357781
 30
0.0
 40
0.0552293641759222
 50
107.8497920275893
 51
151.92068328706441
  0
ARC
  5
4490
  8
0
 10
308.11516608933579
 20
29.132322766405689
 30
0.0
 40
0.0794389175188702
 50
66.513372559220343
 51
109.4644227635565
  0
ARC
  5
4491
  8
0
 10
308.12407461948311
 20
29.151771615930208
 30
0.0
 40
0.058052498612662
 50
27.934516089822228
 51
66.927347277579216
  0
ARC
  5
4492
  8
0
 10
308.1061725450532
 20
29.136624700636268
 30
0.0
 40
0.0467562347019241
 50
105.0695850748681
 51
177.5366931257231
  0
ARC
  5
4493
  8
0
 10
308.11412551096851
 20
29.119818919951069
 30
0.0
 40
0.0651359462523046
 50
50.132251168780257
 51
107.982517150398
  0
ARC
  5
4494
  8
0
 10
308.12798040237931
 20
29.137784824426639
 30
0.0
 40
0.0424745834202148
 50
359.86283199539753
 51
48.941761233987769
  0
ARC
  5
4495
  8
0
 10
308.09820254031581
 20
29.162083116771729
 30
0.0
 40
0.0452865399089404
 50
155.80025865475051
 51
211.1840303444863
  0
ARC
  5
4496
  8
0
 10
308.1417941451034
 20
29.162024274337551
 30
0.0
 40
0.0376022297732119
 50
319.65923561886621
 51
26.780775736759171
  0
LINE
  5
4497
  8
0
 10
308.43562577117018
 20
28.986177226901692
 30
0.0
 11
308.43306194827022
 21
29.028189889401698
 31
0.0
  0
LINE
  5
4498
  8
0
 10
308.54662111988017
 20
28.985226102256291
 30
0.0
 11
308.55152930457018
 21
29.026509976201691
 31
0.0
  0
ARC
  5
4499
  8
0
 10
308.47953478049692
 20
28.98904328783189
 30
0.0
 40
0.0440024477195299
 50
183.73455425856321
 51
228.64016983914041
  0
ARC
  5
449A
  8
0
 10
308.48991931616712
 20
29.000322009793202
 30
0.0
 40
0.0593309059771841
 50
228.31033496026981
 51
260.73002242222231
  0
ARC
  5
449B
  8
0
 10
308.49160123638552
 20
29.00531666208731
 30
0.0
 40
0.0645369333191782
 50
259.97059284585009
 51
293.7709003540927
  0
ARC
  5
449C
  8
0
 10
308.50003074624709
 20
28.989622884951132
 30
0.0
 40
0.0467973782742005
 50
292.07061931858777
 51
354.6089032123632
  0
CIRCLE
  5
449D
  8
0
 10
308.4907148786898
 20
28.981025597267781
 30
0.0
 40
0.0166555298752413
  0
ARC
  5
449E
  8
0
 10
308.48179064174531
 20
29.002193791657781
 30
0.0
 40
0.0552293641759222
 50
107.8497920275893
 51
151.92068328706441
  0
ARC
  5
449F
  8
0
 10
308.49133234513579
 20
28.97986572970569
 30
0.0
 40
0.0794389175188702
 50
66.513372559220343
 51
109.4644227635565
  0
ARC
  5
44A0
  8
0
 10
308.50024087528311
 20
28.999314579230219
 30
0.0
 40
0.058052498612662
 50
27.934516089822228
 51
66.927347277579216
  0
ARC
  5
44A1
  8
0
 10
308.4823388008532
 20
28.98416766393628
 30
0.0
 40
0.0467562347019241
 50
105.0695850748681
 51
177.5366931257231
  0
ARC
  5
44A2
  8
0
 10
308.49029176676851
 20
28.967361883251069
 30
0.0
 40
0.0651359462523046
 50
50.132251168780257
 51
107.982517150398
  0
ARC
  5
44A3
  8
0
 10
308.50414665817931
 20
28.985327787726629
 30
0.0
 40
0.0424745834202148
 50
359.86283199539753
 51
48.941761233987769
  0
ARC
  5
44A4
  8
0
 10
308.47436879611581
 20
29.00962608007173
 30
0.0
 40
0.0452865399089404
 50
155.80025865475051
 51
211.1840303444863
  0
ARC
  5
44A5
  8
0
 10
308.51796040090341
 20
29.009567237637551
 30
0.0
 40
0.0376022297732119
 50
319.65923561886621
 51
26.780775736759171
  0
LINE
  5
44A6
  8
0
 10
309.32090323807017
 20
28.861195386751689
 30
0.0
 11
309.31833941517033
 21
28.903208049251699
 31
0.0
  0
LINE
  5
44A7
  8
0
 10
309.43189858678022
 20
28.860244262106288
 30
0.0
 11
309.43680677147017
 21
28.901528136051692
 31
0.0
  0
ARC
  5
44A8
  8
0
 10
309.36481224739691
 20
28.864061447681891
 30
0.0
 40
0.0440024477195299
 50
183.73455425856321
 51
228.64016983914291
  0
ARC
  5
44A9
  8
0
 10
309.37519678306722
 20
28.875340169643199
 30
0.0
 40
0.0593309059771841
 50
228.31033496026981
 51
260.73002242222231
  0
ARC
  5
44AA
  8
0
 10
309.37687870328563
 20
28.880334821937311
 30
0.0
 40
0.0645369333191782
 50
259.97059284585009
 51
293.7709003540927
  0
ARC
  5
44AB
  8
0
 10
309.3853082131472
 20
28.864641044801129
 30
0.0
 40
0.0467973782742005
 50
292.07061931858777
 51
354.6089032123632
  0
CIRCLE
  5
44AC
  8
0
 10
309.37599234558979
 20
28.856043757117781
 30
0.0
 40
0.0166555298752413
  0
ARC
  5
44AD
  8
0
 10
309.3670681086453
 20
28.877211951507778
 30
0.0
 40
0.0552293641759222
 50
107.8497920275893
 51
151.92068328706441
  0
ARC
  5
44AE
  8
0
 10
309.37660981203578
 20
28.854883889555691
 30
0.0
 40
0.0794389175188702
 50
66.513372559220343
 51
109.4644227635565
  0
ARC
  5
44AF
  8
0
 10
309.3855183421831
 20
28.87433273908022
 30
0.0
 40
0.058052498612662
 50
27.934516089822228
 51
66.927347277579216
  0
ARC
  5
44B0
  8
0
 10
309.36761626775319
 20
28.85918582378628
 30
0.0
 40
0.0467562347019241
 50
105.0695850748681
 51
177.5366931257231
  0
ARC
  5
44B1
  8
0
 10
309.37556923366861
 20
28.84238004310107
 30
0.0
 40
0.0651359462523046
 50
50.132251168780257
 51
107.982517150398
  0
ARC
  5
44B2
  8
0
 10
309.38942412507919
 20
28.86034594757664
 30
0.0
 40
0.0424745834202148
 50
359.86283199539753
 51
48.941761233987769
  0
ARC
  5
44B3
  8
0
 10
309.35964626301592
 20
28.88464423992173
 30
0.0
 40
0.0452865399089404
 50
155.80025865475051
 51
211.1840303444863
  0
ARC
  5
44B4
  8
0
 10
309.40323786780328
 20
28.884585397487552
 30
0.0
 40
0.0376022297732119
 50
319.65923561886621
 51
26.780775736759171
  0
LINE
  5
44B5
  8
0
 10
309.04138319507018
 20
29.08690810000169
 30
0.0
 11
309.03881937217022
 21
29.128920762501689
 31
0.0
  0
LINE
  5
44B6
  8
0
 10
309.15237854378017
 20
29.085956975356289
 30
0.0
 11
309.15728672847018
 21
29.127240849301689
 31
0.0
  0
ARC
  5
44B7
  8
0
 10
309.08529220439692
 20
29.089774160931881
 30
0.0
 40
0.0440024477195299
 50
183.73455425856321
 51
228.64016983914291
  0
ARC
  5
44B8
  8
0
 10
309.09567674006712
 20
29.1010528828932
 30
0.0
 40
0.0593309059771841
 50
228.31033496026981
 51
260.73002242222231
  0
ARC
  5
44B9
  8
0
 10
309.09735866028552
 20
29.106047535187312
 30
0.0
 40
0.0645369333191782
 50
259.97059284585009
 51
293.7709003540927
  0
ARC
  5
44BA
  8
0
 10
309.10578817014709
 20
29.090353758051119
 30
0.0
 40
0.0467973782742005
 50
292.07061931858777
 51
354.6089032123632
  0
CIRCLE
  5
44BB
  8
0
 10
309.0964723025898
 20
29.081756470367779
 30
0.0
 40
0.0166555298752413
  0
ARC
  5
44BC
  8
0
 10
309.08754806564531
 20
29.102924664757779
 30
0.0
 40
0.0552293641759222
 50
107.8497920275893
 51
151.92068328706441
  0
ARC
  5
44BD
  8
0
 10
309.09708976903579
 20
29.080596602805691
 30
0.0
 40
0.0794389175188702
 50
66.513372559220343
 51
109.4644227635565
  0
ARC
  5
44BE
  8
0
 10
309.10599829918311
 20
29.100045452330221
 30
0.0
 40
0.058052498612662
 50
27.934516089822228
 51
66.927347277579216
  0
ARC
  5
44BF
  8
0
 10
309.0880962247532
 20
29.084898537036281
 30
0.0
 40
0.0467562347019241
 50
105.0695850748681
 51
177.5366931257231
  0
ARC
  5
44C0
  8
0
 10
309.09604919066851
 20
29.068092756351071
 30
0.0
 40
0.0651359462523046
 50
50.132251168780257
 51
107.982517150398
  0
ARC
  5
44C1
  8
0
 10
309.10990408207931
 20
29.08605866082663
 30
0.0
 40
0.0424745834202148
 50
359.86283199539753
 51
48.941761233987769
  0
ARC
  5
44C2
  8
0
 10
309.08012622001581
 20
29.110356953171731
 30
0.0
 40
0.0452865399089404
 50
155.80025865475051
 51
211.1840303444863
  0
ARC
  5
44C3
  8
0
 10
309.12371782480341
 20
29.110298110737549
 30
0.0
 40
0.0376022297732119
 50
319.65923561886621
 51
26.780775736759171
  0
LINE
  5
44C4
  8
0
 10
308.74926845237019
 20
29.323727857501691
 30
0.0
 11
308.74670462947017
 21
29.365740520001701
 31
0.0
  0
LINE
  5
44C5
  8
0
 10
308.86026380108018
 20
29.32277673285629
 30
0.0
 11
308.86517198577019
 21
29.364060606801701
 31
0.0
  0
ARC
  5
44C6
  8
0
 10
308.79317746169693
 20
29.326593918431879
 30
0.0
 40
0.0440024477195299
 50
183.73455425856321
 51
228.64016983914291
  0
ARC
  5
44C7
  8
0
 10
308.80356199736713
 20
29.337872640393201
 30
0.0
 40
0.0593309059771841
 50
228.31033496026981
 51
260.73002242222231
  0
ARC
  5
44C8
  8
0
 10
308.80524391758553
 20
29.342867292687309
 30
0.0
 40
0.0645369333191782
 50
259.97059284585009
 51
293.7709003540927
  0
ARC
  5
44C9
  8
0
 10
308.8136734274471
 20
29.327173515551131
 30
0.0
 40
0.0467973782742005
 50
292.07061931858777
 51
354.6089032123632
  0
CIRCLE
  5
44CA
  8
0
 10
308.80435755988981
 20
29.31857622786778
 30
0.0
 40
0.0166555298752413
  0
ARC
  5
44CB
  8
0
 10
308.79543332294531
 20
29.33974442225778
 30
0.0
 40
0.0552293641759222
 50
107.8497920275893
 51
151.92068328706441
  0
ARC
  5
44CC
  8
0
 10
308.8049750263358
 20
29.317416360305689
 30
0.0
 40
0.0794389175188702
 50
66.513372559220343
 51
109.4644227635565
  0
ARC
  5
44CD
  8
0
 10
308.81388355648312
 20
29.336865209830219
 30
0.0
 40
0.058052498612662
 50
27.934516089822228
 51
66.927347277579216
  0
ARC
  5
44CE
  8
0
 10
308.79598148205321
 20
29.321718294536279
 30
0.0
 40
0.0467562347019241
 50
105.0695850748681
 51
177.5366931257231
  0
ARC
  5
44CF
  8
0
 10
308.80393444796852
 20
29.304912513851061
 30
0.0
 40
0.0651359462523046
 50
50.132251168780257
 51
107.982517150398
  0
ARC
  5
44D0
  8
0
 10
308.81778933937932
 20
29.322878418326638
 30
0.0
 40
0.0424745834202148
 50
359.86283199539753
 51
48.941761233987769
  0
ARC
  5
44D1
  8
0
 10
308.78801147731582
 20
29.347176710671722
 30
0.0
 40
0.0452865399089404
 50
155.80025865475051
 51
211.1840303444863
  0
ARC
  5
44D2
  8
0
 10
308.83160308210341
 20
29.34711786823755
 30
0.0
 40
0.0376022297732119
 50
319.65923561886621
 51
26.780775736759171
  0
LINE
  5
44D3
  8
0
 10
308.46987047927018
 20
29.56905562730169
 30
0.0
 11
308.46730665637023
 21
29.61106828980169
 31
0.0
  0
LINE
  5
44D4
  8
0
 10
308.58086582798018
 20
29.56810450265629
 30
0.0
 11
308.58577401267019
 21
29.609388376601689
 31
0.0
  0
ARC
  5
44D5
  8
0
 10
308.51377948859692
 20
29.571921688231878
 30
0.0
 40
0.0440024477195299
 50
183.73455425856321
 51
228.64016983914291
  0
ARC
  5
44D6
  8
0
 10
308.52416402426712
 20
29.5832004101932
 30
0.0
 40
0.0593309059771841
 50
228.31033496026981
 51
260.73002242222231
  0
ARC
  5
44D7
  8
0
 10
308.52584594448552
 20
29.588195062487308
 30
0.0
 40
0.0645369333191782
 50
259.97059284585009
 51
293.7709003540927
  0
ARC
  5
44D8
  8
0
 10
308.5342754543471
 20
29.57250128535113
 30
0.0
 40
0.0467973782742005
 50
292.07061931858777
 51
354.6089032123632
  0
CIRCLE
  5
44D9
  8
0
 10
308.52495958678981
 20
29.563903997667779
 30
0.0
 40
0.0166555298752413
  0
ARC
  5
44DA
  8
0
 10
308.51603534984531
 20
29.58507219205778
 30
0.0
 40
0.0552293641759222
 50
107.8497920275893
 51
151.92068328706441
  0
ARC
  5
44DB
  8
0
 10
308.52557705323579
 20
29.562744130105681
 30
0.0
 40
0.0794389175188702
 50
66.513372559220343
 51
109.4644227635565
  0
ARC
  5
44DC
  8
0
 10
308.53448558338312
 20
29.582192979630211
 30
0.0
 40
0.058052498612662
 50
27.934516089822228
 51
66.927347277579216
  0
ARC
  5
44DD
  8
0
 10
308.5165835089532
 20
29.567046064336271
 30
0.0
 40
0.0467562347019241
 50
105.0695850748681
 51
177.5366931257231
  0
ARC
  5
44DE
  8
0
 10
308.52453647486851
 20
29.550240283651071
 30
0.0
 40
0.0651359462523046
 50
50.132251168780257
 51
107.982517150398
  0
ARC
  5
44DF
  8
0
 10
308.53839136627931
 20
29.568206188126641
 30
0.0
 40
0.0424745834202148
 50
359.86283199539753
 51
48.941761233987769
  0
ARC
  5
44E0
  8
0
 10
308.50861350421582
 20
29.592504480471732
 30
0.0
 40
0.0452865399089404
 50
155.80025865475051
 51
211.1840303444863
  0
ARC
  5
44E1
  8
0
 10
308.55220510900341
 20
29.59244563803755
 30
0.0
 40
0.0376022297732119
 50
319.65923561886621
 51
26.780775736759171
  0
LINE
  5
44E2
  8
0
 10
309.06798717697018
 20
29.858634634801689
 30
0.0
 11
309.06542335407028
 21
29.900647297301699
 31
0.0
  0
LINE
  5
44E3
  8
0
 10
309.17898252568023
 20
29.857683510156289
 30
0.0
 11
309.18389071037018
 21
29.898967384101699
 31
0.0
  0
ARC
  5
44E4
  8
0
 10
309.11189618629692
 20
29.86150069573188
 30
0.0
 40
0.0440024477195299
 50
183.73455425856321
 51
228.64016983914291
  0
ARC
  5
44E5
  8
0
 10
309.12228072196717
 20
29.872779417693199
 30
0.0
 40
0.0593309059771841
 50
228.31033496026981
 51
260.73002242222231
  0
ARC
  5
44E6
  8
0
 10
309.12396264218557
 20
29.877774069987311
 30
0.0
 40
0.0645369333191782
 50
259.97059284585009
 51
293.7709003540927
  0
ARC
  5
44E7
  8
0
 10
309.13239215204709
 20
29.862080292851129
 30
0.0
 40
0.0467973782742005
 50
292.07061931858777
 51
354.6089032123632
  0
CIRCLE
  5
44E8
  8
0
 10
309.1230762844898
 20
29.853483005167782
 30
0.0
 40
0.0166555298752413
  0
ARC
  5
44E9
  8
0
 10
309.1141520475453
 20
29.874651199557778
 30
0.0
 40
0.0552293641759222
 50
107.8497920275893
 51
151.92068328706441
  0
ARC
  5
44EA
  8
0
 10
309.12369375093579
 20
29.852323137605691
 30
0.0
 40
0.0794389175188702
 50
66.513372559220343
 51
109.4644227635565
  0
ARC
  5
44EB
  8
0
 10
309.13260228108311
 20
29.87177198713022
 30
0.0
 40
0.058052498612662
 50
27.934516089822228
 51
66.927347277579216
  0
ARC
  5
44EC
  8
0
 10
309.1147002066532
 20
29.85662507183628
 30
0.0
 40
0.0467562347019241
 50
105.0695850748681
 51
177.5366931257231
  0
ARC
  5
44ED
  8
0
 10
309.1226531725685
 20
29.839819291151059
 30
0.0
 40
0.0651359462523046
 50
50.132251168780257
 51
107.982517150398
  0
ARC
  5
44EE
  8
0
 10
309.13650806397931
 20
29.85778519562664
 30
0.0
 40
0.0424745834202148
 50
359.86283199539753
 51
48.941761233987769
  0
ARC
  5
44EF
  8
0
 10
309.10673020191592
 20
29.88208348797173
 30
0.0
 40
0.0452865399089404
 50
155.80025865475051
 51
211.1840303444863
  0
ARC
  5
44F0
  8
0
 10
309.1503218067034
 20
29.882024645537548
 30
0.0
 40
0.0376022297732119
 50
319.65923561886621
 51
26.780775736759171
  0
LINE
  5
44F1
  8
0
 10
309.23189920737019
 20
29.548104097001691
 30
0.0
 11
309.22933538447029
 21
29.59011675950169
 31
0.0
  0
LINE
  5
44F2
  8
0
 10
309.34289455608018
 20
29.54715297235629
 30
0.0
 11
309.34780274077019
 21
29.58843684630169
 31
0.0
  0
ARC
  5
44F3
  8
0
 10
309.27580821669699
 20
29.550970157931879
 30
0.0
 40
0.0440024477195299
 50
183.73455425856321
 51
228.64016983914291
  0
ARC
  5
44F4
  8
0
 10
309.28619275236713
 20
29.5622488798932
 30
0.0
 40
0.0593309059771841
 50
228.31033496026981
 51
260.73002242222231
  0
ARC
  5
44F5
  8
0
 10
309.28787467258547
 20
29.567243532187309
 30
0.0
 40
0.0645369333191782
 50
259.97059284585009
 51
293.7709003540927
  0
ARC
  5
44F6
  8
0
 10
309.2963041824471
 20
29.551549755051131
 30
0.0
 40
0.0467973782742005
 50
292.07061931858777
 51
354.6089032123632
  0
CIRCLE
  5
44F7
  8
0
 10
309.28698831488981
 20
29.54295246736778
 30
0.0
 40
0.0166555298752413
  0
ARC
  5
44F8
  8
0
 10
309.27806407794532
 20
29.56412066175778
 30
0.0
 40
0.0552293641759222
 50
107.8497920275893
 51
151.92068328706441
  0
ARC
  5
44F9
  8
0
 10
309.2876057813358
 20
29.541792599805682
 30
0.0
 40
0.0794389175188702
 50
66.513372559220343
 51
109.4644227635565
  0
ARC
  5
44FA
  8
0
 10
309.29651431148312
 20
29.561241449330218
 30
0.0
 40
0.058052498612662
 50
27.934516089822228
 51
66.927347277579216
  0
ARC
  5
44FB
  8
0
 10
309.27861223705321
 20
29.546094534036278
 30
0.0
 40
0.0467562347019241
 50
105.0695850748681
 51
177.5366931257231
  0
ARC
  5
44FC
  8
0
 10
309.28656520296852
 20
29.529288753351072
 30
0.0
 40
0.0651359462523046
 50
50.132251168780257
 51
107.982517150398
  0
ARC
  5
44FD
  8
0
 10
309.30042009437932
 20
29.547254657826642
 30
0.0
 40
0.0424745834202148
 50
359.86283199539753
 51
48.941761233987769
  0
ARC
  5
44FE
  8
0
 10
309.27064223231582
 20
29.571552950171728
 30
0.0
 40
0.0452865399089404
 50
155.80025865475051
 51
211.1840303444863
  0
ARC
  5
44FF
  8
0
 10
309.31423383710342
 20
29.57149410773755
 30
0.0
 40
0.0376022297732119
 50
319.65923561886621
 51
26.780775736759171
  0
ENDSEC
  0
EOF
