  0
SECTION
  2
HEADER
  9
$ACADVER
  1
AC1009
  9
$INSBASE
 10
23.067648615523769
 20
4.3577505931999987
 30
0.0
  9
$EXTMIN
 10
20.81763875887377
 20
4.3447715578468378
 30
0.0
  9
$EXTMAX
 10
25.31763875887377
 20
6.2952505931999996
 30
0.0
  9
$LIMMIN
 10
0.0
 20
0.0
  9
$LIMMAX
 10
11.692913385800001
 20
8.2677165353999982
  9
$ORTHOMODE
 70
     1
  9
$REGENMODE
 70
     1
  9
$FILLMODE
 70
     1
  9
$QTEXTMODE
 70
     0
  9
$MIRRTEXT
 70
     0
  9
$DRAGMODE
 70
     2
  9
$LTSCALE
 40
0.6431102362
  9
$OSMODE
 70
  3071
  9
$ATTMODE
 70
     1
  9
$TEXTSIZE
 40
0.2
  9
$TRACEWID
 40
0.05
  9
$TEXTSTYLE
  7
STANDARD
  9
$CLAYER
  8
0
  9
$CELTYPE
  6
BYLAYER
  9
$CECOLOR
 62
   256
  9
$DIMSCALE
 40
1.0
  9
$DIMASZ
 40
0.1875
  9
$DIMEXO
 40
0.0625
  9
$DIMDLI
 40
0.38
  9
$DIMRND
 40
0.0
  9
$DIMDLE
 40
0.0
  9
$DIMEXE
 40
0.125
  9
$DIMTP
 40
1.5
  9
$DIMTM
 40
1.5
  9
$DIMTXT
 40
0.15625
  9
$DIMCEN
 40
0.09
  9
$DIMTSZ
 40
0.0
  9
$DIMTOL
 70
     0
  9
$DIMLIM
 70
     0
  9
$DIMTIH
 70
     1
  9
$DIMTOH
 70
     1
  9
$DIMSE1
 70
     0
  9
$DIMSE2
 70
     0
  9
$DIMTAD
 70
     0
  9
$DIMZIN
 70
     4
  9
$DIMBLK
  1

  9
$DIMASO
 70
     1
  9
$DIMSHO
 70
     1
  9
$DIMPOST
  1
\X
  9
$DIMAPOST
  1

  9
$DIMALT
 70
     1
  9
$DIMALTD
 70
     2
  9
$DIMALTF
 40
25.399999999999999
  9
$DIMLFAC
 40
1.0
  9
$DIMTOFL
 70
     0
  9
$DIMTVP
 40
0.0
  9
$DIMTIX
 70
     0
  9
$DIMSOXD
 70
     0
  9
$DIMSAH
 70
     0
  9
$DIMBLK1
  1

  9
$DIMBLK2
  1

  9
$DIMSTYLE
  2
STANDARD
  9
$DIMCLRD
 70
     0
  9
$DIMCLRE
 70
     0
  9
$DIMCLRT
 70
     0
  9
$DIMTFAC
 40
1.0
  9
$DIMGAP
 40
0.09
  9
$LUNITS
 70
     2
  9
$LUPREC
 70
     4
  9
$SKETCHINC
 40
0.1
  9
$FILLETRAD
 40
0.0
  9
$AUNITS
 70
     0
  9
$AUPREC
 70
     0
  9
$MENU
  1
.
  9
$ELEVATION
 40
0.0
  9
$PELEVATION
 40
0.0
  9
$THICKNESS
 40
0.0
  9
$LIMCHECK
 70
     0
  9
$BLIPMODE
 70
     0
  9
$CHAMFERA
 40
0.0
  9
$CHAMFERB
 40
0.0
  9
$SKPOLY
 70
     0
  9
$TDCREATE
 40
2457735.4571278361
  9
$TDUPDATE
 40
2457736.7840069099
  9
$TDINDWG
 40
0.0200690394
  9
$TDUSRTIMER
 40
0.0200690394
  9
$USRTIMER
 70
     1
  9
$ANGBASE
 50
0.0
  9
$ANGDIR
 70
     0
  9
$PDMODE
 70
     0
  9
$PDSIZE
 40
0.3125
  9
$PLINEWID
 40
0.0
  9
$COORDS
 70
     1
  9
$SPLFRAME
 70
     0
  9
$SPLINETYPE
 70
     6
  9
$SPLINESEGS
 70
     8
  9
$ATTDIA
 70
     1
  9
$ATTREQ
 70
     1
  9
$HANDLING
 70
     1
  9
$HANDSEED
  5
C91
  9
$SURFTAB1
 70
     6
  9
$SURFTAB2
 70
     6
  9
$SURFTYPE
 70
     6
  9
$SURFU
 70
     6
  9
$SURFV
 70
     6
  9
$UCSNAME
  2

  9
$UCSORG
 10
0.0
 20
0.0
 30
0.0
  9
$UCSXDIR
 10
1.0
 20
0.0
 30
0.0
  9
$UCSYDIR
 10
0.0
 20
1.0
 30
0.0
  9
$PUCSNAME
  2

  9
$PUCSORG
 10
0.0
 20
0.0
 30
0.0
  9
$PUCSXDIR
 10
1.0
 20
0.0
 30
0.0
  9
$PUCSYDIR
 10
0.0
 20
1.0
 30
0.0
  9
$USERI1
 70
     0
  9
$USERI2
 70
     0
  9
$USERI3
 70
     0
  9
$USERI4
 70
     0
  9
$USERI5
 70
     0
  9
$USERR1
 40
0.0
  9
$USERR2
 40
0.0
  9
$USERR3
 40
0.0
  9
$USERR4
 40
0.0
  9
$USERR5
 40
0.0
  9
$WORLDVIEW
 70
     1
  9
$SHADEDGE
 70
     3
  9
$SHADEDIF
 70
    70
  9
$TILEMODE
 70
     1
  9
$MAXACTVP
 70
    48
  9
$PLIMCHECK
 70
     0
  9
$PEXTMIN
 10
1.0000000000000000E+020
 20
1.0000000000000000E+020
 30
1.0000000000000000E+020
  9
$PEXTMAX
 10
-1.0000000000000000E+020
 20
-1.0000000000000000E+020
 30
-1.0000000000000000E+020
  9
$PLIMMIN
 10
0.0
 20
0.0
  9
$PLIMMAX
 10
12.0
 20
9.0
  9
$UNITMODE
 70
     0
  9
$VISRETAIN
 70
     1
  9
$PLINEGEN
 70
     0
  9
$PSLTSCALE
 70
     1
  0
ENDSEC
  0
SECTION
  2
TABLES
  0
TABLE
  2
VPORT
 70
     1
  0
VPORT
  2
*ACTIVE
 70
     0
 10
0.0
 20
0.0
 11
1.0
 21
1.0
 12
0.0
 22
0.0
 13
0.0
 23
0.0
 14
1.0
 24
1.0
 15
0.0
 25
0.0
 16
-0.0000000000000036
 26
0.0
 36
11.491369890887089
 17
23.067638758873759
 27
5.3200110755234187
 37
0.0
 40
4.9045253049966213
 41
1.642297650130548
 42
50.0
 43
0.0
 44
0.0
 50
0.0
 51
0.0
 71
     0
 72
   100
 73
     1
 74
     1
 75
     0
 76
     0
 77
     0
 78
     0
  0
ENDTAB
  0
TABLE
  2
LTYPE
 70
     3
  0
LTYPE
  2
CONTINUOUS
 70
     0
  3
Solid line
 72
    65
 73
     0
 40
0.0
  0
LTYPE
  2
PHANTOM2
 70
     0
  3
___ _ _ ___ _ _ ___ _ _ ___ _ _
 72
    65
 73
     6
 40
1.25
 49
0.625
 49
-0.125
 49
0.125
 49
-0.125
 49
0.125
 49
-0.125
  0
ENDTAB
  0
TABLE
  2
LAYER
 70
     2
  0
LAYER
  2
0
 70
     0
 62
     7
  6
CONTINUOUS
  0
LAYER
  2
DEFPOINTS
 70
     0
 62
     7
  6
CONTINUOUS
  0
ENDTAB
  0
TABLE
  2
STYLE
 70
     1
  0
STYLE
  2
STANDARD
 70
     0
 40
0.0
 41
0.8
 50
0.0
 71
     0
 42
0.2
  3
txt
  4

  0
ENDTAB
  0
TABLE
  2
VIEW
 70
     0
  0
ENDTAB
  0
TABLE
  2
UCS
 70
     0
  0
ENDTAB
  0
TABLE
  2
APPID
 70
     7
  0
APPID
  2
ACAD
 70
     0
  0
APPID
  2
ACAD_MLEADERVER
 70
     0
  0
APPID
  2
ACAD_NAV_VCDISPLAY
 70
     0
  0
APPID
  2
ACAD_DSTYLE_DIMJAG
 70
     0
  0
APPID
  2
ACAD_DSTYLE_DIMTALN
 70
     0
  0
APPID
  2
ACAD_EXEMPT_FROM_CAD_STANDARDS
 70
     0
  0
APPID
  2
ACDBATTR
 70
     0
  0
ENDTAB
  0
TABLE
  2
DIMSTYLE
 70
     2
  0
DIMSTYLE
  2
STANDARD
 70
     0
  3
\X
  4

  5

  6

  7

 40
1.0
 41
0.1875
 42
0.0625
 43
0.38
 44
0.125
 45
0.0
 46
0.0
 47
1.5
 48
1.5
140
0.15625
141
0.09
142
0.0
143
25.399999999999999
144
1.0
145
0.0
146
1.0
147
0.09
 71
     0
 72
     0
 73
     1
 74
     1
 75
     0
 76
     0
 77
     0
 78
     4
170
     1
171
     2
172
     0
173
     0
174
     0
175
     0
176
     0
177
     0
178
     0
  0
ENDTAB
  0
ENDSEC
  0
SECTION
  2
BLOCKS
  0
BLOCK
  8
0
  2
$MODEL_SPACE
 70
     0
 10
0.0
 20
0.0
 30
0.0
  3
$MODEL_SPACE
  1

  0
ENDBLK
  5
21
  8
0
  0
BLOCK
 67
     1
  8
0
  2
$PAPER_SPACE
 70
     0
 10
0.0
 20
0.0
 30
0.0
  3
$PAPER_SPACE
  1

  0
ENDBLK
  5
1D
 67
     1
  8
0
  0
ENDSEC
  0
SECTION
  2
ENTITIES
  0
LINE
  5
7C9
  8
0
 10
20.880138758873759
 20
6.2952505931999996
 30
0.0
 11
20.880138758873759
 21
6.2640005931999996
 31
0.0
  0
LINE
  5
7CA
  8
0
 10
20.880138758873759
 20
6.2640005931999996
 30
0.0
 11
21.426514321073672
 21
6.1577959425000159
 31
0.0
  0
ARC
  5
7CB
  8
0
 10
21.4145887590191
 20
6.0964442436521802
 30
0.0
 40
0.0624999998546659
 50
359.99999995216439
 51
79.000000120214921
  0
LINE
  5
7CC
  8
0
 10
21.477088758873769
 20
6.0964442435999988
 30
0.0
 11
21.477088758873769
 21
5.949000593200001
 31
0.0
  0
LINE
  5
7CD
  8
0
 10
20.81763875887377
 20
5.9490005932000001
 30
0.0
 11
20.817657340573771
 21
5.8240005932000001
 31
0.0
  0
LINE
  5
7CE
  8
0
 10
20.817657340573771
 20
5.9490005932000001
 30
0.0
 11
25.317620177173762
 21
5.9490005932000001
 31
0.0
  0
LINE
  5
7CF
  8
0
 10
25.31763875887377
 20
5.8240005932000001
 30
0.0
 11
25.31763875887377
 21
5.9490005932000001
 31
0.0
  0
LINE
  5
7D0
  8
0
 10
25.317620177173762
 20
5.8240005932000001
 30
0.0
 11
20.817657340573771
 21
5.8240005932000001
 31
0.0
  0
LINE
  5
7D1
  8
0
 10
20.817657338873762
 20
5.7790005932000001
 30
0.0
 11
20.81763875887377
 21
5.8090005932000004
 31
0.0
  0
LINE
  5
7D2
  8
0
 10
20.81763875887377
 20
5.8090005932000004
 30
0.0
 11
25.317620178773758
 21
5.8090005932000004
 31
0.0
  0
LINE
  5
7D3
  8
0
 10
25.317620178773758
 20
5.8090005932000004
 30
0.0
 11
25.317620178773758
 21
5.7790005932000001
 31
0.0
  0
LINE
  5
7D4
  8
0
 10
25.317620178773758
 20
5.7790005932000001
 30
0.0
 11
20.81763875887377
 21
5.7790005932000001
 31
0.0
  0
LINE
  5
7D5
  8
0
 10
20.81763875887377
 20
5.7640005931999996
 30
0.0
 11
20.81763875887377
 21
5.7590088983000003
 31
0.0
  0
LINE
  5
7D6
  8
0
 10
20.817657356973768
 20
5.7640005931999996
 30
0.0
 11
25.317620160673769
 21
5.7640005931999996
 31
0.0
  0
LINE
  5
7D7
  8
0
 10
25.317620160673769
 20
5.7640005931999996
 30
0.0
 11
25.317620160673759
 21
5.7590088983000003
 31
0.0
  0
ARC
  5
7D8
  8
0
 10
20.880138758893501
 20
5.7590088983076946
 30
0.0
 40
0.0625000000197278
 50
180.00000000705441
 51
265.23635386865482
  0
LINE
  5
7D9
  8
0
 10
20.874948416373769
 20
5.6967247884000001
 30
0.0
 11
21.016424203873761
 21
5.6849351395000003
 31
0.0
  0
ARC
  5
7DA
  8
0
 10
21.00855617090561
 20
5.620107756362076
 30
0.0
 40
0.065302044907469
 50
4.149465544823971
 51
83.080035166420217
  0
LINE
  5
7DB
  8
0
 10
21.083014564773769
 20
5.3577505931999987
 30
0.0
 11
21.073682821643011
 21
5.624890687767035
 31
0.0
  0
LINE
  5
7DC
  8
0
 10
20.874948416373769
 20
5.6967247884000001
 30
0.0
 11
25.260329101365489
 21
5.6967247883993091
 31
0.0
  0
LINE
  5
7DD
  8
0
 10
25.25513875887377
 20
6.2952505931999996
 30
0.0
 11
25.25513875887377
 21
6.2640005931999996
 31
0.0
  0
LINE
  5
7DE
  8
0
 10
25.25513875887377
 20
6.2640005931999996
 30
0.0
 11
24.70876319667385
 21
6.1577959425000159
 31
0.0
  0
ARC
  5
7DF
  8
0
 10
24.720688758728429
 20
6.0964442436521802
 30
0.0
 40
0.0624999998546659
 50
100.99999987978499
 51
180.0000000478355
  0
LINE
  5
7E0
  8
0
 10
24.65818875887377
 20
6.0964442435999988
 30
0.0
 11
24.658188758873759
 21
5.9490005932000001
 31
0.0
  0
LINE
  5
7E1
  8
0
 10
25.31763875887377
 20
5.9490005932000001
 30
0.0
 11
25.317620177173762
 21
5.8240005932000001
 31
0.0
  0
LINE
  5
7E2
  8
0
 10
25.317620178873771
 20
5.7790005932000001
 30
0.0
 11
25.31763875887377
 21
5.8090005932000004
 31
0.0
  0
LINE
  5
7E3
  8
0
 10
25.31763875887377
 20
5.7640005931999996
 30
0.0
 11
25.31763875887377
 21
5.7590088983000003
 31
0.0
  0
ARC
  5
7E4
  8
0
 10
25.255138758854041
 20
5.7590088983076946
 30
0.0
 40
0.0625000000197278
 50
274.76364613134513
 51
359.99999999294562
  0
LINE
  5
7E5
  8
0
 10
25.26032910137376
 20
5.6967247884000001
 30
0.0
 11
25.118853313873771
 21
5.6849351395000003
 31
0.0
  0
ARC
  5
7E6
  8
0
 10
25.126721346841929
 20
5.620107756362076
 30
0.0
 40
0.065302044907469
 50
96.919964833579769
 51
175.85053445517599
  0
LINE
  5
7E7
  8
0
 10
25.052262952973759
 20
5.3577505931999987
 30
0.0
 11
25.061594696104521
 21
5.624890687767035
 31
0.0
  0
LINE
  5
7E8
  8
0
 10
21.083014564773769
 20
5.3577505931999987
 30
0.0
 11
25.052262952973759
 21
5.3577505931999987
 31
0.0
  0
LINE
  5
7E9
  8
0
 10
21.477088758873769
 20
5.3577505931999987
 30
0.0
 11
21.477088758873769
 21
4.424863093199999
 31
0.0
  0
LINE
  5
7EA
  8
0
 10
21.477088758873769
 20
4.424863093199999
 30
0.0
 11
21.544220972173768
 21
4.3577505931999987
 31
0.0
  0
LINE
  5
7EB
  8
0
 10
21.544220972173768
 20
4.3577505931999987
 30
0.0
 11
24.59107625887377
 21
4.3577505931999987
 31
0.0
  0
LINE
  5
7EC
  8
0
 10
24.658188758773761
 20
5.3577505931999987
 30
0.0
 11
24.658188758773761
 21
4.424863093199999
 31
0.0
  0
LINE
  5
7ED
  8
0
 10
24.658188758773761
 20
4.424863093199999
 30
0.0
 11
24.591056545473769
 21
4.3577505931999987
 31
0.0
  0
LINE
  5
7EE
  8
0
 10
20.88015735187377
 20
6.2952505931999996
 30
0.0
 11
25.25513875887377
 21
6.2952505931999996
 31
0.0
  0
ARC
  5
7EF
  8
0
 10
22.854364701141041
 20
5.5945389370193217
 30
0.0
 40
0.0644272333929999
 50
3.8104260720326888
 51
87.866401566867196
  0
LINE
  5
7F0
  8
0
 10
22.91748790320845
 20
5.6074358266999109
 30
0.0
 11
22.92324363407376
 21
5.612636844699999
 31
0.0
  0
ARC
  5
7F1
  8
0
 10
23.055452625471279
 20
4.7833103216607187
 30
0.0
 40
0.841610885130456
 50
89.170354638391927
 51
98.022561933591518
  0
LINE
  5
7F2
  8
0
 10
22.92324363407376
 20
5.612636844699999
 30
0.0
 11
22.93799485357377
 21
5.6166845195999997
 31
0.0
  0
LINE
  5
7F3
  8
0
 10
23.216610730558031
 20
5.6085011001509404
 30
0.0
 11
23.212033889533501
 21
5.612636844699999
 31
0.0
  0
ARC
  5
7F4
  8
0
 10
23.079824898135978
 20
4.7833103216607187
 30
0.0
 40
0.841610885130456
 50
81.977438066408496
 51
90.829645361608058
  0
LINE
  5
7F5
  8
0
 10
23.212033889533501
 20
5.612636844699999
 30
0.0
 11
23.197282670033498
 21
5.6166845195999997
 31
0.0
  0
LINE
  5
7F6
  8
0
 10
22.856762987650601
 20
5.6589215051999986
 30
0.0
 11
21.996130006973772
 21
5.6589215051999986
 31
0.0
  0
LINE
  5
7F7
  8
0
 10
22.918649511173768
 20
5.5988204789999987
 30
0.0
 11
22.92701375887377
 21
5.3577505931999987
 31
0.0
  0
ARC
  5
7F8
  8
0
 10
23.280912816406492
 20
5.5945389370193217
 30
0.0
 40
0.0644272333929999
 50
92.133598433132804
 51
176.1895739279673
  0
LINE
  5
7F9
  8
0
 10
23.27851457658949
 20
5.6589215051999986
 30
0.0
 11
23.750794332959408
 21
5.6589215051999986
 31
0.0
  0
LINE
  5
804
  8
0
 10
23.750794332959408
 20
5.6589215051999986
 30
0.0
 11
24.139147510773771
 21
5.6589215051999986
 31
0.0
  0
LINE
  5
805
  8
0
 10
24.537336605498432
 20
5.658924087650651
 30
0.0
 11
24.737367004688529
 21
5.6589189928511292
 31
0.0
  0
ARC
  5
806
  8
0
 10
24.780127291142719
 20
-24.931829761466009
 30
0.0
 40
30.590754347762211
 50
89.974284488337304
 51
90.077149468811513
  0
LINE
  5
807
  8
0
 10
24.793857043673771
 20
5.6589215051999986
 30
0.0
 11
24.906639347156009
 21
5.6682187803597106
 31
0.0
  0
LINE
  5
808
  8
0
 10
24.906486250182979
 20
5.6682063562969001
 30
0.0
 11
25.11885357624465
 21
5.6849341032815639
 31
0.0
  0
LINE
  5
809
  8
0
 10
24.737365584873761
 20
5.6031746767999993
 30
0.0
 11
24.712247373273769
 21
5.3577565701000003
 31
0.0
  0
LINE
  5
80A
  8
0
 10
24.520739253839501
 20
5.6031801942999993
 30
0.0
 11
24.512168663373771
 21
5.3577505931999987
 31
0.0
  0
LINE
  5
80B
  8
0
 10
24.520739253839501
 20
5.6031801942999993
 30
0.0
 11
24.521329806273769
 21
5.6201072129999989
 31
0.0
  0
ARC
  5
80C
  8
0
 10
24.170339752013572
 20
5.6035317984052391
 30
0.0
 40
0.0662530902365492
 50
128.838253526605
 51
180.30884083695369
  0
ARC
  5
80D
  8
0
 10
24.14126504823053
 20
5.6370604560755959
 30
0.0
 40
0.0219633657188587
 50
58.86853768944755
 51
124.60773043765521
  0
ARC
  5
80E
  8
0
 10
24.118623120553949
 20
5.5970250680308551
 30
0.0
 40
0.0679517146427411
 50
1.5140416292929419
 51
59.979351070182432
  0
ARC
  5
80F
  8
0
 10
24.20430323611949
 20
5.6082893050177267
 30
0.0
 40
0.0616208665640844
 50
359.86344581062423
 51
76.651427557948026
  0
LINE
  5
810
  8
0
 10
24.186551111873769
 20
5.5988204838999991
 30
0.0
 11
24.17511011107376
 21
5.3577505931999987
 31
0.0
  0
LINE
  5
811
  8
0
 10
24.104048160973768
 20
5.6031801942999993
 30
0.0
 11
24.092263558573769
 21
5.3577565700000003
 31
0.0
  0
ARC
  5
812
  8
0
 10
24.583139887597358
 20
5.6173283986743847
 30
0.0
 40
0.0618719806733595
 50
113.3006373096879
 51
177.4241481848853
  0
ARC
  5
813
  8
0
 10
24.801079672127791
 20
5.59510596955701
 30
0.0
 40
0.0642229628029271
 50
96.457245713775222
 51
172.7825225623661
  0
LINE
  5
814
  8
0
 10
24.558666071823531
 20
5.6741542232078954
 30
0.0
 11
24.570664746573769
 21
5.6763503641999993
 31
0.0
  0
LINE
  5
815
  8
0
 10
24.570664746573769
 20
5.6763503641999993
 30
0.0
 11
24.579562567873761
 21
5.6796237885999989
 31
0.0
  0
LINE
  5
816
  8
0
 10
24.579562567873761
 20
5.6796237885999989
 30
0.0
 11
24.576182497773772
 21
5.6821703698999988
 31
0.0
  0
LINE
  5
817
  8
0
 10
24.576182497773772
 20
5.6821703698999988
 30
0.0
 11
24.56093496807377
 21
5.6839288190999993
 31
0.0
  0
ARC
  5
818
  8
0
 10
24.520661717002941
 20
2.8176019778906509
 30
0.0
 40
2.8666097563827848
 50
89.195020102521354
 51
96.050045443436389
  0
LINE
  5
819
  8
0
 10
24.139147665873772
 20
5.6589216002000002
 30
0.0
 11
24.218529620773769
 21
5.6682454618999998
 31
0.0
  0
LINE
  5
81A
  8
0
 10
24.265923918173769
 20
5.6081424424000001
 30
0.0
 11
24.272106772273769
 21
5.3577505931999987
 31
0.0
  0
LINE
  5
81B
  8
0
 10
24.77446476507377
 20
5.3577505931999987
 30
0.0
 11
24.7990090877122
 21
5.5988186090362939
 31
0.0
  0
LINE
  5
81C
  8
0
 10
24.7990090877122
 20
5.5988186090362939
 30
0.0
 11
24.794183187373768
 21
5.6556566576999989
 31
0.0
  0
LINE
  5
81D
  8
0
 10
21.597940917649101
 20
5.658924087650651
 30
0.0
 11
21.42517792437377
 21
5.6589196873554002
 31
0.0
  0
LINE
  5
81F
  8
0
 10
21.308579531032429
 20
5.6616401948403992
 30
0.0
 11
21.016415452273201
 21
5.6849358688000438
 31
0.0
  0
LINE
  5
820
  8
0
 10
21.397911938273769
 20
5.6031746767999993
 30
0.0
 11
21.42303014987376
 21
5.3577565701000003
 31
0.0
  0
LINE
  5
821
  8
0
 10
21.614538269308031
 20
5.6031801942999993
 30
0.0
 11
21.623108859773762
 21
5.3577505931999987
 31
0.0
  0
LINE
  5
822
  8
0
 10
21.614538269308031
 20
5.6031801942999993
 30
0.0
 11
21.61394771687376
 21
5.6201072129999989
 31
0.0
  0
ARC
  5
823
  8
0
 10
21.964937771133961
 20
5.6035317984052391
 30
0.0
 40
0.0662530902365492
 50
359.69115916304628
 51
51.161746473394999
  0
ARC
  5
824
  8
0
 10
21.994012474917
 20
5.6370604560755959
 30
0.0
 40
0.0219633657188587
 50
55.392269562344588
 51
121.13146231055249
  0
ARC
  5
825
  8
0
 10
22.016654402593581
 20
5.5970250680308551
 30
0.0
 40
0.0679517146427411
 50
120.0206489298174
 51
178.48595837070701
  0
ARC
  5
826
  8
0
 10
21.93097428702804
 20
5.6082893050177267
 30
0.0
 40
0.0616208665640844
 50
103.348572442052
 51
180.1365541893758
  0
LINE
  5
827
  8
0
 10
21.948726411273771
 20
5.5988204838999991
 30
0.0
 11
21.960167412073758
 21
5.3577505931999987
 31
0.0
  0
LINE
  5
828
  8
0
 10
22.031229362173761
 20
5.6031801942999993
 30
0.0
 11
22.04301396457376
 21
5.3577565700000003
 31
0.0
  0
ARC
  5
829
  8
0
 10
21.552137635550171
 20
5.6173283986743847
 30
0.0
 40
0.0618719806733595
 50
2.5758518151147438
 51
66.699362690312
  0
ARC
  5
82A
  8
0
 10
21.334197851019741
 20
5.59510596955701
 30
0.0
 40
0.0642229628029271
 50
7.2174774376339101
 51
68.701528662121035
  0
LINE
  5
82B
  8
0
 10
21.576611451323998
 20
5.6741542232078954
 30
0.0
 11
21.56461277657376
 21
5.6763503641999993
 31
0.0
  0
LINE
  5
82C
  8
0
 10
21.56461277657376
 20
5.6763503641999993
 30
0.0
 11
21.555714955273771
 21
5.6796237885999989
 31
0.0
  0
LINE
  5
82D
  8
0
 10
21.555714955273771
 20
5.6796237885999989
 30
0.0
 11
21.559095025373761
 21
5.6821703698999988
 31
0.0
  0
LINE
  5
82E
  8
0
 10
21.559095025373761
 20
5.6821703698999988
 30
0.0
 11
21.574342555073759
 21
5.6839288190999993
 31
0.0
  0
ARC
  5
82F
  8
0
 10
21.614615806144592
 20
2.8176019778906509
 30
0.0
 40
2.8666097563827848
 50
83.949954556563625
 51
90.804979897478745
  0
LINE
  5
830
  8
0
 10
21.996129857273768
 20
5.6589216002000002
 30
0.0
 11
21.916747902373761
 21
5.6682454618999998
 31
0.0
  0
LINE
  5
831
  8
0
 10
21.86935360497376
 20
5.6081424424000001
 30
0.0
 11
21.86317075087377
 21
5.3577505931999987
 31
0.0
  0
LINE
  5
832
  8
0
 10
21.360812758073759
 20
5.3577505931999987
 30
0.0
 11
21.336268435435329
 21
5.5988186090362939
 31
0.0
  0
LINE
  5
833
  8
0
 10
21.336268435435329
 20
5.5988186090362939
 30
0.0
 11
21.341038631857689
 21
5.6550005931999987
 31
0.0
  0
LINE
  5
834
  8
0
 10
22.856762987650601
 20
5.6589215051999986
 30
0.0
 11
22.856400304773761
 21
5.6682453336999989
 31
0.0
  0
LINE
  5
835
  8
0
 10
22.856400304773761
 20
5.6682453336999989
 30
0.0
 11
22.86190887097376
 21
5.6722301886000004
 31
0.0
  0
LINE
  5
836
  8
0
 10
22.86190887097376
 20
5.6722301886000004
 30
0.0
 11
22.877954574673758
 21
5.6758332129999989
 31
0.0
  0
ARC
  5
837
  8
0
 10
23.073396161208539
 20
3.5839930603824
 30
0.0
 40
2.1009504129918071
 50
85.773818209994957
 51
95.337675690111254
  0
LINE
  5
838
  8
0
 10
23.228223434406711
 20
5.6792307923174823
 30
0.0
 11
23.257526033273759
 21
5.6758003015999989
 31
0.0
  0
LINE
  5
839
  8
0
 10
23.257526033273759
 20
5.6758003015999989
 30
0.0
 11
23.27341688837377
 21
5.6722134539999987
 31
0.0
  0
LINE
  5
83A
  8
0
 10
23.27341688837377
 20
5.6722134539999987
 30
0.0
 11
23.278877212973761
 21
5.6682453336999989
 31
0.0
  0
LINE
  5
83B
  8
0
 10
23.278877212973761
 20
5.6682453336999989
 30
0.0
 11
23.27851457658949
 21
5.6589215051999986
 31
0.0
  0
LINE
  5
83C
  8
0
 10
23.21662800637376
 20
5.5988204789999987
 30
0.0
 11
23.20826375887377
 21
5.3577505931999987
 31
0.0
  0
LINE
  5
83D
  8
0
 10
20.880138758873759
 20
6.2640005931999996
 30
0.0
 11
25.25513875887377
 21
6.2640005931999996
 31
0.0
  0
LINE
  5
844
  8
0
 10
21.308572128973761
 20
5.6550005931999996
 30
0.0
 11
21.308556975096021
 21
5.672667246901498
 31
0.0
  0
LINE
  5
845
  8
0
 10
21.308556975096021
 20
5.672667246901498
 30
0.0
 11
21.314312380473758
 21
5.672667246901498
 31
0.0
  0
LINE
  5
846
  8
0
 10
21.314312380473758
 20
5.672667246901498
 30
0.0
 11
21.42517792437377
 21
5.6626725148999988
 31
0.0
  0
LINE
  5
847
  8
0
 10
21.42517792437377
 20
5.6626725148999988
 30
0.0
 11
21.42517792437377
 21
5.6550005931999996
 31
0.0
  0
LINE
  5
848
  8
0
 10
21.42517792437377
 20
5.6550005931999996
 30
0.0
 11
21.308572214768141
 21
5.6549005726359214
 31
0.0
  0
LINE
  5
849
  8
0
 10
21.314312380473758
 20
5.672667246901498
 30
0.0
 11
21.314312380473758
 21
5.6550005931999996
 31
0.0
  0
LINE
  5
8CF
  8
0
 10
23.27851457658949
 20
5.6589215051999986
 30
0.0
 11
23.253166643792309
 21
5.3577505931999987
 31
0.0
  0
LINE
  5
8D0
  8
0
 10
22.856763308473759
 20
5.6589215051999986
 30
0.0
 11
22.879021669201471
 21
5.3577505931999978
 31
0.0
  0
ATTDEF
  5
B31
  8
DEFPOINTS
 10
23.064025267128141
 20
4.3447715578468378
 30
0.0
 40
0.001
  1
BRASS
  3

  2
MATERIAL
 70
     0
1001
ACDBATTR
1070
     0
1070
     1
  0
ATTDEF
  5
B32
  8
DEFPOINTS
 10
23.064025267128141
 20
4.34643822451351
 30
0.0
 40
0.001
  1
SHOWER DRAIN
  3

  2
PRODUCT
 70
     0
1001
ACDBATTR
1070
     0
1070
     1
  0
ATTDEF
  5
B33
  8
DEFPOINTS
 10
23.064025267128141
 20
4.3481048911801761
 30
0.0
 40
0.001
  1

  3

  2
TRADENAME
 70
     0
1001
ACDBATTR
1070
     0
1070
     1
  0
ATTDEF
  5
B34
  8
DEFPOINTS
 10
23.064025267128141
 20
4.3497715578468412
 30
0.0
 40
0.001
  1
K-9132
  3

  2
MODELNUMBER
 70
     0
1001
ACDBATTR
1070
     0
1070
     1
  0
LINE
  5
BFE
  8
0
 10
21.477088758873759
 20
5.7790005932000001
 30
0.0
 11
21.477088758873759
 21
5.7640005931999996
 31
0.0
  0
LINE
  5
BFF
  8
0
 10
21.477088758873769
 20
5.8240005932000001
 30
0.0
 11
21.477088758873759
 21
5.8090005932000004
 31
0.0
  0
LINE
  5
C00
  8
0
 10
24.65820735187377
 20
5.8240005932000001
 30
0.0
 11
24.65820735187377
 21
5.8090005932000004
 31
0.0
  0
LINE
  5
C01
  8
0
 10
24.65820735187377
 20
5.7790005932000001
 30
0.0
 11
24.65820735187377
 21
5.7640005931999996
 31
0.0
  0
ENDSEC
  0
EOF
