  0
SECTION
  2
HEADER
  9
$ACADVER
  1
AC1009
  9
$INSBASE
 10
17.489443252623762
 20
4.3577505931999987
 30
0.0
  9
$EXTMIN
 10
15.23943339597376
 20
4.3492147405054187
 30
0.0
  9
$EXTMAX
 10
19.739433395973759
 20
6.2952505931999996
 30
0.0
  9
$LIMMIN
 10
0.0
 20
0.0
  9
$LIMMAX
 10
11.692913385800001
 20
8.2677165353999982
  9
$ORTHOMODE
 70
     0
  9
$REGENMODE
 70
     1
  9
$FILLMODE
 70
     1
  9
$QTEXTMODE
 70
     0
  9
$MIRRTEXT
 70
     0
  9
$DRAGMODE
 70
     2
  9
$LTSCALE
 40
0.6431102362
  9
$OSMODE
 70
  3071
  9
$ATTMODE
 70
     1
  9
$TEXTSIZE
 40
0.2
  9
$TRACEWID
 40
0.05
  9
$TEXTSTYLE
  7
STANDARD
  9
$CLAYER
  8
0
  9
$CELTYPE
  6
BYLAYER
  9
$CECOLOR
 62
   256
  9
$DIMSCALE
 40
1.0
  9
$DIMASZ
 40
0.1875
  9
$DIMEXO
 40
0.0625
  9
$DIMDLI
 40
0.38
  9
$DIMRND
 40
0.0
  9
$DIMDLE
 40
0.0
  9
$DIMEXE
 40
0.125
  9
$DIMTP
 40
1.5
  9
$DIMTM
 40
1.5
  9
$DIMTXT
 40
0.15625
  9
$DIMCEN
 40
0.09
  9
$DIMTSZ
 40
0.0
  9
$DIMTOL
 70
     0
  9
$DIMLIM
 70
     0
  9
$DIMTIH
 70
     1
  9
$DIMTOH
 70
     1
  9
$DIMSE1
 70
     0
  9
$DIMSE2
 70
     0
  9
$DIMTAD
 70
     0
  9
$DIMZIN
 70
     4
  9
$DIMBLK
  1

  9
$DIMASO
 70
     1
  9
$DIMSHO
 70
     1
  9
$DIMPOST
  1
\X
  9
$DIMAPOST
  1

  9
$DIMALT
 70
     1
  9
$DIMALTD
 70
     2
  9
$DIMALTF
 40
25.399999999999999
  9
$DIMLFAC
 40
1.0
  9
$DIMTOFL
 70
     0
  9
$DIMTVP
 40
0.0
  9
$DIMTIX
 70
     0
  9
$DIMSOXD
 70
     0
  9
$DIMSAH
 70
     0
  9
$DIMBLK1
  1

  9
$DIMBLK2
  1

  9
$DIMSTYLE
  2
STANDARD
  9
$DIMCLRD
 70
     0
  9
$DIMCLRE
 70
     0
  9
$DIMCLRT
 70
     0
  9
$DIMTFAC
 40
1.0
  9
$DIMGAP
 40
0.09
  9
$LUNITS
 70
     2
  9
$LUPREC
 70
     4
  9
$SKETCHINC
 40
0.1
  9
$FILLETRAD
 40
0.0
  9
$AUNITS
 70
     0
  9
$AUPREC
 70
     0
  9
$MENU
  1
.
  9
$ELEVATION
 40
0.0
  9
$PELEVATION
 40
0.0
  9
$THICKNESS
 40
0.0
  9
$LIMCHECK
 70
     0
  9
$BLIPMODE
 70
     0
  9
$CHAMFERA
 40
0.0
  9
$CHAMFERB
 40
0.0
  9
$SKPOLY
 70
     0
  9
$TDCREATE
 40
2457735.4571278361
  9
$TDUPDATE
 40
2457736.7831770722
  9
$TDINDWG
 40
0.023221088
  9
$TDUSRTIMER
 40
0.023221088
  9
$USRTIMER
 70
     1
  9
$ANGBASE
 50
0.0
  9
$ANGDIR
 70
     0
  9
$PDMODE
 70
     0
  9
$PDSIZE
 40
0.3125
  9
$PLINEWID
 40
0.0
  9
$COORDS
 70
     1
  9
$SPLFRAME
 70
     0
  9
$SPLINETYPE
 70
     6
  9
$SPLINESEGS
 70
     8
  9
$ATTDIA
 70
     1
  9
$ATTREQ
 70
     1
  9
$HANDLING
 70
     1
  9
$HANDSEED
  5
B46
  9
$SURFTAB1
 70
     6
  9
$SURFTAB2
 70
     6
  9
$SURFTYPE
 70
     6
  9
$SURFU
 70
     6
  9
$SURFV
 70
     6
  9
$UCSNAME
  2

  9
$UCSORG
 10
0.0
 20
0.0
 30
0.0
  9
$UCSXDIR
 10
1.0
 20
0.0
 30
0.0
  9
$UCSYDIR
 10
0.0
 20
1.0
 30
0.0
  9
$PUCSNAME
  2

  9
$PUCSORG
 10
0.0
 20
0.0
 30
0.0
  9
$PUCSXDIR
 10
1.0
 20
0.0
 30
0.0
  9
$PUCSYDIR
 10
0.0
 20
1.0
 30
0.0
  9
$USERI1
 70
     0
  9
$USERI2
 70
     0
  9
$USERI3
 70
     0
  9
$USERI4
 70
     0
  9
$USERI5
 70
     0
  9
$USERR1
 40
0.0
  9
$USERR2
 40
0.0
  9
$USERR3
 40
0.0
  9
$USERR4
 40
0.0
  9
$USERR5
 40
0.0
  9
$WORLDVIEW
 70
     1
  9
$SHADEDGE
 70
     3
  9
$SHADEDIF
 70
    70
  9
$TILEMODE
 70
     1
  9
$MAXACTVP
 70
    48
  9
$PLIMCHECK
 70
     0
  9
$PEXTMIN
 10
1.0000000000000000E+020
 20
1.0000000000000000E+020
 30
1.0000000000000000E+020
  9
$PEXTMAX
 10
-1.0000000000000000E+020
 20
-1.0000000000000000E+020
 30
-1.0000000000000000E+020
  9
$PLIMMIN
 10
0.0
 20
0.0
  9
$PLIMMAX
 10
12.0
 20
9.0
  9
$UNITMODE
 70
     0
  9
$VISRETAIN
 70
     1
  9
$PLINEGEN
 70
     0
  9
$PSLTSCALE
 70
     1
  0
ENDSEC
  0
SECTION
  2
TABLES
  0
TABLE
  2
VPORT
 70
     1
  0
VPORT
  2
*ACTIVE
 70
     0
 10
0.0
 20
0.0
 11
1.0
 21
1.0
 12
0.0
 22
0.0
 13
0.0
 23
0.0
 14
1.0
 24
1.0
 15
0.0
 25
0.0
 16
-0.0000000000000036
 26
0.0
 36
11.479310034707749
 17
17.489433395973759
 27
5.3265005931999996
 37
0.0
 40
4.8993781493165018
 41
1.642297650130548
 42
50.0
 43
0.0
 44
0.0
 50
0.0
 51
0.0
 71
     0
 72
   100
 73
     1
 74
     1
 75
     0
 76
     0
 77
     0
 78
     0
  0
ENDTAB
  0
TABLE
  2
LTYPE
 70
     2
  0
LTYPE
  2
CONTINUOUS
 70
     0
  3
Solid line
 72
    65
 73
     0
 40
0.0
  0
LTYPE
  2
PHANTOM2
 70
     0
  3
___ _ _ ___ _ _ ___ _ _ ___ _ _
 72
    65
 73
     6
 40
1.25
 49
0.625
 49
-0.125
 49
0.125
 49
-0.125
 49
0.125
 49
-0.125
  0
ENDTAB
  0
TABLE
  2
LAYER
 70
     2
  0
LAYER
  2
0
 70
     0
 62
     7
  6
CONTINUOUS
  0
LAYER
  2
DEFPOINTS
 70
     0
 62
     7
  6
CONTINUOUS
  0
ENDTAB
  0
TABLE
  2
STYLE
 70
     1
  0
STYLE
  2
STANDARD
 70
     0
 40
0.0
 41
0.8
 50
0.0
 71
     0
 42
0.2
  3
txt
  4

  0
ENDTAB
  0
TABLE
  2
VIEW
 70
     0
  0
ENDTAB
  0
TABLE
  2
UCS
 70
     0
  0
ENDTAB
  0
TABLE
  2
APPID
 70
     7
  0
APPID
  2
ACAD
 70
     0
  0
APPID
  2
ACAD_MLEADERVER
 70
     0
  0
APPID
  2
ACAD_NAV_VCDISPLAY
 70
     0
  0
APPID
  2
ACAD_DSTYLE_DIMJAG
 70
     0
  0
APPID
  2
ACAD_DSTYLE_DIMTALN
 70
     0
  0
APPID
  2
ACAD_EXEMPT_FROM_CAD_STANDARDS
 70
     0
  0
APPID
  2
ACDBATTR
 70
     0
  0
ENDTAB
  0
TABLE
  2
DIMSTYLE
 70
     1
  0
DIMSTYLE
  2
STANDARD
 70
     0
  3
\X
  4

  5

  6

  7

 40
1.0
 41
0.1875
 42
0.0625
 43
0.38
 44
0.125
 45
0.0
 46
0.0
 47
1.5
 48
1.5
140
0.15625
141
0.09
142
0.0
143
25.399999999999999
144
1.0
145
0.0
146
1.0
147
0.09
 71
     0
 72
     0
 73
     1
 74
     1
 75
     0
 76
     0
 77
     0
 78
     4
170
     1
171
     2
172
     0
173
     0
174
     0
175
     0
176
     0
177
     0
178
     0
  0
ENDTAB
  0
ENDSEC
  0
SECTION
  2
BLOCKS
  0
BLOCK
  8
0
  2
$MODEL_SPACE
 70
     0
 10
0.0
 20
0.0
 30
0.0
  3
$MODEL_SPACE
  1

  0
ENDBLK
  5
21
  8
0
  0
BLOCK
 67
     1
  8
0
  2
$PAPER_SPACE
 70
     0
 10
0.0
 20
0.0
 30
0.0
  3
$PAPER_SPACE
  1

  0
ENDBLK
  5
1D
 67
     1
  8
0
  0
ENDSEC
  0
SECTION
  2
ENTITIES
  0
LINE
  5
6F8
  8
0
 10
15.30193339597376
 20
6.2952505931999996
 30
0.0
 11
15.30193339597376
 21
6.2640005931999996
 31
0.0
  0
LINE
  5
6F9
  8
0
 10
15.30193339597376
 20
6.2640005931999996
 30
0.0
 11
15.84830895817368
 21
6.1577959425000159
 31
0.0
  0
ARC
  5
6FA
  8
0
 10
15.8363833961191
 20
6.0964442436521802
 30
0.0
 40
0.0624999998546659
 50
359.99999995216439
 51
79.000000120214921
  0
LINE
  5
6FB
  8
0
 10
15.89888339597376
 20
6.0964442435999988
 30
0.0
 11
15.898883395973771
 21
5.949000593200001
 31
0.0
  0
LINE
  5
6FC
  8
0
 10
15.23943339597376
 20
5.9490005932000001
 30
0.0
 11
15.23945197767377
 21
5.8240005932000001
 31
0.0
  0
LINE
  5
6FD
  8
0
 10
15.23945197767377
 20
5.9490005932000001
 30
0.0
 11
19.739414814273761
 21
5.9490005932000001
 31
0.0
  0
LINE
  5
6FF
  8
0
 10
19.739414814273761
 20
5.8240005932000001
 30
0.0
 11
15.23945197767377
 21
5.8240005932000001
 31
0.0
  0
LINE
  5
700
  8
0
 10
15.23945197597377
 20
5.7790005932000001
 30
0.0
 11
15.23943339597376
 21
5.8090005932000004
 31
0.0
  0
LINE
  5
701
  8
0
 10
15.23943339597376
 20
5.8090005932000004
 30
0.0
 11
19.739414815873761
 21
5.8090005932000004
 31
0.0
  0
LINE
  5
702
  8
0
 10
19.739414815873761
 20
5.8090005932000004
 30
0.0
 11
19.739414815873761
 21
5.7790005932000001
 31
0.0
  0
LINE
  5
703
  8
0
 10
19.739414815873761
 20
5.7790005932000001
 30
0.0
 11
15.23943339597376
 21
5.7790005932000001
 31
0.0
  0
LINE
  5
705
  8
0
 10
15.23943339597376
 20
5.7640005931999996
 30
0.0
 11
15.23943339597376
 21
5.7590088983000003
 31
0.0
  0
LINE
  5
706
  8
0
 10
15.239451994073759
 20
5.7640005931999996
 30
0.0
 11
19.739414797773762
 21
5.7640005931999996
 31
0.0
  0
LINE
  5
707
  8
0
 10
19.739414797773762
 20
5.7640005931999996
 30
0.0
 11
19.739414797773762
 21
5.7590088983000003
 31
0.0
  0
ARC
  5
708
  8
0
 10
15.30193339599349
 20
5.7590088983076946
 30
0.0
 40
0.0625000000197278
 50
180.00000000705441
 51
265.23635386865482
  0
LINE
  5
709
  8
0
 10
15.29674305347376
 20
5.6967247884000001
 30
0.0
 11
15.438218840973761
 21
5.6849351395000003
 31
0.0
  0
ARC
  5
70A
  8
0
 10
15.430350808005601
 20
5.620107756362076
 30
0.0
 40
0.065302044907469
 50
4.149465544823971
 51
83.080035166420217
  0
LINE
  5
70B
  8
0
 10
15.504809201873771
 20
5.3577505931999987
 30
0.0
 11
15.495477458743011
 21
5.624890687767035
 31
0.0
  0
LINE
  5
70C
  8
0
 10
15.29674305347376
 20
5.6967247884000001
 30
0.0
 11
19.682123738465489
 21
5.6967247883993091
 31
0.0
  0
LINE
  5
716
  8
0
 10
19.676933395973759
 20
6.2952505931999996
 30
0.0
 11
19.676933395973759
 21
6.2640005931999996
 31
0.0
  0
LINE
  5
717
  8
0
 10
19.676933395973759
 20
6.2640005931999996
 30
0.0
 11
19.13055783377386
 21
6.1577959425000159
 31
0.0
  0
ARC
  5
718
  8
0
 10
19.142483395828432
 20
6.0964442436521802
 30
0.0
 40
0.0624999998546659
 50
100.99999987978499
 51
180.0000000478355
  0
LINE
  5
719
  8
0
 10
19.079983395973759
 20
6.0964442435999988
 30
0.0
 11
19.079983395973759
 21
5.949000593200001
 31
0.0
  0
LINE
  5
71A
  8
0
 10
19.739433395973759
 20
5.9490005932000001
 30
0.0
 11
19.739414814273761
 21
5.8240005932000001
 31
0.0
  0
LINE
  5
71B
  8
0
 10
19.73941481597377
 20
5.7790005932000001
 30
0.0
 11
19.739433395973759
 21
5.8090005932000004
 31
0.0
  0
LINE
  5
71C
  8
0
 10
19.739433395973759
 20
5.7640005931999996
 30
0.0
 11
19.739433395973759
 21
5.7590088983000003
 31
0.0
  0
ARC
  5
71D
  8
0
 10
19.676933395954041
 20
5.7590088983076946
 30
0.0
 40
0.0625000000197278
 50
274.76364613134518
 51
359.99999999294562
  0
LINE
  5
71E
  8
0
 10
19.682123738473759
 20
5.6967247884000001
 30
0.0
 11
19.540647950973771
 21
5.6849351395000003
 31
0.0
  0
ARC
  5
71F
  8
0
 10
19.548515983941929
 20
5.620107756362076
 30
0.0
 40
0.065302044907469
 50
96.919964833579769
 51
175.85053445517599
  0
LINE
  5
720
  8
0
 10
19.474057590073759
 20
5.3577505931999987
 30
0.0
 11
19.483389333204521
 21
5.624890687767035
 31
0.0
  0
LINE
  5
721
  8
0
 10
15.504809201873771
 20
5.3577505931999987
 30
0.0
 11
19.474057590073759
 21
5.3577505931999987
 31
0.0
  0
LINE
  5
722
  8
0
 10
15.898883395973771
 20
5.3577505931999987
 30
0.0
 11
15.898883395973771
 21
4.424863093199999
 31
0.0
  0
LINE
  5
723
  8
0
 10
15.898883395973771
 20
4.424863093199999
 30
0.0
 11
15.966015609273761
 21
4.3577505931999987
 31
0.0
  0
LINE
  5
724
  8
0
 10
15.966015609273761
 20
4.3577505931999987
 30
0.0
 11
19.012870895973759
 21
4.3577505931999987
 31
0.0
  0
LINE
  5
725
  8
0
 10
19.079983395873771
 20
5.3577505931999987
 30
0.0
 11
19.079983395873771
 21
4.424863093199999
 31
0.0
  0
LINE
  5
726
  8
0
 10
19.079983395873771
 20
4.424863093199999
 30
0.0
 11
19.012851182573769
 21
4.3577505931999987
 31
0.0
  0
LINE
  5
727
  8
0
 10
15.301951988973761
 20
6.2952505931999996
 30
0.0
 11
19.676933395973759
 21
6.2952505931999996
 31
0.0
  0
ARC
  5
728
  8
0
 10
17.27615933824104
 20
5.5945389370193217
 30
0.0
 40
0.0644272333929999
 50
3.810426072032691
 51
87.866401566867196
  0
LINE
  5
72B
  8
0
 10
17.339282540308449
 20
5.6074358266999109
 30
0.0
 11
17.34503827117376
 21
5.612636844699999
 31
0.0
  0
ARC
  5
72C
  8
0
 10
17.477247262571279
 20
4.7833103216607187
 30
0.0
 40
0.841610885130456
 50
89.170354638391927
 51
98.022561933591518
  0
LINE
  5
72D
  8
0
 10
17.34503827117376
 20
5.612636844699999
 30
0.0
 11
17.359789490673759
 21
5.6166845195999997
 31
0.0
  0
LINE
  5
72E
  8
0
 10
17.638405367658031
 20
5.6085011001509404
 30
0.0
 11
17.633828526633501
 21
5.612636844699999
 31
0.0
  0
ARC
  5
72F
  8
0
 10
17.501619535235982
 20
4.7833103216607187
 30
0.0
 40
0.841610885130456
 50
81.977438066408496
 51
90.829645361608058
  0
LINE
  5
730
  8
0
 10
17.633828526633501
 20
5.612636844699999
 30
0.0
 11
17.619077307133502
 21
5.6166845195999997
 31
0.0
  0
LINE
  5
731
  8
0
 10
17.278557624750601
 20
5.6589215051999986
 30
0.0
 11
16.417924644073771
 21
5.6589215051999986
 31
0.0
  0
LINE
  5
732
  8
0
 10
17.340444148273761
 20
5.5988204789999987
 30
0.0
 11
17.348808395973759
 21
5.3577505931999987
 31
0.0
  0
ARC
  5
733
  8
0
 10
17.702707453506491
 20
5.5945389370193217
 30
0.0
 40
0.0644272333929999
 50
92.133598433132804
 51
176.1895739279673
  0
LINE
  5
734
  8
0
 10
17.70030921368949
 20
5.6589215051999986
 30
0.0
 11
18.172140639273771
 21
5.6588339265499998
 31
0.0
  0
LINE
  5
735
  8
0
 10
18.172140639273771
 20
5.6550005931999996
 30
0.0
 11
18.172140639273771
 21
5.6626672599000001
 31
0.0
  0
LINE
  5
736
  8
0
 10
18.172140639273771
 20
5.6626672599000001
 30
0.0
 11
18.189548495973771
 21
5.6664580033999998
 31
0.0
  0
LINE
  5
737
  8
0
 10
18.189548495973771
 20
5.6550005931999996
 30
0.0
 11
18.189548495973771
 21
5.6694807952000001
 31
0.0
  0
LINE
  5
738
  8
0
 10
18.189548495973771
 20
5.6694807952000001
 30
0.0
 11
18.197365010373758
 21
5.671182868799999
 31
0.0
  0
LINE
  5
739
  8
0
 10
18.197365010373758
 20
5.671182868799999
 30
0.0
 11
18.218062651173771
 21
5.672667259899999
 31
0.0
  0
LINE
  5
73A
  8
0
 10
18.218062651173771
 20
5.672667259899999
 30
0.0
 11
18.231920844173761
 21
5.6726721836999996
 31
0.0
  0
LINE
  5
73B
  8
0
 10
18.231920844173761
 20
5.6726721836999996
 30
0.0
 11
18.231920844173761
 21
5.6550005931999996
 31
0.0
  0
LINE
  5
73C
  8
0
 10
18.231920844173761
 20
5.6550005931999996
 30
0.0
 11
18.172140639273771
 21
5.6550005931999996
 31
0.0
  0
LINE
  5
73D
  8
0
 10
18.197365010373758
 20
5.671182868799999
 30
0.0
 11
18.197365010373758
 21
5.6550005931999996
 31
0.0
  0
LINE
  5
73E
  8
0
 10
18.218062651173771
 20
5.672667259899999
 30
0.0
 11
18.218062651173771
 21
5.6550005931999996
 31
0.0
  0
LINE
  5
73F
  8
0
 10
18.231920844173761
 20
5.6589215051999986
 30
0.0
 11
18.560942147873771
 21
5.6589215051999986
 31
0.0
  0
LINE
  5
78B
  8
0
 10
19.159160221973771
 20
5.6031746767999993
 30
0.0
 11
19.134042010373769
 21
5.3577565701000003
 31
0.0
  0
LINE
  5
78C
  8
0
 10
18.942533890939501
 20
5.6031801942999993
 30
0.0
 11
18.933963300473771
 21
5.3577505931999987
 31
0.0
  0
LINE
  5
78D
  8
0
 10
18.942533890939501
 20
5.6031801942999993
 30
0.0
 11
18.943124443373769
 21
5.6201072129999989
 31
0.0
  0
ARC
  5
791
  8
0
 10
18.592134389113571
 20
5.6035317984052391
 30
0.0
 40
0.0662530902365492
 50
128.838253526605
 51
180.30884083695369
  0
ARC
  5
792
  8
0
 10
18.563059685330529
 20
5.6370604560755959
 30
0.0
 40
0.0219633657188587
 50
58.868537689447457
 51
124.60773043765541
  0
ARC
  5
793
  8
0
 10
18.540417757653952
 20
5.5970250680308551
 30
0.0
 40
0.0679517146427411
 50
1.5140416292929419
 51
59.979351070182517
  0
LINE
  5
795
  8
0
 10
18.608345748973768
 20
5.5988204838999991
 30
0.0
 11
18.59690474817377
 21
5.3577505931999987
 31
0.0
  0
LINE
  5
796
  8
0
 10
18.525842798073771
 20
5.6031801942999993
 30
0.0
 11
18.514058195673769
 21
5.3577565700000003
 31
0.0
  0
LINE
  5
797
  8
0
 10
18.959131242598431
 20
5.658924087650651
 30
0.0
 11
19.159161641788529
 21
5.6589189928511292
 31
0.0
  0
ARC
  5
798
  8
0
 10
19.201921928242719
 20
-24.931829761466009
 30
0.0
 40
30.590754347762211
 50
89.974284488337403
 51
90.077149468811513
  0
LINE
  5
799
  8
0
 10
19.215651680773771
 20
5.6589215051999986
 30
0.0
 11
19.328433984256009
 21
5.6682187803597106
 31
0.0
  0
LINE
  5
79A
  8
0
 10
19.328280887282979
 20
5.6682063562969001
 30
0.0
 11
19.54064821334465
 21
5.6849341032815639
 31
0.0
  0
ARC
  5
79B
  8
0
 10
19.004934524697362
 20
5.6173283986743847
 30
0.0
 40
0.0618719806733595
 50
113.300637309688
 51
177.4241481848853
  0
ARC
  5
79C
  8
0
 10
19.222874309227791
 20
5.59510596955701
 30
0.0
 40
0.0642229628029271
 50
96.457245713775222
 51
172.7825225623661
  0
LINE
  5
79D
  8
0
 10
18.98046070892353
 20
5.6741542232078954
 30
0.0
 11
18.992459383673769
 21
5.6763503641999993
 31
0.0
  0
LINE
  5
79E
  8
0
 10
18.992459383673769
 20
5.6763503641999993
 30
0.0
 11
19.001357204973761
 21
5.6796237885999989
 31
0.0
  0
LINE
  5
79F
  8
0
 10
19.001357204973761
 20
5.6796237885999989
 30
0.0
 11
18.997977134873761
 21
5.6821703698999988
 31
0.0
  0
LINE
  5
7A0
  8
0
 10
18.997977134873761
 20
5.6821703698999988
 30
0.0
 11
18.982729605173759
 21
5.6839288190999993
 31
0.0
  0
ARC
  5
7A1
  8
0
 10
18.942456354102941
 20
2.8176019778906509
 30
0.0
 40
2.8666097563827848
 50
89.195020102521255
 51
96.050045443436389
  0
LINE
  5
7A2
  8
0
 10
18.560942302973771
 20
5.6589216002000002
 30
0.0
 11
18.640324257873768
 21
5.6682454618999998
 31
0.0
  0
ARC
  5
7A3
  8
0
 10
18.626097873219489
 20
5.6082893050177267
 30
0.0
 40
0.0616208665640844
 50
359.86344581062423
 51
76.651427557948026
  0
LINE
  5
7A4
  8
0
 10
18.687718555273761
 20
5.6081424424000001
 30
0.0
 11
18.693901409373758
 21
5.3577505931999987
 31
0.0
  0
LINE
  5
7A5
  8
0
 10
19.196259402173759
 20
5.3577505931999987
 30
0.0
 11
19.2208037248122
 21
5.5988186090362939
 31
0.0
  0
LINE
  5
7A6
  8
0
 10
19.2208037248122
 20
5.5988186090362939
 30
0.0
 11
19.215977824473772
 21
5.6556566576999989
 31
0.0
  0
LINE
  5
7A7
  8
0
 10
16.019735554749101
 20
5.658924087650651
 30
0.0
 11
15.819705155558999
 21
5.6589189928511292
 31
0.0
  0
ARC
  5
7A8
  8
0
 10
15.77694486910481
 20
-24.931829761466009
 30
0.0
 40
30.590754347762211
 50
89.922850531188473
 51
90.025715511662597
  0
LINE
  5
7A9
  8
0
 10
15.763215116573759
 20
5.6589215051999986
 30
0.0
 11
15.438212013373761
 21
5.6849357655999988
 31
0.0
  0
LINE
  5
7AA
  8
0
 10
15.819706575373759
 20
5.6031746767999993
 30
0.0
 11
15.84482478697376
 21
5.3577565701000003
 31
0.0
  0
LINE
  5
7AB
  8
0
 10
16.036332906408031
 20
5.6031801942999993
 30
0.0
 11
16.044903496873761
 21
5.3577505931999987
 31
0.0
  0
LINE
  5
7AC
  8
0
 10
16.036332906408031
 20
5.6031801942999993
 30
0.0
 11
16.03574235397377
 21
5.6201072129999989
 31
0.0
  0
ARC
  5
7AD
  8
0
 10
16.386732408233961
 20
5.6035317984052391
 30
0.0
 40
0.0662530902365492
 50
359.69115916304628
 51
51.161746473394999
  0
ARC
  5
7AE
  8
0
 10
16.415807112016999
 20
5.6370604560755959
 30
0.0
 40
0.0219633657188587
 50
55.392269562344609
 51
121.13146231055249
  0
ARC
  5
7AF
  8
0
 10
16.43844903969358
 20
5.5970250680308551
 30
0.0
 40
0.0679517146427411
 50
120.0206489298174
 51
178.48595837070701
  0
ARC
  5
7B0
  8
0
 10
16.352768924128039
 20
5.6082893050177267
 30
0.0
 40
0.0616208665640844
 50
103.348572442052
 51
180.1365541893758
  0
LINE
  5
7B1
  8
0
 10
16.37052104837376
 20
5.5988204838999991
 30
0.0
 11
16.381962049173762
 21
5.3577505931999987
 31
0.0
  0
LINE
  5
7B2
  8
0
 10
16.453023999273761
 20
5.6031801942999993
 30
0.0
 11
16.46480860167377
 21
5.3577565700000003
 31
0.0
  0
ARC
  5
7B3
  8
0
 10
15.97393227265017
 20
5.6173283986743847
 30
0.0
 40
0.0618719806733595
 50
2.5758518151147451
 51
66.699362690312
  0
ARC
  5
7B4
  8
0
 10
15.755992488119739
 20
5.59510596955701
 30
0.0
 40
0.0642229628029271
 50
7.2174774376339128
 51
83.542754286224763
  0
LINE
  5
7B5
  8
0
 10
15.998406088424
 20
5.6741542232078954
 30
0.0
 11
15.98640741367376
 21
5.6763503641999993
 31
0.0
  0
LINE
  5
7B6
  8
0
 10
15.98640741367376
 20
5.6763503641999993
 30
0.0
 11
15.97750959237376
 21
5.6796237885999989
 31
0.0
  0
LINE
  5
7B7
  8
0
 10
15.97750959237376
 20
5.6796237885999989
 30
0.0
 11
15.980889662473761
 21
5.6821703698999988
 31
0.0
  0
LINE
  5
7B8
  8
0
 10
15.980889662473761
 20
5.6821703698999988
 30
0.0
 11
15.996137192173761
 21
5.6839288190999993
 31
0.0
  0
ARC
  5
7B9
  8
0
 10
16.036410443244591
 20
2.8176019778906509
 30
0.0
 40
2.8666097563827848
 50
83.949954556563625
 51
90.804979897478745
  0
LINE
  5
7BA
  8
0
 10
16.417924494373761
 20
5.6589216002000002
 30
0.0
 11
16.33854253947376
 21
5.6682454618999998
 31
0.0
  0
LINE
  5
7BB
  8
0
 10
16.29114824207376
 20
5.6081424424000001
 30
0.0
 11
16.284965387973759
 21
5.3577505931999987
 31
0.0
  0
LINE
  5
7BC
  8
0
 10
15.782607395173761
 20
5.3577505931999987
 30
0.0
 11
15.758063072535331
 21
5.5988186090362939
 31
0.0
  0
LINE
  5
7BD
  8
0
 10
15.758063072535331
 20
5.5988186090362939
 30
0.0
 11
15.76288897287376
 21
5.6556566576999989
 31
0.0
  0
LINE
  5
7BE
  8
0
 10
17.278557624750601
 20
5.6589215051999986
 30
0.0
 11
17.278194941873771
 21
5.6682453336999989
 31
0.0
  0
LINE
  5
7C0
  8
0
 10
17.278194941873771
 20
5.6682453336999989
 30
0.0
 11
17.283703508073771
 21
5.6722301886000004
 31
0.0
  0
LINE
  5
7C1
  8
0
 10
17.283703508073771
 20
5.6722301886000004
 30
0.0
 11
17.299749211773761
 21
5.6758332129999989
 31
0.0
  0
ARC
  5
7C2
  8
0
 10
17.495190798308531
 20
3.5839930603824
 30
0.0
 40
2.1009504129918071
 50
85.773818209994957
 51
95.337675690111254
  0
LINE
  5
7C3
  8
0
 10
17.650018071506711
 20
5.6792307923174823
 30
0.0
 11
17.679320670373759
 21
5.6758003015999989
 31
0.0
  0
LINE
  5
7C4
  8
0
 10
17.679320670373759
 20
5.6758003015999989
 30
0.0
 11
17.695211525473759
 21
5.6722134539999987
 31
0.0
  0
LINE
  5
7C5
  8
0
 10
17.695211525473759
 20
5.6722134539999987
 30
0.0
 11
17.700671850073771
 21
5.6682453336999989
 31
0.0
  0
LINE
  5
7C6
  8
0
 10
17.700671850073771
 20
5.6682453336999989
 30
0.0
 11
17.70030921368949
 21
5.6589215051999986
 31
0.0
  0
LINE
  5
7C7
  8
0
 10
17.638422643473771
 20
5.5988204789999987
 30
0.0
 11
17.630058395973759
 21
5.3577505931999987
 31
0.0
  0
LINE
  5
8CC
  8
0
 10
17.70030921368949
 20
5.6589215051999986
 30
0.0
 11
17.674961280892308
 21
5.3577505931999987
 31
0.0
  0
LINE
  5
8CD
  8
0
 10
17.278557945573759
 20
5.6589215051999986
 30
0.0
 11
17.300816306301481
 21
5.3577505931999978
 31
0.0
  0
ATTDEF
  5
A30
  8
DEFPOINTS
 10
17.485653259944009
 20
4.3492147405054187
 30
0.0
 40
0.001
  1
BRASS
  3

  2
MATERIAL
 70
     0
1001
ACDBATTR
1070
     0
1070
     1
  0
ATTDEF
  5
A31
  8
DEFPOINTS
 10
17.485653259944009
 20
4.3508814071720909
 30
0.0
 40
0.001
  1
SHOWER DRAIN
  3

  2
PRODUCT
 70
     0
1001
ACDBATTR
1070
     0
1070
     1
  0
ATTDEF
  5
A32
  8
DEFPOINTS
 10
17.485653259944009
 20
4.3525480738387561
 30
0.0
 40
0.001
  1

  3

  2
TRADENAME
 70
     0
1001
ACDBATTR
1070
     0
1070
     1
  0
ATTDEF
  5
A33
  8
DEFPOINTS
 10
17.485653259944009
 20
4.3542147405054221
 30
0.0
 40
0.001
  1
K-9132
  3

  2
MODELNUMBER
 70
     0
1001
ACDBATTR
1070
     0
1070
     1
  0
LINE
  5
ABB
  8
0
 10
19.079983395973759
 20
5.7790005932000001
 30
0.0
 11
19.079983395973759
 21
5.7640005931999996
 31
0.0
  0
LINE
  5
ABC
  8
0
 10
19.079983395973759
 20
5.8240005932000001
 30
0.0
 11
19.079983395973759
 21
5.8090005932000004
 31
0.0
  0
LINE
  5
ABD
  8
0
 10
15.898883395973771
 20
5.7790005932000001
 30
0.0
 11
15.89888339597376
 21
5.7640005931999996
 31
0.0
  0
LINE
  5
ABE
  8
0
 10
15.898883395973771
 20
5.8240005932000001
 30
0.0
 11
15.898883395973771
 21
5.8090005932000004
 31
0.0
  0
LINE
  5
AC2
  8
0
 10
15.30193339597376
 20
6.2640005931999996
 30
0.0
 11
19.676933395973759
 21
6.2640005931999996
 31
0.0
  0
ENDSEC
  0
EOF
