  0
SECTION
  2
HEADER
  9
$ACADVER
  1
AC1009
  9
$INSBASE
 10
-1.996155659700001
 20
7.2637918669000001
 30
0.0
  9
$EXTMIN
 10
-3.111155659700001
 20
-10.83558472368416
 30
0.0
  9
$EXTMAX
 10
8.4700760981999998
 20
22.378791866899999
 30
0.0
  9
$LIMMIN
 10
0.0
 20
0.0
  9
$LIMMAX
 10
11.692913385800001
 20
8.2677165353999982
  9
$ORTHOMODE
 70
     1
  9
$REGENMODE
 70
     1
  9
$FILLMODE
 70
     1
  9
$QTEXTMODE
 70
     0
  9
$MIRRTEXT
 70
     0
  9
$DRAGMODE
 70
     2
  9
$LTSCALE
 40
0.6431102362
  9
$OSMODE
 70
    39
  9
$ATTMODE
 70
     1
  9
$TEXTSIZE
 40
0.2
  9
$TRACEWID
 40
0.05
  9
$TEXTSTYLE
  7
STANDARD
  9
$CLAYER
  8
0
  9
$CELTYPE
  6
BYLAYER
  9
$CECOLOR
 62
   256
  9
$DIMSCALE
 40
1.0
  9
$DIMASZ
 40
0.1875
  9
$DIMEXO
 40
0.0625
  9
$DIMDLI
 40
0.4443307087
  9
$DIMRND
 40
0.0
  9
$DIMDLE
 40
0.0
  9
$DIMEXE
 40
0.125
  9
$DIMTP
 40
0.01
  9
$DIMTM
 40
0.01
  9
$DIMTXT
 40
0.15625
  9
$DIMCEN
 40
0.1052362205
  9
$DIMTSZ
 40
0.0
  9
$DIMTOL
 70
     1
  9
$DIMLIM
 70
     0
  9
$DIMTIH
 70
     1
  9
$DIMTOH
 70
     1
  9
$DIMSE1
 70
     0
  9
$DIMSE2
 70
     0
  9
$DIMTAD
 70
     0
  9
$DIMZIN
 70
     0
  9
$DIMBLK
  1

  9
$DIMASO
 70
     1
  9
$DIMSHO
 70
     1
  9
$DIMPOST
  1

  9
$DIMAPOST
  1

  9
$DIMALT
 70
     0
  9
$DIMALTD
 70
     2
  9
$DIMALTF
 40
25.399999999999999
  9
$DIMLFAC
 40
1.0
  9
$DIMTOFL
 70
     0
  9
$DIMTVP
 40
0.0
  9
$DIMTIX
 70
     0
  9
$DIMSOXD
 70
     0
  9
$DIMSAH
 70
     0
  9
$DIMBLK1
  1

  9
$DIMBLK2
  1

  9
$DIMSTYLE
  2
STANDARD
  9
$DIMCLRD
 70
     0
  9
$DIMCLRE
 70
     0
  9
$DIMCLRT
 70
     0
  9
$DIMTFAC
 40
1.0
  9
$DIMGAP
 40
0.09
  9
$LUNITS
 70
     2
  9
$LUPREC
 70
     4
  9
$SKETCHINC
 40
0.1
  9
$FILLETRAD
 40
0.0
  9
$AUNITS
 70
     0
  9
$AUPREC
 70
     0
  9
$MENU
  1
.
  9
$ELEVATION
 40
0.0
  9
$PELEVATION
 40
0.0
  9
$THICKNESS
 40
0.0
  9
$LIMCHECK
 70
     0
  9
$BLIPMODE
 70
     0
  9
$CHAMFERA
 40
0.0
  9
$CHAMFERB
 40
0.0
  9
$SKPOLY
 70
     0
  9
$TDCREATE
 40
2457639.5714892019
  9
$TDUPDATE
 40
2457644.7236919212
  9
$TDINDWG
 40
0.2551581597
  9
$TDUSRTIMER
 40
0.2551581597
  9
$USRTIMER
 70
     1
  9
$ANGBASE
 50
0.0
  9
$ANGDIR
 70
     0
  9
$PDMODE
 70
     0
  9
$PDSIZE
 40
0.3125
  9
$PLINEWID
 40
0.0
  9
$COORDS
 70
     1
  9
$SPLFRAME
 70
     0
  9
$SPLINETYPE
 70
     6
  9
$SPLINESEGS
 70
     8
  9
$ATTDIA
 70
     1
  9
$ATTREQ
 70
     1
  9
$HANDLING
 70
     1
  9
$HANDSEED
  5
7B5C
  9
$SURFTAB1
 70
     6
  9
$SURFTAB2
 70
     6
  9
$SURFTYPE
 70
     6
  9
$SURFU
 70
     6
  9
$SURFV
 70
     6
  9
$UCSNAME
  2

  9
$UCSORG
 10
0.0
 20
0.0
 30
0.0
  9
$UCSXDIR
 10
1.0
 20
0.0
 30
0.0
  9
$UCSYDIR
 10
0.0
 20
1.0
 30
0.0
  9
$PUCSNAME
  2

  9
$PUCSORG
 10
0.0
 20
0.0
 30
0.0
  9
$PUCSXDIR
 10
1.0
 20
0.0
 30
0.0
  9
$PUCSYDIR
 10
0.0
 20
1.0
 30
0.0
  9
$USERI1
 70
     0
  9
$USERI2
 70
     0
  9
$USERI3
 70
     0
  9
$USERI4
 70
     0
  9
$USERI5
 70
     0
  9
$USERR1
 40
0.0
  9
$USERR2
 40
0.0
  9
$USERR3
 40
0.0
  9
$USERR4
 40
0.0
  9
$USERR5
 40
0.0
  9
$WORLDVIEW
 70
     1
  9
$SHADEDGE
 70
     3
  9
$SHADEDIF
 70
    70
  9
$TILEMODE
 70
     1
  9
$MAXACTVP
 70
    64
  9
$PLIMCHECK
 70
     0
  9
$PEXTMIN
 10
1.0000000000000000E+020
 20
1.0000000000000000E+020
 30
1.0000000000000000E+020
  9
$PEXTMAX
 10
-1.0000000000000000E+020
 20
-1.0000000000000000E+020
 30
-1.0000000000000000E+020
  9
$PLIMMIN
 10
0.0
 20
0.0
  9
$PLIMMAX
 10
12.0
 20
9.0
  9
$UNITMODE
 70
     0
  9
$VISRETAIN
 70
     1
  9
$PLINEGEN
 70
     0
  9
$PSLTSCALE
 70
     1
  0
ENDSEC
  0
SECTION
  2
TABLES
  0
TABLE
  2
VPORT
 70
     1
  0
VPORT
  2
*ACTIVE
 70
     0
 10
0.0
 20
0.0
 11
1.0
 21
1.0
 12
5.5963395458089051
 22
2.9587227159429821
 13
0.0
 23
0.0
 14
1.0
 24
1.0
 15
0.0
 25
0.0
 16
-0.0000000000000284
 26
0.0
 36
128.69978881395789
 17
-3.8007044514500001
 27
11.79098170058859
 37
0.0
 40
8.3821532111790589
 41
1.786624203821656
 42
50.0
 43
0.0
 44
0.0
 50
0.0
 51
0.0
 71
     0
 72
   100
 73
     1
 74
     1
 75
     0
 76
     0
 77
     0
 78
     0
  0
ENDTAB
  0
TABLE
  2
LTYPE
 70
     1
  0
LTYPE
  2
CONTINUOUS
 70
     0
  3
Solid line
 72
    65
 73
     0
 40
0.0
  0
ENDTAB
  0
TABLE
  2
LAYER
 70
     2
  0
LAYER
  2
0
 70
     0
 62
     7
  6
CONTINUOUS
  0
LAYER
  2
DEFPOINTS
 70
     0
 62
     7
  6
CONTINUOUS
  0
ENDTAB
  0
TABLE
  2
STYLE
 70
     1
  0
STYLE
  2
STANDARD
 70
     0
 40
0.0
 41
0.8
 50
0.0
 71
     0
 42
0.2
  3
txt
  4

  0
ENDTAB
  0
TABLE
  2
VIEW
 70
     0
  0
ENDTAB
  0
TABLE
  2
UCS
 70
     0
  0
ENDTAB
  0
TABLE
  2
APPID
 70
     6
  0
APPID
  2
ACAD
 70
     0
  0
APPID
  2
ACAD_MLEADERVER
 70
     0
  0
APPID
  2
ACAD_NAV_VCDISPLAY
 70
     0
  0
APPID
  2
ACAD_EXEMPT_FROM_CAD_STANDARDS
 70
     0
  0
APPID
  2
ACDBATTR
 70
     0
  0
APPID
  2
ACDBDYNAMICBLOCKTRUENAME2
 70
     0
  0
ENDTAB
  0
TABLE
  2
DIMSTYLE
 70
     1
  0
DIMSTYLE
  2
STANDARD
 70
     0
  3

  4

  5

  6

  7

 40
1.0
 41
0.1875
 42
0.0625
 43
0.38
 44
0.125
 45
0.0
 46
0.0
 47
0.01
 48
0.01
140
0.15625
141
0.09
142
0.0
143
25.399999999999999
144
1.0
145
0.0
146
1.0
147
0.09
 71
     1
 72
     0
 73
     1
 74
     1
 75
     0
 76
     0
 77
     0
 78
     4
170
     0
171
     2
172
     0
173
     0
174
     0
175
     0
176
     0
177
     0
178
     0
  0
ENDTAB
  0
ENDSEC
  0
SECTION
  2
BLOCKS
  0
BLOCK
  8
0
  2
$MODEL_SPACE
 70
     0
 10
0.0
 20
0.0
 30
0.0
  3
$MODEL_SPACE
  1

  0
ENDBLK
  5
21
  8
0
  0
BLOCK
 67
     1
  8
0
  2
$PAPER_SPACE
 70
     0
 10
0.0
 20
0.0
 30
0.0
  3
$PAPER_SPACE
  1

  0
ENDBLK
  5
1D
 67
     1
  8
0
  0
BLOCK
  8
0
  2
*U0
 70
     1
 10
0.0
 20
0.0
 30
0.0
  3
*U0
  1

  0
CIRCLE
  5
64C3
  8
0
 10
0.0
 20
0.0
 30
0.0
 40
0.0413632820498384
  0
ENDBLK
  5
64BE
  8
0
  0
BLOCK
  8
0
  2
*U1
 70
     1
 10
0.0
 20
0.0
 30
0.0
  3
*U1
  1

  0
INSERT
  5
64D3
  8
0
  6
BYBLOCK
 62
     0
  2
*U0
 10
0.2715359121156495
 20
18.31863242584885
 30
0.0
  0
INSERT
  5
64D4
  8
0
  6
BYBLOCK
 62
     0
  2
*U0
 10
0.0511342810434774
 20
18.279774838983538
 30
0.0
 41
1.0
 42
1.0
 43
1.0
 50
29.999999999999979
  0
INSERT
  5
64D5
  8
0
  6
BYBLOCK
 62
     0
  2
*U0
 10
-0.1203103370678925
 20
18.135922366092331
 30
0.0
 41
1.0
 42
1.0
 43
1.0
 50
59.999999999999993
  0
INSERT
  5
64D6
  8
0
  6
BYBLOCK
 62
     0
  2
*U0
 10
-0.1968594952488562
 20
17.925620161115649
 30
0.0
 41
1.0
 42
1.0
 43
1.0
 50
90.0
  0
INSERT
  5
64D7
  8
0
  6
BYBLOCK
 62
     0
  2
*U0
 10
-0.1580019083835422
 20
17.705218530043481
 30
0.0
 41
1.0
 42
1.0
 43
1.0
 50
120.0
  0
INSERT
  5
64D8
  8
0
  6
BYBLOCK
 62
     0
  2
*U0
 10
-0.0141494354923336
 20
17.533773911932109
 30
0.0
 41
1.0
 42
1.0
 43
1.0
 50
150.0
  0
INSERT
  5
64D9
  8
0
  6
BYBLOCK
 62
     0
  2
*U0
 10
0.1961527694843504
 20
17.457224753751142
 30
0.0
 41
1.0
 42
1.0
 43
1.0
 50
180.0
  0
INSERT
  5
64DA
  8
0
  6
BYBLOCK
 62
     0
  2
*U0
 10
0.4165544005565225
 20
17.496082340616461
 30
0.0
 41
1.0
 42
1.0
 43
1.0
 50
210.0
  0
INSERT
  5
64DB
  8
0
  6
BYBLOCK
 62
     0
  2
*U0
 10
0.5879990186678925
 20
17.639934813507669
 30
0.0
 41
1.0
 42
1.0
 43
1.0
 50
240.0
  0
INSERT
  5
64DC
  8
0
  6
BYBLOCK
 62
     0
  2
*U0
 10
0.6645481768488563
 20
17.85023701848435
 30
0.0
 41
1.0
 42
1.0
 43
1.0
 50
269.99999999999989
  0
INSERT
  5
64DD
  8
0
  6
BYBLOCK
 62
     0
  2
*U0
 10
0.6256905899835422
 20
18.070638649556521
 30
0.0
 41
1.0
 42
1.0
 43
1.0
 50
300.0
  0
INSERT
  5
64DE
  8
0
  6
BYBLOCK
 62
     0
  2
*U0
 10
0.4818381170923336
 20
18.242083267667891
 30
0.0
 41
1.0
 42
1.0
 43
1.0
 50
330.0
  0
ENDBLK
  5
64C1
  8
0
  0
BLOCK
  8
0
  2
*U2
 70
     1
 10
0.0
 20
0.0
 30
0.0
  3
*U2
  1

  0
CIRCLE
  5
653C
  8
0
 10
-0.0001076917
 20
-0.000033954900001
 30
0.0
 40
0.0295275590000002
  0
CIRCLE
  5
653D
  8
0
 10
-0.0001076917
 20
-0.000033954900001
 30
0.0
 40
0.0521653534550768
  0
CIRCLE
  5
653E
  8
0
 10
0.0
 20
0.0
 30
0.0
 40
0.1061906061238778
  0
LINE
  5
653F
  8
0
 10
0.0520556864159685
 20
0.0003423432337684
 30
0.0
 11
0.106099669996667
 21
-0.0043858340343057
 31
0.0
  0
LINE
  5
6540
  8
0
 10
0.0428378792109665
 20
0.0295774869839853
 30
0.0
 11
0.0844015982643978
 21
0.0644423388726061
 31
0.0
  0
LINE
  5
6541
  8
0
 10
0.0365113051297641
 20
0.0371172047535744
 30
0.0
 11
0.0780715905
 21
0.0719905023999985
 31
0.0
  0
LINE
  5
6542
  8
0
 10
0.0093209630079649
 20
0.0512716014647801
 30
0.0
 11
0.0140939150629869
 21
0.1052511586024316
 31
0.0
  0
LINE
  5
6543
  8
0
 10
0.0042382939083987
 20
0.106105992732278
 30
0.0
 11
-0.0004839911000001
 21
0.0520882688579469
 31
0.0
  0
LINE
  5
6544
  8
0
 10
-0.0297211325908837
 20
0.0429109891527659
 30
0.0
 11
-0.0644977561074103
 21
0.0843592572635963
 31
0.0
  0
LINE
  5
6545
  8
0
 10
-0.0720313393664766
 20
0.0780251945081076
 30
0.0
 11
-0.0372588515535974
 21
0.0365850425916037
 31
0.0
  0
LINE
  5
6546
  8
0
 10
-0.0514138980593553
 20
0.0093945810470295
 30
0.0
 11
-0.1052496951574001
 21
0.0141048395322621
 31
0.0
  0
LINE
  5
6547
  8
0
 10
-0.1061035335197463
 20
0.0042994189817485
 30
0.0
 11
-0.052271685268287
 21
-0.0004106193407161
 31
0.0
  0
LINE
  5
6548
  8
0
 10
-0.0430546995114691
 20
-0.029644402737457
 30
0.0
 11
-0.0844488779150907
 21
-0.0643803684972255
 31
0.0
  0
LINE
  5
6549
  8
0
 10
-0.0781253014967844
 20
-0.0719227508858857
 30
0.0
 11
-0.0367267814572208
 21
-0.0371858911408722
 31
0.0
  0
LINE
  5
654A
  8
0
 10
-0.0095362773797689
 20
-0.0513401521199519
 30
0.0
 11
-0.0142512075967677
 21
-0.1052299762947335
 31
0.0
  0
LINE
  5
654B
  8
0
 10
-0.0044469864289762
 20
-0.1060974511506139
 30
0.0
 11
0.0002688787602743
 21
-0.0521979491468123
 31
0.0
  0
LINE
  5
654C
  8
0
 10
0.0295038574723747
 20
-0.0429802033590363
 30
0.0
 11
0.0643317020500645
 21
-0.0844859570597265
 31
0.0
  0
LINE
  5
654D
  8
0
 10
0.0718777328037335
 20
-0.0781667215376949
 30
0.0
 11
0.0370440788937445
 21
-0.0366532127139259
 31
0.0
  0
LINE
  5
654E
  8
0
 10
0.0511984161670618
 20
-0.0094630267857418
 30
0.0
 11
0.1052381687019857
 21
-0.0141905841038721
 31
0.0
  0
ENDBLK
  5
6537
  8
0
  0
BLOCK
  8
0
  2
*U3
 70
     1
 10
0.0
 20
0.0
 30
0.0
  3
*U3
  1

  0
INSERT
  5
6559
  8
0
  6
BYBLOCK
 62
     0
  2
*U2
 10
0.9654099504999999
 20
17.823968269000002
 30
0.0
  0
INSERT
  5
655A
  8
0
  6
BYBLOCK
 62
     0
  2
*U2
 10
0.8993789037584555
 20
18.19832013211639
 30
0.0
 50
29.999999999999961
  0
INSERT
  5
655B
  8
0
  6
BYBLOCK
 62
     0
  2
*U2
 10
0.6550184082836033
 20
18.48950283215845
 30
0.0
 50
59.999999999999908
  0
INSERT
  5
655C
  8
0
  6
BYBLOCK
 62
     0
  2
*U2
 10
0.2978046614999979
 20
18.619494199799998
 30
0.0
 41
0.9999999999999998
 42
0.9999999999999998
 43
0.9999999999999998
 50
89.999999999999915
  0
INSERT
  5
655D
  8
0
  6
BYBLOCK
 62
     0
  2
*U2
 10
-0.0765472016163967
 20
18.553463153058448
 30
0.0
 50
119.9999999999998
  0
INSERT
  5
655E
  8
0
  6
BYBLOCK
 62
     0
  2
*U2
 10
-0.3677299016584579
 20
18.309102657583601
 30
0.0
 41
0.9999999999999998
 42
0.9999999999999998
 43
0.9999999999999998
 50
149.99999999999989
  0
INSERT
  5
655F
  8
0
  6
BYBLOCK
 62
     0
  2
*U2
 10
-0.4977212693000002
 20
17.951888910800001
 30
0.0
 41
0.9999999999999998
 42
0.9999999999999998
 43
0.9999999999999998
 50
180.0
  0
INSERT
  5
6560
  8
0
  6
BYBLOCK
 62
     0
  2
*U2
 10
-0.4316902225584559
 20
17.577537047683599
 30
0.0
 41
0.9999999999999998
 42
0.9999999999999998
 43
0.9999999999999998
 50
209.9999999999998
  0
INSERT
  5
6561
  8
0
  6
BYBLOCK
 62
     0
  2
*U2
 10
-0.1873297270836038
 20
17.286354347641542
 30
0.0
 41
0.9999999999999998
 42
0.9999999999999998
 43
0.9999999999999998
 50
239.99999999999969
  0
INSERT
  5
6562
  8
0
  6
BYBLOCK
 62
     0
  2
*U2
 10
0.1698840197000019
 20
17.156362980000001
 30
0.0
 41
0.9999999999999998
 42
0.9999999999999998
 43
0.9999999999999998
 50
269.99999999999977
  0
INSERT
  5
6563
  8
0
  6
BYBLOCK
 62
     0
  2
*U2
 10
0.5442358828163965
 20
17.22239402674154
 30
0.0
 41
0.9999999999999996
 42
0.9999999999999996
 43
0.9999999999999996
 50
299.99999999999977
  0
INSERT
  5
6564
  8
0
  6
BYBLOCK
 62
     0
  2
*U2
 10
0.8354185828584579
 20
17.466754522216402
 30
0.0
 41
0.9999999999999998
 42
0.9999999999999998
 43
0.9999999999999998
 50
329.99999999999977
  0
ENDBLK
  5
653A
  8
0
  0
BLOCK
  8
0
  2
*U4
 70
     1
 10
0.0
 20
0.0
 30
0.0
  3
*U4
  1

  0
ARC
  5
6573
  8
0
 10
-0.0090252011148007
 20
0.0000824143936633
 30
0.0
 40
0.0544277795999591
 50
191.3971340306168
 51
255.3789016679579
  0
ARC
  5
6574
  8
0
 10
-0.0024652788709338
 20
0.0125630154961094
 30
0.0
 40
0.0682350435822543
 50
252.6934000400324
 51
332.3842283878555
  0
ARC
  5
6575
  8
0
 10
0.0134958336344964
 20
0.0026450321922376
 30
0.0
 40
0.049514402576825
 50
333.9922742468512
 51
53.698480631311952
  0
ARC
  5
6576
  8
0
 10
0.0034168939122354
 20
-0.010016662845711
 30
0.0
 40
0.0656886909318558
 50
53.151946222850057
 51
93.670247453575342
  0
ARC
  5
6577
  8
0
 10
0.0019175294157685
 20
-0.0128934478988683
 30
0.0
 40
0.0684842154181853
 50
92.264200545681973
 51
143.98909938394701
  0
ARC
  5
6578
  8
0
 10
-0.0110981921138059
 20
-0.0026066820539441
 30
0.0
 40
0.0519120440975153
 50
144.72702144111119
 51
188.93904960914779
  0
ENDBLK
  5
656E
  8
0
  0
BLOCK
  8
0
  2
*U5
 70
     1
 10
0.0
 20
0.0
 30
0.0
  3
*U5
  1

  0
INSERT
  5
6583
  8
0
  6
BYBLOCK
 62
     0
  2
*U4
 10
0.9571532773588826
 20
18.015424842071369
 30
0.0
  0
INSERT
  5
6584
  8
0
  6
BYBLOCK
 62
     0
  2
*U4
 10
0.796500128508614
 20
18.35999805143376
 30
0.0
 41
1.0
 42
1.0
 43
1.0
 50
29.999999999999961
  0
INSERT
  5
6585
  8
0
  6
BYBLOCK
 62
     0
  2
*U4
 10
0.485083815725125
 20
18.578080629779979
 30
0.0
 41
1.0
 42
1.0
 43
1.0
 50
59.999999999999922
  0
INSERT
  5
6586
  8
0
  6
BYBLOCK
 62
     0
  2
*U4
 10
0.1063480885286294
 20
18.611237526358881
 30
0.0
 41
1.0
 42
1.0
 43
1.0
 50
89.999999999999915
  0
INSERT
  5
6587
  8
0
  6
BYBLOCK
 62
     0
  2
*U4
 10
-0.2382251208337578
 20
18.450584377508608
 30
0.0
 41
1.0
 42
1.0
 43
1.0
 50
119.9999999999998
  0
INSERT
  5
6588
  8
0
  6
BYBLOCK
 62
     0
  2
*U4
 10
-0.4563076991799847
 20
18.139168064725119
 30
0.0
 41
1.0
 42
1.0
 43
1.0
 50
149.9999999999998
  0
INSERT
  5
6589
  8
0
  6
BYBLOCK
 62
     0
  2
*U4
 10
-0.4894645957588829
 20
17.760432337528631
 30
0.0
 41
1.0
 42
1.0
 43
1.0
 50
180.0
  0
INSERT
  5
658A
  8
0
  6
BYBLOCK
 62
     0
  2
*U4
 10
-0.3288114469086141
 20
17.41585912816624
 30
0.0
 41
1.0
 42
1.0
 43
1.0
 50
209.9999999999998
  0
INSERT
  5
658B
  8
0
  6
BYBLOCK
 62
     0
  2
*U4
 10
-0.0173951341251252
 20
17.197776549820009
 30
0.0
 41
1.0
 42
1.0
 43
1.0
 50
239.9999999999998
  0
INSERT
  5
658C
  8
0
  6
BYBLOCK
 62
     0
  2
*U4
 10
0.36134059307137
 20
17.164619653241122
 30
0.0
 41
1.0
 42
1.0
 43
1.0
 50
269.99999999999977
  0
INSERT
  5
658D
  8
0
  6
BYBLOCK
 62
     0
  2
*U4
 10
0.7059138024337575
 20
17.32527280209138
 30
0.0
 41
1.0
 42
1.0
 43
1.0
 50
299.99999999999977
  0
INSERT
  5
658E
  8
0
  6
BYBLOCK
 62
     0
  2
*U4
 10
0.9239963807799844
 20
17.636689114874869
 30
0.0
 41
1.0
 42
1.0
 43
1.0
 50
329.99999999999977
  0
ENDBLK
  5
6571
  8
0
  0
BLOCK
  8
0
  2
*U6
 70
     1
 10
0.0
 20
0.0
 30
0.0
  3
*U6
  1

  0
CIRCLE
  5
65C5
  8
0
 10
0.1038281898764186
 20
-0.0268650868371196
 30
0.0
 40
0.0141535875999999
  0
CIRCLE
  5
65C6
  8
0
 10
0.1358986175764185
 20
-0.2087455202371231
 30
0.0
 40
0.014195418299211
  0
CIRCLE
  5
65C7
  8
0
 10
-0.0073350120235816
 20
-0.1408738885371221
 30
0.0
 40
0.0145123103744415
  0
ARC
  5
65C8
  8
0
 10
0.0199163803444453
 20
-0.0545904338049468
 30
0.0
 40
0.0237127192714253
 50
257.2533885565295
 51
15.419450728796759
  0
ARC
  5
65C9
  8
0
 10
0.1541426371795471
 20
-0.1115867248088271
 30
0.0
 40
0.0328843870566114
 50
120.79245544288651
 51
259.172291465017
  0
ARC
  5
65CA
  8
0
 10
0.0475325708498522
 20
-0.2098370804796126
 30
0.0
 40
0.0224198980972494
 50
2.790669683252017
 51
112.3531262724394
  0
CIRCLE
  5
65CB
  8
0
 10
0.1038281898764186
 20
-0.0268650868371196
 30
0.0
 40
0.0656514481739598
  0
CIRCLE
  5
65CC
  8
0
 10
0.1358986175764185
 20
-0.2087455202371231
 30
0.0
 40
0.0659727368566923
  0
CIRCLE
  5
65CD
  8
0
 10
-0.0073350120235816
 20
-0.1408738885371221
 30
0.0
 40
0.0668836680152992
  0
CIRCLE
  5
65CE
  8
0
 10
-0.0528829216052556
 20
0.0312734339244472
 30
0.0
 40
0.0141535875999999
  0
CIRCLE
  5
65CF
  8
0
 10
-0.1358986175764185
 20
0.2087455202371231
 30
0.0
 40
0.014195418299211
  0
CIRCLE
  5
65D0
  8
0
 10
0.0297240270764188
 20
0.1776327740628787
 30
0.0
 40
0.0145123103744415
  0
ARC
  5
65D1
  8
0
 10
0.0336538217341638
 20
0.0789378201805988
 30
0.0
 40
0.0331536587918699
 50
105.2663927657083
 51
207.70710998878309
  0
ARC
  5
65D2
  8
0
 10
-0.1507714087431728
 20
0.093485468625147
 30
0.0
 40
0.0534322173833836
 50
342.10808505381601
 51
67.872479277199986
  0
ARC
  5
65D3
  8
0
 10
-0.0427951698144717
 20
0.2419493550445217
 30
0.0
 40
0.0334860985438987
 50
208.56353977850259
 51
297.016458308604
  0
CIRCLE
  5
65D4
  8
0
 10
-0.0528829216052556
 20
0.0312734339244472
 30
0.0
 40
0.0656514481739598
  0
CIRCLE
  5
65D5
  8
0
 10
-0.1358986175764185
 20
0.2087455202371231
 30
0.0
 40
0.0659727368566923
  0
CIRCLE
  5
65D6
  8
0
 10
0.0297240270764188
 20
0.1776327740628787
 30
0.0
 40
0.0668836680152992
  0
ENDBLK
  5
65C0
  8
0
  0
BLOCK
  8
0
  2
*U7
 70
     1
 10
0.0
 20
0.0
 30
0.0
  3
*U7
  1

  0
INSERT
  5
65E1
  8
0
  6
BYBLOCK
 62
     0
  2
*U6
 10
1.278442249123581
 20
18.211059840737121
 30
0.0
  0
INSERT
  5
65E2
  8
0
  6
BYBLOCK
 62
     0
  2
*U6
 10
0.9769270407029537
 20
18.690067416143378
 30
0.0
 50
29.999999999999979
  0
INSERT
  5
65E3
  8
0
  6
BYBLOCK
 62
     0
  2
*U6
 10
0.4763034228802017
 20
18.954142540840071
 30
0.0
 41
1.0
 42
1.0
 43
1.0
 50
59.999999999999957
  0
INSERT
  5
65E4
  8
0
  6
BYBLOCK
 62
     0
  2
*U6
 10
-0.0892869102371215
 20
18.932526498423581
 30
0.0
 41
1.0
 42
1.0
 43
1.0
 50
89.999999999999915
  0
INSERT
  5
65E5
  8
0
  6
BYBLOCK
 62
     0
  2
*U6
 10
-0.5682944856433798
 20
18.631011290002949
 30
0.0
 41
1.0
 42
1.0
 43
1.0
 50
119.9999999999999
  0
INSERT
  5
65E6
  8
0
  6
BYBLOCK
 62
     0
  2
*U6
 10
-0.8323696103400754
 20
18.130387672180198
 30
0.0
 41
1.0
 42
1.0
 43
1.0
 50
149.99999999999989
  0
INSERT
  5
65E7
  8
0
  6
BYBLOCK
 62
     0
  2
*U6
 10
-0.8107535679235816
 20
17.564797339062881
 30
0.0
 41
1.0
 42
1.0
 43
1.0
 50
180.0
  0
INSERT
  5
65E8
  8
0
  6
BYBLOCK
 62
     0
  2
*U6
 10
-0.5092383595029542
 20
17.085789763656621
 30
0.0
 41
1.0
 42
1.0
 43
1.0
 50
209.9999999999998
  0
INSERT
  5
65E9
  8
0
  6
BYBLOCK
 62
     0
  2
*U6
 10
-0.0086147416802019
 20
16.821714638959921
 30
0.0
 41
1.0000000000000011
 42
1.0000000000000011
 43
1.0000000000000011
 50
239.9999999999998
  0
INSERT
  5
65EA
  8
0
  6
BYBLOCK
 62
     0
  2
*U6
 10
0.5569755914371218
 20
16.843330681376418
 30
0.0
 41
1.0
 42
1.0
 43
1.0
 50
269.99999999999977
  0
INSERT
  5
65EB
  8
0
  6
BYBLOCK
 62
     0
  2
*U6
 10
1.035983166843379
 20
17.14484588979704
 30
0.0
 41
1.0000000000000011
 42
1.0000000000000011
 43
1.0000000000000011
 50
299.99999999999977
  0
INSERT
  5
65EC
  8
0
  6
BYBLOCK
 62
     0
  2
*U6
 10
1.3000582915400749
 20
17.64546950761979
 30
0.0
 41
1.0000000000000011
 42
1.0000000000000011
 43
1.0000000000000011
 50
329.99999999999977
  0
ENDBLK
  5
65C3
  8
0
  0
ENDSEC
  0
SECTION
  2
ENTITIES
  0
LINE
  5
636
  8
0
 10
6.7950760982
 20
8.1790418880999987
 30
0.0
 11
6.7950760982
 21
8.079041888099999
 31
0.0
  0
ARC
  5
26A5
  8
0
 10
6.8550760981999996
 20
8.079041888099999
 30
0.0
 40
0.06
 50
180.0
 51
270.0
  0
LINE
  5
6463
  8
0
 10
-2.4451548750000001
 20
-7.8362081330999986
 30
0.0
 11
-1.5471564443000001
 21
-7.8362081330999986
 31
0.0
  0
LINE
  5
6464
  8
0
 10
-2.4686056597000028
 20
-7.736208133099999
 30
0.0
 11
-1.5237056596999989
 21
-7.736208133099999
 31
0.0
  0
LINE
  5
6465
  8
0
 10
-2.5903987767999999
 20
6.7381810326
 30
0.0
 11
-2.6161449975000011
 21
8.2131810300999994
 31
0.0
  0
LINE
  5
6466
  8
0
 10
-2.4686056597000028
 20
-7.736208133099999
 30
0.0
 11
-2.4686056597000028
 21
6.7037918669000014
 31
0.0
  0
LINE
  5
6467
  8
0
 10
-2.4686056597000028
 20
8.4637918669000012
 30
0.0
 11
-2.4686056597000028
 21
22.2637918669
 31
0.0
  0
LINE
  5
6468
  8
0
 10
-2.4651556597000019
 20
-7.7562081330999986
 30
0.0
 11
-2.4651556597000019
 21
-7.8162081330999982
 31
0.0
  0
LINE
  5
6469
  8
0
 10
-2.4651556597000019
 20
22.2837918669
 30
0.0
 11
-2.4651556597000019
 21
22.343791866899998
 31
0.0
  0
LINE
  5
646A
  8
0
 10
-2.6123921586000018
 20
8.4294027020999991
 30
0.0
 11
-2.6161449975000011
 21
8.2144027029999975
 31
0.0
  0
LINE
  5
646B
  8
0
 10
-1.3799191608000001
 20
8.4294027016999991
 30
0.0
 11
-1.377628678
 21
8.2981810325999987
 31
0.0
  0
LINE
  5
646C
  8
0
 10
-1.7903978148999959
 20
8.2144027010999991
 30
0.0
 11
-1.7908831316999989
 21
8.2981810325999987
 31
0.0
  0
LINE
  5
646D
  8
0
 10
-1.5271556597
 20
-7.7562081330999986
 30
0.0
 11
-1.5271556597
 21
-7.8162081330999982
 31
0.0
  0
LINE
  5
646E
  8
0
 10
-1.5271556597
 20
22.2837918669
 30
0.0
 11
-1.5271556597
 21
22.343791866899998
 31
0.0
  0
LINE
  5
646F
  8
0
 10
-1.5237056596999989
 20
-7.736208133099999
 30
0.0
 11
-1.5237056596999989
 21
6.7037918669000014
 31
0.0
  0
LINE
  5
6470
  8
0
 10
-1.5237056596999989
 20
8.4637918669000012
 30
0.0
 11
-1.5237056596999989
 21
17.496942009386341
 31
0.0
  0
LINE
  5
6471
  8
0
 10
-1.5237056596999989
 20
18.278915174499041
 30
0.0
 11
-1.5237056596999989
 21
22.2637918669
 31
0.0
  0
LINE
  5
6472
  8
0
 10
-1.790397648199999
 20
8.2131810300999994
 30
0.0
 11
-1.7958648262000021
 21
7.2694028321999999
 31
0.0
  0
LINE
  5
6473
  8
0
 10
-1.3926400339000009
 20
7.269402701099998
 30
0.0
 11
-1.401912542600001
 21
6.7381810329
 31
0.0
  0
LINE
  5
6474
  8
0
 10
-2.5571680849999998
 20
6.7037918669000014
 30
0.0
 11
-1.435143234299999
 21
6.7037918669000014
 31
0.0
  0
LINE
  5
6475
  8
0
 10
-1.3926400339000009
 20
7.269402701099998
 30
0.0
 11
-1.7958648178999961
 21
7.269402701099998
 31
0.0
  0
LINE
  5
6476
  8
0
 10
-1.7908831316999989
 20
8.2981810325999987
 30
0.0
 11
-1.377628678
 21
8.2981810325999987
 31
0.0
  0
LINE
  5
6477
  8
0
 10
-1.414918939199999
 20
8.4637918669000012
 30
0.0
 11
-2.5773924208999972
 21
8.4637918669000012
 31
0.0
  0
LINE
  5
6478
  8
0
 10
-1.5237056596999989
 20
22.2637918669
 30
0.0
 11
-2.4686056597000028
 21
22.2637918669
 31
0.0
  0
LINE
  5
6479
  8
0
 10
-1.5471564443000001
 20
22.363791866900002
 30
0.0
 11
-2.4451548750000001
 21
22.363791866900002
 31
0.0
  0
ARC
  5
647A
  8
0
 10
-1.996155659700001
 20
-6.736208133099999
 30
0.0
 40
1.1149999999999991
 50
294.78260869570011
 51
64.927390506699936
  0
ARC
  5
647B
  8
0
 10
-1.996155659700001
 20
-6.736208133099999
 30
0.0
 40
1.1149999999999991
 50
115.07260949330001
 51
245.21739130429989
  0
ARC
  5
647E
  8
0
 10
-1.5471556597000029
 20
-7.8162081330999982
 30
0.0
 40
0.02
 50
269.99775212129998
 51
0.0
  0
ARC
  5
647F
  8
0
 10
-1.5471556597000029
 20
-7.7562081330999986
 30
0.0
 40
0.02
 50
0.0
 51
90.003498118800124
  0
ARC
  5
6480
  8
0
 10
-2.4451556596999988
 20
-7.7562081330999986
 30
0.0
 40
0.02
 50
89.996501881199833
 51
180.0
  0
ARC
  5
6481
  8
0
 10
-2.4451556596999988
 20
-7.8162081330999982
 30
0.0
 40
0.02
 50
180.0
 51
270.0022478786999
  0
ARC
  5
6482
  8
0
 10
-1.3426340087000019
 20
8.2987918669000003
 30
0.0
 40
0.035
 50
180.99999999999989
 51
270.0
  0
ARC
  5
6483
  8
0
 10
-2.5554041074000011
 20
6.7387918669000006
 30
0.0
 40
0.035
 50
181.00000137639989
 51
267.11110546740008
  0
ARC
  5
6484
  8
0
 10
-1.436907211899999
 20
6.7387918669000006
 30
0.0
 40
0.035
 50
272.88889453259992
 51
359.00000045569988
  0
ARC
  5
6485
  8
0
 10
-1.414913830099997
 20
8.4287918668999993
 30
0.0
 40
0.035
 50
1.000001712299986
 51
90.000087084499938
  0
ARC
  5
6486
  8
0
 10
-2.5773974892000018
 20
8.4287918668999993
 30
0.0
 40
0.035
 50
89.999950147900023
 51
178.9999990179999
  0
ARC
  5
6487
  8
0
 10
-1.996155659700001
 20
21.2637918669
 30
0.0
 40
1.1149999999999991
 50
80.591207114117225
 51
99.408792885882775
  0
ARC
  5
6488
  8
0
 10
-1.996155659700001
 20
21.2637918669
 30
0.0
 40
1.1149999999999991
 50
295.06979525580368
 51
65.213487445033493
  0
ARC
  5
6489
  8
0
 10
-1.996155659700001
 20
21.2637918669
 30
0.0
 40
1.1149999999999991
 50
114.78260869570011
 51
244.9302047441964
  0
ARC
  5
648C
  8
0
 10
-2.4451556596999988
 20
22.343791866899998
 30
0.0
 40
0.02
 50
89.997752121300053
 51
180.0
  0
ARC
  5
648D
  8
0
 10
-2.4451556596999988
 20
22.2837918669
 30
0.0
 40
0.02
 50
180.0
 51
270.00349811880022
  0
ARC
  5
648E
  8
0
 10
-1.5471556597000029
 20
22.2837918669
 30
0.0
 40
0.02
 50
269.99650188119989
 51
0.0
  0
ARC
  5
648F
  8
0
 10
-1.5471556597000029
 20
22.343791866899998
 30
0.0
 40
0.02
 50
0.0
 51
90.002247878699961
  0
CIRCLE
  5
64B6
  8
0
 10
0.2338443407
 20
17.8879285899
 30
0.0
 40
1.8005145125901649
  0
CIRCLE
  5
64B7
  8
0
 10
0.2338443407
 20
17.8879285899
 30
0.0
 40
0.0882346711999998
  0
CIRCLE
  5
64B8
  8
0
 10
0.2338443407
 20
17.8879285899
 30
0.0
 40
0.3356536916999999
  0
CIRCLE
  5
64B9
  8
0
 10
0.2338443407
 20
17.8879285899
 30
0.0
 40
0.5194305664
  0
INSERT
  5
64C2
  8
0
  2
*U1
 10
0.0
 20
0.0
 30
0.0
  0
INSERT
  5
653B
  8
0
  2
*U3
 10
0.0
 20
0.0
 30
0.0
  0
INSERT
  5
6572
  8
0
  2
*U5
 10
0.0
 20
0.0
 30
0.0
  0
INSERT
  5
65C4
  8
0
  2
*U7
 10
0.0
 20
0.0
 30
0.0
  0
CIRCLE
  5
65ED
  8
0
 10
0.2338443406
 20
17.8879285899
 30
0.0
 40
0.9743911665996666
  0
ARC
  5
6610
  8
0
 10
0.294024872609949
 20
18.618446284695271
 30
0.0
 40
0.1490027121464111
 50
40.45065647654431
 51
125.6347860734966
  0
ARC
  5
6611
  8
0
 10
0.606380798348747
 20
18.930226030194468
 30
0.0
 40
0.2930195791707822
 50
227.23184522674831
 51
275.91766994331368
  0
ARC
  5
6612
  8
0
 10
-0.0792966372137563
 20
18.550665737525119
 30
0.0
 40
0.149002712146411
 50
70.450656476544282
 51
155.6347860734966
  0
ARC
  5
6613
  8
0
 10
0.0353216567490393
 20
18.976852880382339
 30
0.0
 40
0.2930195791708466
 50
257.2318452267528
 51
305.91766994330709
  0
ARC
  5
6614
  8
0
 10
-0.3687122749151734
 20
18.305305306881511
 30
0.0
 40
0.149002712146411
 50
100.4506564765442
 51
185.6347860734964
  0
ARC
  5
6615
  8
0
 10
-0.4825434920335418
 20
18.73170334634354
 30
0.0
 40
0.2930195791708054
 50
287.23184522674939
 51
335.91766994331061
  0
ARC
  5
6616
  8
0
 10
-0.4966733540952693
 20
17.948109122009949
 30
0.0
 40
0.1490027121464111
 50
130.45065647654431
 51
215.63478607349651
  0
ARC
  5
6617
  8
0
 10
-0.8084530995944996
 20
18.26046504774876
 30
0.0
 40
0.2930195791708121
 50
317.23184522675018
 51
5.9176699433099191
  0
ARC
  5
6618
  8
0
 10
-0.4295566686356686
 20
17.574767367776872
 30
0.0
 40
0.1483840898511492
 50
160.35751461836
 51
245.8574909280448
  0
ARC
  5
6619
  8
0
 10
-0.8550799497823051
 20
17.689405906149052
 30
0.0
 40
0.2930195791708095
 50
347.23184522674973
 51
35.917669943309967
  0
ARC
  5
661A
  8
0
 10
-0.1840971751827607
 20
17.285022511456742
 30
0.0
 40
0.1483840898511455
 50
190.35751461835881
 51
275.8574909280461
  0
ARC
  5
661B
  8
0
 10
-0.6115816147507749
 20
17.170610063907642
 30
0.0
 40
0.2948726408712375
 50
17.30952306602245
 51
65.702046691750297
  0
ARC
  5
661C
  8
0
 10
0.1736638085900508
 20
17.157410895304729
 30
0.0
 40
0.1490027121464111
 50
220.45065647654431
 51
305.63478607349651
  0
ARC
  5
661D
  8
0
 10
-0.1396567507063203
 20
16.84399954612342
 30
0.0
 40
0.2948726408712376
 50
47.309523066022471
 51
95.702046691750255
  0
ARC
  5
661E
  8
0
 10
0.5469853184137562
 20
17.22519144247488
 30
0.0
 40
0.1490027121464111
 50
250.4506564765442
 51
335.63478607349663
  0
ARC
  5
661F
  8
0
 10
0.4323670244509607
 20
16.79900429961765
 30
0.0
 40
0.2930195791708465
 50
77.231845226752867
 51
125.9176699433071
  0
ARC
  5
6620
  8
0
 10
0.836400956115173
 20
17.470551873118492
 30
0.0
 40
0.1490027121464111
 50
280.45065647654422
 51
5.6347860734964614
  0
ARC
  5
6621
  8
0
 10
0.9502321733397131
 20
17.044153833536761
 30
0.0
 40
0.293019579316576
 50
107.2318452396447
 51
155.917669930415
  0
ARC
  5
6622
  8
0
 10
0.9643620352952693
 20
17.82774805799005
 30
0.0
 40
0.1490027121464111
 50
310.45065647654411
 51
35.634786073496507
  0
ARC
  5
6623
  8
0
 10
1.2761417807945199
 20
17.515392132251229
 30
0.0
 40
0.2930195791708324
 50
137.231845226752
 51
185.91766994330879
  0
ARC
  5
6624
  8
0
 10
0.8965814881251223
 20
18.201069567813761
 30
0.0
 40
0.1490027121464111
 50
340.45065647654422
 51
65.634786073496443
  0
ARC
  5
6625
  8
0
 10
1.3227686309823039
 20
18.086451273850951
 30
0.0
 40
0.2930195791708086
 50
167.23184522674961
 51
215.9176699433101
  0
ARC
  5
6626
  8
0
 10
0.6512210574815132
 20
18.490485205515181
 30
0.0
 40
0.1490027121464111
 50
10.450656476544269
 51
95.634786073496514
  0
ARC
  5
6627
  8
0
 10
1.0776190969435571
 20
18.604316422633559
 30
0.0
 40
0.2930195791708283
 50
197.2318452267516
 51
245.91766994330899
  0
CIRCLE
  5
6629
  8
0
 10
0.2338443407
 20
17.8879285899
 30
0.0
 40
1.5268443822
  0
CIRCLE
  5
662A
  8
0
 10
0.2338443407
 20
17.8879285899
 30
0.0
 40
1.4975173434
  0
CIRCLE
  5
662B
  8
0
 10
0.2338443407
 20
17.8879285899
 30
0.0
 40
1.719319846908449
  0
ARC
  5
662C
  8
0
 10
0.3138519184468949
 20
16.059155857094652
 30
0.0
 40
0.0300075302559381
 50
92.518307057037347
 51
180.01245544873501
  0
LINE
  5
662D
  8
0
 10
0.2838443889
 20
16.059149333800001
 30
0.0
 11
0.2838685670232943
 21
15.947928579818949
 31
0.0
  0
ARC
  5
662E
  8
0
 10
0.2538750826994229
 20
15.94792205957757
 30
0.0
 40
0.0299934850325844
 50
269.94127357639383
 51
0.0124554487350068
  0
LINE
  5
662F
  8
0
 10
0.2538443402989528
 20
15.917928590300001
 30
0.0
 11
0.2138443613112456
 21
15.917969589070809
 31
0.0
  0
ARC
  5
6630
  8
0
 10
0.2138751420483515
 20
15.948000461046149
 30
0.0
 40
0.0300308877499989
 50
180.1371219655673
 51
269.94127357639729
  0
LINE
  5
6631
  8
0
 10
0.1838443403
 20
15.9479285903
 30
0.0
 11
0.1838443403
 21
16.059149015089051
 31
0.0
  0
ARC
  5
6632
  8
0
 10
0.1538367190694072
 20
16.059155769492762
 30
0.0
 40
0.0300076219907659
 50
359.98710331564058
 51
87.481618109931333
  0
LINE
  5
6633
  8
0
 10
0.5463443403000001
 20
16.114740427211729
 30
0.0
 11
0.5463443403000001
 21
14.6287918669
 31
0.0
  0
LINE
  5
6634
  8
0
 10
-0.0786556597
 20
16.114740427266071
 30
0.0
 11
-0.0786556597
 21
14.6287918669
 31
0.0
  0
LINE
  5
6635
  8
0
 10
-0.3361556597
 20
14.6287918669
 30
0.0
 11
0.8038443402999999
 21
14.6287918669
 31
0.0
  0
ARC
  5
6636
  8
0
 10
0.8038443402999999
 20
14.5687918669
 30
0.0
 40
0.0599999999999987
 50
359.99999999999829
 51
89.999999999998721
  0
LINE
  5
6637
  8
0
 10
0.8638443403
 20
14.5687918669
 30
0.0
 11
0.8638443402998145
 21
8.2837918668999997
 31
0.0
  0
ARC
  5
6638
  8
0
 10
0.8438443402998144
 20
8.2837918668999997
 30
0.0
 40
0.0200000000000001
 50
270.00000000053149
 51
359.99999999999818
  0
LINE
  5
6639
  8
0
 10
0.8438443403
 20
8.2637918669000001
 30
0.0
 11
-0.3761556597
 21
8.2637918668886812
 31
0.0
  0
ARC
  5
663A
  8
0
 10
-0.3761556597001855
 20
8.2837918668884978
 30
0.0
 40
0.0199999999998148
 50
179.9999999670494
 51
270.00000000053262
  0
LINE
  5
663B
  8
0
 10
-0.3961556597
 20
8.2837918668999997
 30
0.0
 11
-0.3961556560855242
 21
14.5687918669
 31
0.0
  0
ARC
  5
663C
  8
0
 10
-0.3361556560435249
 20
14.568791866865491
 30
0.0
 40
0.0600000000419993
 50
89.99909449413515
 51
179.9999999670494
  0
LINE
  5
663D
  8
0
 10
-1.342634008699999
 20
8.2637918669000001
 30
0.0
 11
-0.766155696403378
 21
8.2637918669000001
 31
0.0
  0
ARC
  5
663E
  8
0
 10
-0.766155696403378
 20
8.2287918301966023
 30
0.0
 40
0.0350000367033978
 50
0.0000597568122984
 51
90.000000000001222
  0
LINE
  5
663F
  8
0
 10
-0.7311556597
 20
8.2287918666999982
 30
0.0
 11
-0.7311547314715663
 21
7.3387917202087856
 31
0.0
  0
ARC
  5
6640
  8
0
 10
-0.7661545482948116
 20
7.3387916837056171
 30
0.0
 40
0.0349998168232642
 50
269.99818059543088
 51
0.000059756812431
  0
LINE
  5
6641
  8
0
 10
-0.7661556597
 20
7.3037918669000002
 30
0.0
 11
-1.3576453643017841
 21
7.3038106494190718
 31
0.0
  0
ARC
  5
6642
  8
0
 10
-1.357646475666481
 20
7.2688121077768848
 30
0.0
 40
0.0349985416598325
 50
89.998180595430554
 51
179.03309935856481
  0
LINE
  5
6643
  8
0
 10
-0.7315146484659403
 20
8.2337918669000008
 30
0.0
 11
-0.7111556597000001
 21
8.2337918669000008
 31
0.0
  0
LINE
  5
6644
  8
0
 10
-0.7111556597000001
 20
8.2337918669000008
 30
0.0
 11
-0.7111556597000001
 21
7.3337918669000004
 31
0.0
  0
LINE
  5
6645
  8
0
 10
-0.7111556597000001
 20
7.3337918669000004
 30
0.0
 11
-0.7315136907769567
 21
7.3337918669000004
 31
0.0
  0
ARC
  5
6646
  8
0
 10
1.003844340299995
 20
7.3937918668999982
 30
0.0
 40
2.2699999999999951
 50
182.27237523789989
 51
203.47741108720001
  0
ARC
  5
6647
  8
0
 10
-1.0965830663384251
 20
6.4814845256811839
 30
0.0
 40
0.0199999946287256
 50
293.97781904148877
 51
23.477411087200359
  0
LINE
  5
6648
  8
0
 10
-1.0884554095000001
 20
6.4632104736000002
 30
0.0
 11
-1.1250049076085931
 21
6.4469545399448061
 31
0.0
  0
ARC
  5
6649
  8
0
 10
-1.13313257219395
 20
6.4652286094440283
 30
0.0
 40
0.0200000136918571
 50
214.22742300099171
 51
293.97781904148712
  0
ARC
  5
664A
  8
0
 10
0.9936382111232893
 20
7.3924135405337017
 30
0.0
 40
2.3397487793482412
 50
182.170687211022
 51
203.6459279165301
  0
LINE
  5
664B
  8
0
 10
-0.7111556597000001
 20
8.1287918669000003
 30
0.0
 11
-0.6911556597000002
 21
8.1287918669000003
 31
0.0
  0
LINE
  5
664C
  8
0
 10
-0.7111556597000001
 20
7.4387918668999999
 30
0.0
 11
-0.6911556597000002
 21
7.4387918668999999
 31
0.0
  0
LINE
  5
664D
  8
0
 10
-0.376155659616294
 20
8.2637918669000001
 30
0.0
 11
-0.6561556597
 21
8.2637918669000001
 31
0.0
  0
ARC
  5
664E
  8
0
 10
-0.6561556597000001
 20
8.2287918668999982
 30
0.0
 40
0.0350000000000002
 50
89.999999999999801
 51
180.0
  0
LINE
  5
664F
  8
0
 10
-0.6911556597000002
 20
8.2287918668999982
 30
0.0
 11
-0.6911556597000002
 21
7.3387918669000003
 31
0.0
  0
ARC
  5
6650
  8
0
 10
-0.6561556597
 20
7.3387918669000003
 30
0.0
 40
0.0350000000000002
 50
180.0
 51
270.0
  0
LINE
  5
6651
  8
0
 10
-0.6561556597
 20
7.3037918669000002
 30
0.0
 11
0.6244156371000001
 21
7.3037918669000002
 31
0.0
  0
ARC
  5
6652
  8
0
 10
0.6244156370999999
 20
7.3387917557952429
 30
0.0
 40
0.0349998888952436
 50
269.99999999999949
 51
359.52920007744689
  0
LINE
  5
6655
  8
0
 10
0.6594143444190638
 20
7.3385041646377056
 30
0.0
 11
0.6665105912999999
 21
8.2285153586000011
 31
0.0
  0
ARC
  5
6656
  8
0
 10
0.63150738500203
 20
8.2287876019753448
 30
0.0
 40
0.0350042649914787
 50
359.55438133982909
 51
89.996459719256563
  0
LINE
  5
6657
  8
0
 10
0.6062118718999999
 20
7.3037918669000002
 30
0.0
 11
0.6062118718999999
 21
7.0866618815999987
 31
0.0
  0
LINE
  5
6658
  8
0
 10
0.6062118718999999
 20
7.0866618815999987
 30
0.0
 11
-0.1385231913
 21
7.0866618815999987
 31
0.0
  0
LINE
  5
6659
  8
0
 10
-0.1385231913
 20
7.0866618815999987
 30
0.0
 11
-0.1385231913
 21
7.3037918669000002
 31
0.0
  0
LINE
  5
72F6
  8
0
 10
6.8577085665999977
 20
6.4868675897000001
 30
0.0
 11
7.602443629799998
 21
6.4868675897000001
 31
0.0
  0
LINE
  5
72F7
  8
0
 10
6.815225998499999
 20
6.7466755661000004
 30
0.0
 11
7.6449261978999967
 21
6.7466755661000004
 31
0.0
  0
LINE
  5
72F8
  8
0
 10
7.6539704640999968
 20
6.9315389338999989
 30
0.0
 11
6.8061817322999989
 21
6.9315389338999989
 31
0.0
  0
LINE
  5
72F9
  8
0
 10
6.8072519395999986
 20
6.9930284871000001
 30
0.0
 11
7.6529002567999971
 21
6.9930284871000001
 31
0.0
  0
LINE
  5
72FA
  8
0
 10
6.8725760981999979
 20
7.8790418880999988
 30
0.0
 11
6.8175760981999991
 21
7.8240418880999982
 31
0.0
  0
LINE
  5
72FB
  8
0
 10
7.6637941876999971
 20
7.6639975749999989
 30
0.0
 11
6.7963580086999986
 21
7.6639975749999989
 31
0.0
  0
LINE
  5
72FC
  8
0
 10
7.6425760981999984
 20
7.8240418880999982
 30
0.0
 11
6.8175760981999991
 21
7.8240418880999982
 31
0.0
  0
LINE
  5
72FD
  8
0
 10
6.8725760981999979
 20
7.8790418880999988
 30
0.0
 11
7.5875760981999978
 21
7.8790418880999988
 31
0.0
  0
LINE
  5
72FE
  8
0
 10
6.855076305199999
 20
8.0190418881000003
 30
0.0
 11
7.6050760981999996
 21
8.0190418881000003
 31
0.0
  0
LINE
  5
72FF
  8
0
 10
6.5435151030999981
 20
8.1790418880999987
 30
0.0
 11
7.9166370932999994
 21
8.1790418880999987
 31
0.0
  0
LINE
  5
7301
  8
0
 10
6.8061817322999989
 20
6.9315389338999989
 30
0.0
 11
6.815225998499999
 21
6.7466755661000004
 31
0.0
  0
LINE
  5
7302
  8
0
 10
6.7813849074999979
 20
7.6483206855999981
 30
0.0
 11
6.8072519395999986
 21
6.9930284871000001
 31
0.0
  0
LINE
  5
7303
  8
0
 10
6.8175760981999991
 20
7.6639975749999989
 30
0.0
 11
6.8175760981999991
 21
7.8240418880999982
 31
0.0
  0
LINE
  5
7304
  8
0
 10
6.8725760981999979
 20
7.8790418880999988
 30
0.0
 11
6.8725760981999979
 21
8.0190418881000003
 31
0.0
  0
LINE
  5
7305
  8
0
 10
7.5875760981999978
 20
7.8790418880999988
 30
0.0
 11
7.5875760981999978
 21
8.0190418881000003
 31
0.0
  0
LINE
  5
7306
  8
0
 10
7.602443629799998
 20
6.7466755661000004
 30
0.0
 11
7.602443629799998
 21
6.4868675897000001
 31
0.0
  0
LINE
  5
7307
  8
0
 10
7.6425760981999984
 20
7.6639975749999989
 30
0.0
 11
7.6425760981999984
 21
7.8240418880999982
 31
0.0
  0
LINE
  5
7308
  8
0
 10
7.6650760981999992
 20
8.1790418880999987
 30
0.0
 11
7.6650760981999992
 21
8.079041888099999
 31
0.0
  0
LINE
  5
7309
  8
0
 10
7.6787672888999978
 20
7.6483206855999981
 30
0.0
 11
7.6529002567999971
 21
6.9930284871000001
 31
0.0
  0
LINE
  5
730A
  8
0
 10
7.6539704640999968
 20
6.9315389338999989
 30
0.0
 11
7.6449261978999967
 21
6.7466755661000004
 31
0.0
  0
LINE
  5
730B
  8
0
 10
7.5875760981999978
 20
7.8790418880999988
 30
0.0
 11
7.6425760981999984
 21
7.8240418880999982
 31
0.0
  0
ARC
  5
730C
  8
0
 10
7.2300760981999996
 20
8.6145418880999998
 30
0.0
 40
1.2399999999999991
 50
290.83751248689998
 51
249.16248751239999
  0
ARC
  5
730D
  8
0
 10
7.2300760981999996
 20
8.6145418880999998
 30
0.0
 40
0.8375
 50
296.38375467330002
 51
243.61417464179991
  0
ARC
  5
730E
  8
0
 10
7.2300760981999996
 20
8.6145418880999998
 30
0.0
 40
0.8224999999999999
 50
296.0344291838
 51
243.96421154309999
  0
ARC
  5
730F
  8
0
 10
7.6050760981999996
 20
8.079041888099999
 30
0.0
 40
0.06
 50
270.0
 51
0.0
  0
ARC
  5
7310
  8
0
 10
7.9166368404999989
 20
8.1990419089999982
 30
0.0
 40
0.0199999925
 50
270.00072428759989
 51
328.81840772189997
  0
LINE
  5
7311
  8
0
 10
6.8577085665999977
 20
6.4868675897000001
 30
0.0
 11
6.8577085665999986
 21
6.7466755660999986
 31
0.0
  0
ARC
  5
7312
  8
0
 10
7.6637991755517723
 20
7.6490134400230794
 30
0.0
 40
0.0149841358074479
 50
357.35012691453272
 51
90.019076503271194
  0
ARC
  5
7313
  8
0
 10
6.796353381376016
 20
7.649013095584662
 30
0.0
 40
0.0149844800298146
 50
89.982306617354567
 51
182.64849373980559
  0
ARC
  5
7314
  8
0
 10
7.6337017522767709
 20
6.9623333242890197
 30
0.0
 40
0.0311951541204228
 50
279.19399609890809
 51
79.727951301335153
  0
ARC
  5
7315
  8
0
 10
6.8264163421750697
 20
6.9623619714605853
 30
0.0
 40
0.0311608979512913
 50
100.2197430866906
 51
261.55510076767291
  0
LINE
  5
7320
  8
0
 10
-0.0161564425351025
 20
7.0866618815999987
 30
0.0
 11
-0.017248830261412
 21
-7.1303075116072954
 31
0.0
  0
LINE
  5
7321
  8
0
 10
0.4838811322
 20
7.0866618815999987
 30
0.0
 11
0.4838811322
 21
-7.088065824277975
 31
0.0
  0
ARC
  5
7322
  8
0
 10
3.7327898192386701
 20
-7.0852757049019042
 30
0.0
 40
3.750309018782259
 50
180.68799516511751
 51
150.03197025597771
  0
ARC
  5
7323
  8
0
 10
3.7329099020646419
 20
-7.073069288241375
 30
0.0
 40
3.2490633794220218
 50
180.26445814464051
 51
173.67509867559579
  0
ARC
  5
7324
  8
0
 10
0.2705326000184081
 20
-6.698568196958302
 30
0.0
 40
0.2336782071916172
 50
335.92347610040741
 51
355.93528654657479
  0
LINE
  5
7325
  8
0
 10
7.47554340746274
 20
-6.8463901220057224
 30
0.0
 11
7.4817206788000004
 21
6.4868675897000001
 31
0.0
  0
LINE
  5
7326
  8
0
 10
6.9817209757000001
 20
6.4868675897000001
 30
0.0
 11
6.9817209757000001
 21
-5.2119727190145717
 31
0.0
  0
ARC
  5
7982
  8
0
 10
6.5435552533958568
 20
8.1991094544410874
 30
0.0
 40
0.0200691416031082
 50
211.2879855347409
 51
269.88637786097581
  0
ATTDEF
  5
7A32
  8
DEFPOINTS
 10
-2.0002514542804848
 20
7.2549990258324391
 30
0.0
 40
0.001
  1
K-9059
  3

  2
MODELNUMBER
 70
     0
1001
ACDBATTR
1070
     0
1070
     1
  0
ATTDEF
  5
7A33
  8
DEFPOINTS
 10
-2.0002514542804848
 20
7.2533323591657712
 30
0.0
 40
0.001
  1
PURIST
  3

  2
TRADENAME
 70
     0
1001
ACDBATTR
1070
     0
1070
     1
  0
ATTDEF
  5
7A34
  8
DEFPOINTS
 10
-2.0002514542804848
 20
7.2516656924991016
 30
0.0
 40
0.001
  1
HANDSHOWER KIT
  3

  2
PRODUCT
 70
     0
1001
ACDBATTR
1070
     0
1070
     1
  0
ATTDEF
  5
7A35
  8
DEFPOINTS
 10
-2.0002514542804848
 20
7.2499990258324374
 30
0.0
 40
0.001
  1
PREMIUM MATERIALS
  3

  2
MATERIAL
 70
     0
1001
ACDBATTR
1070
     0
1070
     1
  0
ENDSEC
  0
EOF
