  0
SECTION
  2
HEADER
  9
$ACADVER
  1
AC1009
  9
$INSBASE
 10
4722.477970059792824
 20
210.0667814001654961
 30
0.0
  9
$EXTMIN
 10
4706.3431213892918095
 20
205.2235185709131997
 30
-0.0015258207003583
  9
$EXTMAX
 10
4722.4919454599166784
 20
211.580984250426809
 30
0.0000000349246037
  9
$LIMMIN
 10
0.0
 20
0.0
  9
$LIMMAX
 10
11.6929133858000007
 20
8.2677165353999982
  9
$ORTHOMODE
 70
     0
  9
$REGENMODE
 70
     1
  9
$FILLMODE
 70
     1
  9
$QTEXTMODE
 70
     0
  9
$MIRRTEXT
 70
     0
  9
$DRAGMODE
 70
     2
  9
$LTSCALE
 40
0.6431102362
  9
$OSMODE
 70
   575
  9
$ATTMODE
 70
     1
  9
$TEXTSIZE
 40
0.2
  9
$TRACEWID
 40
0.05
  9
$TEXTSTYLE
  7
STANDARD
  9
$CLAYER
  8
0
  9
$CELTYPE
  6
BYLAYER
  9
$CECOLOR
 62
   256
  9
$DIMSCALE
 40
1.0
  9
$DIMASZ
 40
0.1875
  9
$DIMEXO
 40
0.0625
  9
$DIMDLI
 40
0.4443307087
  9
$DIMRND
 40
0.0
  9
$DIMDLE
 40
0.0
  9
$DIMEXE
 40
0.125
  9
$DIMTP
 40
0.01
  9
$DIMTM
 40
0.01
  9
$DIMTXT
 40
2.0
  9
$DIMCEN
 40
0.1052362205
  9
$DIMTSZ
 40
0.0
  9
$DIMTOL
 70
     1
  9
$DIMLIM
 70
     0
  9
$DIMTIH
 70
     1
  9
$DIMTOH
 70
     1
  9
$DIMSE1
 70
     0
  9
$DIMSE2
 70
     0
  9
$DIMTAD
 70
     0
  9
$DIMZIN
 70
     0
  9
$DIMBLK
  1

  9
$DIMASO
 70
     1
  9
$DIMSHO
 70
     1
  9
$DIMPOST
  1
\X
  9
$DIMAPOST
  1

  9
$DIMALT
 70
     1
  9
$DIMALTD
 70
     2
  9
$DIMALTF
 40
25.3999999999999986
  9
$DIMLFAC
 40
1.0
  9
$DIMTOFL
 70
     0
  9
$DIMTVP
 40
0.0
  9
$DIMTIX
 70
     0
  9
$DIMSOXD
 70
     0
  9
$DIMSAH
 70
     0
  9
$DIMBLK1
  1

  9
$DIMBLK2
  1

  9
$DIMSTYLE
  2
STANDARD
  9
$DIMCLRD
 70
     0
  9
$DIMCLRE
 70
     0
  9
$DIMCLRT
 70
     0
  9
$DIMTFAC
 40
1.0
  9
$DIMGAP
 40
0.09
  9
$LUNITS
 70
     2
  9
$LUPREC
 70
     4
  9
$SKETCHINC
 40
0.1
  9
$FILLETRAD
 40
0.0
  9
$AUNITS
 70
     0
  9
$AUPREC
 70
     0
  9
$MENU
  1
.
  9
$ELEVATION
 40
0.0
  9
$PELEVATION
 40
0.0
  9
$THICKNESS
 40
0.0
  9
$LIMCHECK
 70
     0
  9
$BLIPMODE
 70
     0
  9
$CHAMFERA
 40
0.0
  9
$CHAMFERB
 40
0.0
  9
$SKPOLY
 70
     0
  9
$TDCREATE
 40
2458060.468368056230247
  9
$TDUPDATE
 40
2459579.7565856478177011
  9
$TDINDWG
 40
0.4145209491
  9
$TDUSRTIMER
 40
0.4145209491
  9
$USRTIMER
 70
     1
  9
$ANGBASE
 50
0.0
  9
$ANGDIR
 70
     0
  9
$PDMODE
 70
     0
  9
$PDSIZE
 40
0.3125
  9
$PLINEWID
 40
0.0
  9
$COORDS
 70
     1
  9
$SPLFRAME
 70
     0
  9
$SPLINETYPE
 70
     6
  9
$SPLINESEGS
 70
     8
  9
$ATTDIA
 70
     1
  9
$ATTREQ
 70
     1
  9
$HANDLING
 70
     1
  9
$HANDSEED
  5
A836
  9
$SURFTAB1
 70
     6
  9
$SURFTAB2
 70
     6
  9
$SURFTYPE
 70
     6
  9
$SURFU
 70
     6
  9
$SURFV
 70
     6
  9
$UCSNAME
  2

  9
$UCSORG
 10
0.0
 20
0.0
 30
0.0
  9
$UCSXDIR
 10
1.0
 20
0.0
 30
0.0
  9
$UCSYDIR
 10
0.0
 20
1.0
 30
0.0
  9
$PUCSNAME
  2

  9
$PUCSORG
 10
0.0
 20
0.0
 30
0.0
  9
$PUCSXDIR
 10
1.0
 20
0.0
 30
0.0
  9
$PUCSYDIR
 10
0.0
 20
1.0
 30
0.0
  9
$USERI1
 70
     0
  9
$USERI2
 70
     0
  9
$USERI3
 70
     0
  9
$USERI4
 70
     0
  9
$USERI5
 70
     0
  9
$USERR1
 40
0.0
  9
$USERR2
 40
0.0
  9
$USERR3
 40
0.0
  9
$USERR4
 40
0.0
  9
$USERR5
 40
0.0
  9
$WORLDVIEW
 70
     1
  9
$SHADEDGE
 70
     3
  9
$SHADEDIF
 70
    70
  9
$TILEMODE
 70
     1
  9
$MAXACTVP
 70
    64
  9
$PLIMCHECK
 70
     0
  9
$PEXTMIN
 10
1.0000000000000000E+20
 20
1.0000000000000000E+20
 30
1.0000000000000000E+20
  9
$PEXTMAX
 10
-1.0000000000000000E+20
 20
-1.0000000000000000E+20
 30
-1.0000000000000000E+20
  9
$PLIMMIN
 10
0.0
 20
0.0
  9
$PLIMMAX
 10
12.0
 20
9.0
  9
$UNITMODE
 70
     0
  9
$VISRETAIN
 70
     1
  9
$PLINEGEN
 70
     0
  9
$PSLTSCALE
 70
     1
  0
ENDSEC
  0
SECTION
  2
TABLES
  0
TABLE
  2
VPORT
 70
     1
  0
VPORT
  2
*ACTIVE
 70
     0
 10
0.0
 20
0.0
 11
1.0
 21
1.0
 12
910.8734659378814058
 22
82.4069891516165853
 13
0.0
 23
0.0
 14
1.0
 24
1.0
 15
0.0
 25
0.0
 16
0.0
 26
0.0
 36
17.1152628219792007
 17
3803.5440673828129547
 27
125.9952621967499056
 37
0.0
 40
9.5186605530336337
 41
2.469551282051281
 42
50.0
 43
0.0
 44
0.0
 50
0.0
 51
0.0
 71
     0
 72
   100
 73
     1
 74
     1
 75
     0
 76
     0
 77
     0
 78
     0
  0
ENDTAB
  0
TABLE
  2
LTYPE
 70
     2
  0
LTYPE
  2
CONTINUOUS
 70
     0
  3
Solid line
 72
    65
 73
     0
 40
0.0
  0
LTYPE
  2
PHANTOM2
 70
     0
  3
___ _ _ ___ _ _ ___ _ _ ___ _ _
 72
    65
 73
     6
 40
1.25
 49
0.625
 49
-0.125
 49
0.125
 49
-0.125
 49
0.125
 49
-0.125
  0
ENDTAB
  0
TABLE
  2
LAYER
 70
     2
  0
LAYER
  2
0
 70
     0
 62
   255
  6
CONTINUOUS
  0
LAYER
  2
DEFPOINTS
 70
     0
 62
     7
  6
CONTINUOUS
  0
ENDTAB
  0
TABLE
  2
STYLE
 70
     1
  0
STYLE
  2
STANDARD
 70
     0
 40
0.0
 41
0.8
 50
0.0
 71
     0
 42
0.2
  3
txt
  4

  0
ENDTAB
  0
TABLE
  2
VIEW
 70
     0
  0
ENDTAB
  0
TABLE
  2
UCS
 70
     0
  0
ENDTAB
  0
TABLE
  2
APPID
 70
     9
  0
APPID
  2
ACAD
 70
     0
  0
APPID
  2
ACAD_MLEADERVER
 70
     0
  0
APPID
  2
ACAD_EXEMPT_FROM_CAD_STANDARDS
 70
     0
  0
APPID
  2
ACAD_NAV_VCDISPLAY
 70
     0
  0
APPID
  2
ACAECLAYERSTANDARD
 70
     0
  0
APPID
  2
ACCMTRANSPARENCY
 70
     0
  0
APPID
  2
ACAD_DSTYLE_DIMJAG
 70
     0
  0
APPID
  2
ACAD_DSTYLE_DIMTALN
 70
     0
  0
APPID
  2
ACDBATTR
 70
     0
  0
ENDTAB
  0
TABLE
  2
DIMSTYLE
 70
     1
  0
DIMSTYLE
  2
STANDARD
 70
     0
  3

  4

  5

  6

  7

 40
1.0
 41
0.1875
 42
0.0625
 43
0.38
 44
0.125
 45
0.0
 46
0.0
 47
0.01
 48
0.01
140
0.15625
141
0.09
142
0.0
143
25.3999999999999986
144
1.0
145
0.0
146
1.0
147
0.09
 71
     1
 72
     0
 73
     1
 74
     1
 75
     0
 76
     0
 77
     0
 78
     4
170
     0
171
     2
172
     0
173
     0
174
     0
175
     0
176
     0
177
     0
178
     0
  0
ENDTAB
  0
ENDSEC
  0
SECTION
  2
BLOCKS
  0
BLOCK
  8
0
  2
$MODEL_SPACE
 70
     0
 10
0.0
 20
0.0
 30
0.0
  3
$MODEL_SPACE
  1

  0
ENDBLK
  5
21
  8
0
  0
BLOCK
 67
     1
  8
0
  2
$PAPER_SPACE
 70
     0
 10
0.0
 20
0.0
 30
0.0
  3
$PAPER_SPACE
  1

  0
ENDBLK
  5
1D
 67
     1
  8
0
  0
ENDSEC
  0
SECTION
  2
ENTITIES
  0
ATTDEF
  5
3930
  8
DEFPOINTS
 10
4722.4780895425528797
 20
210.0702289290198905
 30
0.0
 40
0.001
  1
K-9018
  3

  2
MODELNUMBER
 70
     0
1001
ACDBATTR
1070
     0
1070
     1
  0
ATTDEF
  5
3931
  8
DEFPOINTS
 10
4722.4780895425528797
 20
210.0685622623533106
 30
0.0
 40
0.001
  1

  3

  2
TRADENAME
 70
     0
1001
ACDBATTR
1070
     0
1070
     1
  0
ATTDEF
  5
3932
  8
DEFPOINTS
 10
4722.4780895425528797
 20
210.0668955956865886
 30
0.0
 40
0.001
  1
P-TRAP
  3

  2
PRODUCT
 70
     0
1001
ACDBATTR
1070
     0
1070
     1
  0
LINE
  5
A6D2
  8
0
 10
4722.477970059792824
 20
211.5767814001654017
 30
0.0
 11
4722.477970059792824
 21
208.5567814001653915
 31
0.0
  0
LINE
  5
A6D3
  8
0
 10
4722.477970059792824
 20
208.5567814001653915
 30
0.0
 11
4722.3944421366932147
 21
208.5567814001653915
 31
0.0
  0
ARC
  5
A6D4
  8
0
 10
4722.3944421366932147
 20
208.8067814000440876
 30
0.0
 40
0.249999999878705
 50
227.7979630852902915
 51
270.0
  0
ARC
  5
A6D5
  8
0
 10
4720.883011556999918
 20
207.1400247920907987
 30
0.0
 40
1.9999999973188141
 50
47.7979630852902986
 51
80.6797642686872365
  0
ARC
  5
A6D6
  8
0
 10
4721.2279700596091061
 20
209.2419057638886102
 30
0.0
 40
0.1299999998943667
 50
179.9980114499840909
 51
260.6797642686872223
  0
LINE
  5
A6D7
  8
0
 10
4721.0979700597927149
 20
209.2419102757654059
 30
0.0
 11
4721.0979700597927149
 21
210.8916570363653875
 31
0.0
  0
ARC
  5
A6D8
  8
0
 10
4721.2279700597937335
 20
210.8916570363653875
 30
0.0
 40
0.1300000000000007
 50
99.3202358058238559
 51
180.0
  0
ARC
  5
A6D9
  8
0
 10
4720.8830115556729652
 20
212.9935380110729
 30
0.0
 40
2.0000000003291438
 50
279.3202357556573929
 51
312.2020368879848888
  0
ARC
  5
A6DA
  8
0
 10
4722.3945885061184526
 20
211.3264020952103124
 30
0.0
 40
0.2503793477382643
 50
90.0334945787828076
 51
132.1685423510434987
  0
LINE
  5
A6DB
  8
0
 10
4722.477970059792824
 20
211.5767814001654017
 30
0.0
 11
4722.3944421366932147
 21
211.5767814001654017
 31
0.0
  0
LINE
  5
A6DC
  8
0
 10
4721.0979700597927149
 20
209.4417814001654108
 30
0.0
 11
4711.9779700597937335
 21
209.4417814001654108
 31
0.0
  0
ARC
  5
A6DD
  8
0
 10
4711.9779700597937335
 20
208.5667814001654108
 30
0.0
 40
0.875
 50
90.0
 51
180.0
  0
LINE
  5
A6DE
  8
0
 10
4711.102970059792824
 20
208.5667814001654108
 30
0.0
 11
4711.102970059792824
 21
208.1167814001653937
 31
0.0
  0
LINE
  5
A6DF
  8
0
 10
4709.7326112139289762
 20
208.1167814001653085
 30
0.0
 11
4711.2233289055566274
 21
208.1167814001653085
 31
0.0
  0
ARC
  5
A6E0
  8
0
 10
4711.2233289055566274
 20
208.056781161079698
 30
0.0
 40
0.0600002390855945
 50
30.000219864191191
 51
90.0
  0
LINE
  5
A6E1
  8
0
 10
4711.2752905217175794
 20
208.0867814800178053
 30
0.0
 11
4711.447971207451701
 21
207.7876924093696118
 31
0.0
  0
LINE
  5
A6E2
  8
0
 10
4711.447971207451701
 20
207.7876924093696118
 30
0.0
 11
4711.447971207451701
 21
207.5567814001653915
 31
0.0
  0
LINE
  5
A6E3
  8
0
 10
4711.447971207451701
 20
207.5567814001653915
 30
0.0
 11
4709.5079700597925694
 21
207.5567814001653915
 31
0.0
  0
LINE
  5
A6E4
  8
0
 10
4709.5079700597925694
 20
207.5567814001653915
 30
0.0
 11
4709.5079700597925694
 21
207.7876917467654891
 31
0.0
  0
LINE
  5
A6E5
  8
0
 10
4709.5079700597925694
 20
207.7876917467654891
 30
0.0
 11
4709.6806495977380109
 21
208.0867814799653956
 31
0.0
  0
ARC
  5
A6E6
  8
0
 10
4709.7326109837440526
 20
208.0567815597727872
 30
0.0
 40
0.0599998403929269
 50
89.9997801294717164
 51
150.0000000042155079
  0
LINE
  5
A6E7
  8
0
 10
4709.5079700597925694
 20
207.7876917467654891
 30
0.0
 11
4709.5108685453933504
 21
207.7876917467654891
 31
0.0
  0
LINE
  5
A6E8
  8
0
 10
4709.5108685453933504
 20
207.7876917467654891
 30
0.0
 11
4709.5108685453933504
 21
207.5567814001653915
 31
0.0
  0
ARC
  5
A6E9
  8
0
 10
4710.1055153705283374
 20
207.3963227953722139
 30
0.0
 40
0.7118809610858156
 50
138.4717508248592992
 51
146.6489422904880087
  0
ARC
  5
A6EA
  8
0
 10
4709.8122153338108546
 20
207.6603813027907108
 30
0.0
 40
0.3172565337121845
 50
121.6880213515131004
 51
139.0545623586945112
  0
ARC
  5
A6EB
  8
0
 10
4709.7206637930394209
 20
207.8122803760049067
 30
0.0
 40
0.1399237216629302
 50
53.4670845120291816
 51
122.4613501273760932
  0
ARC
  5
A6EC
  8
0
 10
4709.602483384007428
 20
207.6312755122102089
 30
0.0
 40
0.3559446621318806
 50
39.4472688604399409
 51
55.5262558702074784
  0
ARC
  5
A6ED
  8
0
 10
4709.3030766158590268
 20
207.3733656874707094
 30
0.0
 40
0.7510701128449304
 50
33.4801219166082618
 51
40.128288722026852
  0
LINE
  5
A6EE
  8
0
 10
4709.9295271174933077
 20
207.7876917467654891
 30
0.0
 11
4709.9295271174933077
 21
207.5567814001653915
 31
0.0
  0
LINE
  5
A6EF
  8
0
 10
4709.9295271174933077
 20
207.7876917467654891
 30
0.0
 11
4710.0593114876928666
 21
207.7876917467654891
 31
0.0
  0
LINE
  5
A6F0
  8
0
 10
4710.0593114876928666
 20
207.7876917467654891
 30
0.0
 11
4710.0593114876928666
 21
207.5567814001653915
 31
0.0
  0
ARC
  5
A6F1
  8
0
 10
4710.6704879389471898
 20
206.9847314394673958
 30
0.0
 40
1.009099553891291
 50
116.208759940924196
 51
127.2767220952397054
  0
ARC
  5
A6F2
  8
0
 10
4710.4932348748661752
 20
207.3514019074416979
 30
0.0
 40
0.6018506057854364
 50
95.6989473349429716
 51
116.4855652494211
  0
ARC
  5
A6F3
  8
0
 10
4710.4776712440852862
 20
207.4254177562999075
 30
0.0
 40
0.5267179499077085
 50
71.713934028672071
 51
94.813797727197354
  0
ARC
  5
A6F4
  8
0
 10
4710.4086732835949078
 20
207.214408178227103
 30
0.0
 40
0.7487211542442596
 50
59.4553332787983067
 51
71.7669660805853908
  0
ARC
  5
A6F5
  8
0
 10
4710.2253105351937847
 20
206.8958801989857079
 30
0.0
 40
1.116241830299314
 50
53.0291096379348801
 51
59.6586478820720885
  0
LINE
  5
A6F6
  8
0
 10
4710.8966286318936909
 20
207.7876917467654891
 30
0.0
 11
4710.8966286318936909
 21
207.5567814001653915
 31
0.0
  0
LINE
  5
A6F7
  8
0
 10
4710.8966286318936909
 20
207.7876917467654891
 30
0.0
 11
4711.0264130019932054
 21
207.7876917467654891
 31
0.0
  0
LINE
  5
A6F8
  8
0
 10
4711.0264130019932054
 20
207.7876917467654891
 30
0.0
 11
4711.0264130019932054
 21
207.5567814001653915
 31
0.0
  0
ARC
  5
A6F9
  8
0
 10
4711.5529947136328701
 20
207.4478619222234101
 30
0.0
 40
0.6267157319564834
 50
136.2142966609569896
 51
147.1637999936212964
  0
ARC
  5
A6FA
  8
0
 10
4711.2986492343661666
 20
207.696508508378713
 30
0.0
 40
0.27106381460622
 50
117.3309655748154938
 51
136.9559177601489921
  0
ARC
  5
A6FB
  8
0
 10
4711.2357173150758172
 20
207.8179618974816094
 30
0.0
 40
0.1342745227084142
 50
63.0930014713889591
 51
117.2695551910074983
  0
ARC
  5
A6FC
  8
0
 10
4711.1519607804730185
 20
207.6665442041922063
 30
0.0
 40
0.3072654417779448
 50
39.04060014638398
 51
61.9431265786972318
  0
ARC
  5
A6FD
  8
0
 10
4710.8248713357861561
 20
207.3778045489513886
 30
0.0
 40
0.7434082663842139
 50
33.4605140624060269
 51
40.4465230523341077
  0
LINE
  5
A6FE
  8
0
 10
4711.4450715740922533
 20
207.7876917467654891
 30
0.0
 11
4711.447971207451701
 21
207.7876917467654891
 31
0.0
  0
LINE
  5
A6FF
  8
0
 10
4711.4450715740922533
 20
207.7876917467654891
 30
0.0
 11
4711.4450715740922533
 21
207.5567814001653915
 31
0.0
  0
ARC
  5
A700
  8
0
 10
4711.1611340047529666
 20
207.4967621978800025
 30
0.0
 40
0.0600190569849597
 50
90.0174493531496438
 51
177.6217262013387028
  0
ARC
  5
A701
  8
0
 10
4708.9779700597937335
 20
207.5867814001653926
 30
0.0
 40
2.1249999999999969
 50
287.5469470951293829
 51
357.6393229295001106
  0
ARC
  5
A702
  8
0
 10
4709.6469938249520055
 20
205.4710125099400102
 30
0.0
 40
0.0940247411425646
 50
107.5573686672937015
 51
179.9833353461611978
  0
LINE
  5
A703
  8
0
 10
4709.5529690877865505
 20
205.4710398573249961
 30
0.0
 11
4709.5529700597926421
 21
205.3967814001653949
 31
0.0
  0
LINE
  5
A704
  8
0
 10
4709.5529700597926421
 20
205.3967814001653949
 30
0.0
 11
4708.4029700597920964
 21
205.3967814001653949
 31
0.0
  0
LINE
  5
A705
  8
0
 10
4708.4079700597931151
 20
205.3967814001653949
 30
0.0
 11
4708.4079700597931151
 21
205.3467814001654119
 31
0.0
  0
LINE
  5
A706
  8
0
 10
4708.4079700597931151
 20
205.3467814001654119
 30
0.0
 11
4709.5479700597934425
 21
205.3467814001654119
 31
0.0
  0
LINE
  5
A707
  8
0
 10
4709.5479700597934425
 20
205.3467814001654119
 30
0.0
 11
4709.5479700597934425
 21
205.3967814001653949
 31
0.0
  0
LINE
  5
A708
  8
0
 10
4709.5379700597932242
 20
205.3467814001654119
 30
0.0
 11
4709.5904700597930059
 21
205.316470511065404
 31
0.0
  0
LINE
  5
A709
  8
0
 10
4709.5904700597930059
 20
205.316470511065404
 30
0.0
 11
4709.5904700597930059
 21
205.2620922892654107
 31
0.0
  0
LINE
  5
A70A
  8
0
 10
4709.5904700597930059
 20
205.2620922892654107
 30
0.0
 11
4709.5379700597932242
 21
205.2317814001654028
 31
0.0
  0
LINE
  5
A70B
  8
0
 10
4709.5379700597932242
 20
205.2317814001654028
 30
0.0
 11
4708.4179700597942428
 21
205.2317814001654028
 31
0.0
  0
LINE
  5
A70C
  8
0
 10
4708.4179700597942428
 20
205.2317814001654028
 30
0.0
 11
4708.3654700597935516
 21
205.2620922892654107
 31
0.0
  0
LINE
  5
A70D
  8
0
 10
4708.3654700597935516
 20
205.2620922892654107
 30
0.0
 11
4708.3654700597935516
 21
205.316470511065404
 31
0.0
  0
LINE
  5
A70E
  8
0
 10
4708.3654700597935516
 20
205.316470511065404
 30
0.0
 11
4708.4179700597942428
 21
205.3467814001654119
 31
0.0
  0
LINE
  5
A70F
  8
0
 10
4708.3654700597935516
 20
205.316470511065404
 30
0.0
 11
4708.3696387736927136
 21
205.316470511065404
 31
0.0
  0
LINE
  5
A710
  8
0
 10
4708.3696387736927136
 20
205.316470511065404
 30
0.0
 11
4708.3696387736927136
 21
205.2620922892654107
 31
0.0
  0
LINE
  5
A711
  8
0
 10
4708.3696387736927136
 20
205.2620922892654107
 30
0.0
 11
4708.3654700597935516
 21
205.2620922892654107
 31
0.0
  0
ARC
  5
A712
  8
0
 10
4708.5050213910981256
 20
205.5501855555831128
 30
0.0
 40
0.318317739362449
 50
244.8299318546268921
 51
260.5502083799279944
  0
ARC
  5
A713
  8
0
 10
4708.4908691160007947
 20
205.4795024016410139
 30
0.0
 40
0.2462814615111054
 50
261.0981470832097102
 51
280.3248460116842011
  0
ARC
  5
A714
  8
0
 10
4708.4748837229199125
 20
205.5549134540169973
 30
0.0
 40
0.3233440146746455
 50
280.7165818247640914
 51
295.0954407097880789
  0
LINE
  5
A715
  8
0
 10
4708.6120227665933271
 20
205.2620922892654107
 30
0.0
 11
4708.6120227665933271
 21
205.316470511065404
 31
0.0
  0
ARC
  5
A716
  8
0
 10
4708.4651779513997099
 20
204.9985315356530862
 30
0.0
 40
0.350212209717716
 50
65.2094479534243021
 51
74.007551376153188
  0
ARC
  5
A717
  8
0
 10
4708.4891051214917752
 20
205.0824357667812023
 30
0.0
 40
0.2629630736556021
 50
73.982414129406024
 51
87.4613249752738966
  0
ARC
  5
A718
  8
0
 10
4708.4910871529591532
 20
205.0929041374589019
 30
0.0
 40
0.2524217404385744
 50
87.8055267412980243
 51
103.9693338170134069
  0
ARC
  5
A719
  8
0
 10
4708.5124727861857536
 20
205.00867976824739
 30
0.0
 40
0.3393179872761298
 50
104.0404522303593069
 51
114.8942268771074993
  0
LINE
  5
A71A
  8
0
 10
4708.4029700597920964
 20
205.3967814001653949
 30
0.0
 11
4708.4029902872343882
 21
205.4710123631764134
 31
0.0
  0
ARC
  5
A71B
  8
0
 10
4708.3089130961852788
 20
205.4709687889763075
 30
0.0
 40
0.0940772011396963
 50
0.0265379689980414
 51
72.4307630494048595
  0
LINE
  5
A71C
  8
0
 10
4708.6120227665933271
 20
205.316470511065404
 30
0.0
 11
4708.7355860668922105
 21
205.316470511065404
 31
0.0
  0
LINE
  5
A71D
  8
0
 10
4708.7355860668922105
 20
205.316470511065404
 30
0.0
 11
4708.7355860668922105
 21
205.2620922892654107
 31
0.0
  0
LINE
  5
A71E
  8
0
 10
4708.7355860668922105
 20
205.2620922892654107
 30
0.0
 11
4708.6120227665933271
 21
205.2620922892654107
 31
0.0
  0
ARC
  5
A71F
  8
0
 10
4709.0021485123797902
 20
204.161470007481114
 30
0.0
 40
1.185361421940144
 50
97.124860510622824
 51
102.9957409216349049
  0
ARC
  5
A720
  8
0
 10
4708.9782360827121011
 20
204.3527736724689134
 30
0.0
 40
0.9925690555704628
 50
90.0153559579254789
 51
97.124860510622824
  0
ARC
  5
A721
  8
0
 10
4708.9782337820615794
 20
204.3613577995398884
 30
0.0
 40
0.98398492819117
 50
82.8634038492527338
 51
90.0153559579254789
  0
ARC
  5
A722
  8
0
 10
4708.9517869952251203
 20
204.1501303719749956
 30
0.0
 40
1.196861556052764
 50
77.0328276711571363
 51
82.8634038492527338
  0
LINE
  5
A723
  8
0
 10
4709.2203540525933931
 20
205.316470511065404
 30
0.0
 11
4709.2203540525933931
 21
205.2620922892654107
 31
0.0
  0
ARC
  5
A724
  8
0
 10
4708.9448558569756642
 20
206.4637322994738895
 30
0.0
 40
1.232817086968711
 50
278.262169142022401
 51
282.9129517190688716
  0
ARC
  5
A725
  8
0
 10
4708.9767579615581781
 20
206.2440359098511067
 30
0.0
 40
1.0108165286585611
 50
270.0687049805193283
 51
278.262169142022401
  0
ARC
  5
A726
  8
0
 10
4708.9767928436740476
 20
206.2149463570139005
 30
0.0
 40
0.9817269549073566
 50
261.094975030876526
 51
270.0687049805193283
  0
ARC
  5
A727
  8
0
 10
4709.0099345048392934
 20
206.4567026916402028
 30
0.0
 40
1.225708398790468
 50
257.0660023318476988
 51
261.3137882096100952
  0
LINE
  5
A728
  8
0
 10
4709.2203540525933931
 20
205.316470511065404
 30
0.0
 11
4709.3439173529932305
 21
205.316470511065404
 31
0.0
  0
LINE
  5
A729
  8
0
 10
4709.3439173529932305
 20
205.316470511065404
 30
0.0
 11
4709.3439173529932305
 21
205.2620922892654107
 31
0.0
  0
LINE
  5
A72A
  8
0
 10
4709.3439173529932305
 20
205.2620922892654107
 30
0.0
 11
4709.2203540525933931
 21
205.2620922892654107
 31
0.0
  0
ARC
  5
A72B
  8
0
 10
4709.480436544996337
 20
205.0252865732329042
 30
0.0
 40
0.3215984692700457
 50
100.2497477874787961
 51
115.1191454339631974
  0
ARC
  5
A72C
  8
0
 10
4709.4652851687878865
 20
205.096144416215509
 30
0.0
 40
0.2491860143640725
 50
75.5100077415612105
 51
99.7206227170857744
  0
ARC
  5
A72D
  8
0
 10
4709.4427444527609623
 20
205.0068233693943114
 30
0.0
 40
0.3413062171742915
 50
65.126878940131121
 51
75.5982031691745107
  0
LINE
  5
A72E
  8
0
 10
4709.5863013457928901
 20
205.316470511065404
 30
0.0
 11
4709.5904700597930059
 21
205.316470511065404
 31
0.0
  0
LINE
  5
A72F
  8
0
 10
4709.5863013457928901
 20
205.316470511065404
 30
0.0
 11
4709.5863013457928901
 21
205.2620922892654107
 31
0.0
  0
LINE
  5
A730
  8
0
 10
4709.5863013457928901
 20
205.2620922892654107
 30
0.0
 11
4709.5904700597930059
 21
205.2620922892654107
 31
0.0
  0
ARC
  5
A731
  8
0
 10
4709.4792217414888
 20
205.5499850300550122
 30
0.0
 40
0.3181029829245934
 50
244.8273230757056922
 51
260.625201714334878
  0
ARC
  5
A732
  8
0
 10
4709.4652420991942563
 20
205.4813600279128138
 30
0.0
 40
0.2481311451033372
 50
261.2289170762963977
 51
283.1864945669877898
  0
ARC
  5
A733
  8
0
 10
4709.4447560557182442
 20
205.5666050117177122
 30
0.0
 40
0.3358021251836097
 50
283.2717516008387975
 51
294.9302082908452007
  0
ARC
  5
A734
  8
0
 10
4708.9779680969468245
 20
207.5867807581055047
 30
0.0
 40
2.124998037153885
 50
179.9999826883000935
 51
252.453125765504609
  0
LINE
  5
A735
  8
0
 10
4706.852970059792824
 20
207.5867814001653926
 30
0.0
 11
4706.8529701244769967
 21
207.8008625903653979
 31
0.0
  0
ARC
  5
A736
  8
0
 10
4706.7279704745869822
 20
207.8008626281335864
 30
0.0
 40
0.124999649888871
 50
359.9999826883001219
 51
38.0011041758179715
  0
ARC
  5
A737
  8
0
 10
4706.9249694045729484
 20
207.9547811745150909
 30
0.0
 40
0.1249993447793931
 50
179.9998965689740089
 51
218.0011041758178862
  0
LINE
  5
A738
  8
0
 10
4706.7999700597929404
 20
207.9547814001653876
 30
0.0
 11
4706.7999728734803284
 21
209.5134276811629093
 31
0.0
  0
ARC
  5
A739
  8
0
 10
4706.6749822444671736
 20
209.5134279067974887
 30
0.0
 40
0.1249906290137368
 50
359.9998965689741226
 51
40.8031377860415887
  0
ARC
  5
A73A
  8
0
 10
4706.8641991124222841
 20
209.6767736099644992
 30
0.0
 40
0.124979052872874
 50
179.9964286364580914
 51
220.8031377860415887
  0
LINE
  5
A73B
  8
0
 10
4706.7392200597942065
 20
209.676781400165396
 30
0.0
 11
4706.7392219297553311
 21
209.7067814001071042
 31
0.0
  0
LINE
  5
A73C
  8
0
 10
4706.5079700597925694
 20
209.7067814001653971
 30
0.0
 11
4708.4479700597921692
 21
209.7067814001653971
 31
0.0
  0
LINE
  5
A73D
  8
0
 10
4708.4479700597921692
 20
209.7067814001653971
 30
0.0
 11
4708.4479700597921692
 21
209.9376917467654096
 31
0.0
  0
LINE
  5
A73E
  8
0
 10
4708.4479700597921692
 20
209.9376917467654096
 30
0.0
 11
4708.2752905217466832
 21
210.2367814799654013
 31
0.0
  0
ARC
  5
A73F
  8
0
 10
4708.2233291357269991
 20
210.2067815597469007
 30
0.0
 40
0.0599998404185643
 50
30.000000010154551
 51
90.0000879819891537
  0
LINE
  5
A740
  8
0
 10
4708.2233290435933668
 20
210.2667814001653994
 30
0.0
 11
4706.7326112139298857
 21
210.266779111056195
 31
0.0
  0
ARC
  5
A741
  8
0
 10
4706.7326113060680655
 20
210.2067764229643956
 30
0.0
 40
0.0600026880919066
 50
90.0000879819891537
 51
149.9959059800883949
  0
LINE
  5
A742
  8
0
 10
4706.6806495977380109
 20
210.2367814799654013
 30
0.0
 11
4706.5079700597925694
 21
209.9376917467654096
 31
0.0
  0
LINE
  5
A743
  8
0
 10
4706.5079700597925694
 20
209.9376917467654096
 30
0.0
 11
4706.5079486890163025
 21
209.7067814001653971
 31
0.0
  0
LINE
  5
A744
  8
0
 10
4706.5079700597925694
 20
209.9376917467654096
 30
0.0
 11
4706.5108685453933504
 21
209.9376917467654096
 31
0.0
  0
LINE
  5
A745
  8
0
 10
4706.5108685453933504
 20
209.9376917467654096
 30
0.0
 11
4706.5108685453933504
 21
209.7067814001653971
 31
0.0
  0
ARC
  5
A746
  8
0
 10
4707.0301851351223377
 20
209.6027343774318012
 30
0.0
 40
0.6179693840622436
 50
135.0566743136857042
 51
147.1781265890782038
  0
ARC
  5
A747
  8
0
 10
4706.77990537795813
 20
209.8525194935774039
 30
0.0
 40
0.2643699481266478
 50
118.4109240666874001
 51
135.0566743136857042
  0
ARC
  5
A748
  8
0
 10
4706.7202138176062363
 20
209.9665679896361041
 30
0.0
 40
0.1356683653411558
 50
60.6497409260812077
 51
119.1547265506865045
  0
ARC
  5
A749
  8
0
 10
4706.6121678143117606
 20
209.7868288072259872
 30
0.0
 40
0.3453481125675173
 50
36.8487630278240204
 51
59.6412180894464612
  0
ARC
  5
A74A
  8
0
 10
4706.2634326121633421
 20
209.4951480254337923
 30
0.0
 40
0.7997042173960889
 50
33.5994981320827293
 51
38.5879530391213308
  0
LINE
  5
A74B
  8
0
 10
4706.9295271174942172
 20
209.9376917467654096
 30
0.0
 11
4706.9295271174942172
 21
209.7067814001653971
 31
0.0
  0
LINE
  5
A74C
  8
0
 10
4706.9295271174942172
 20
209.9376917467654096
 30
0.0
 11
4707.0593114876928666
 21
209.9376917467654096
 31
0.0
  0
LINE
  5
A74D
  8
0
 10
4707.0593114876928666
 20
209.9376917467654096
 30
0.0
 11
4707.0593114876928666
 21
209.7067814001653971
 31
0.0
  0
ARC
  5
A74E
  8
0
 10
4707.7019050211947615
 20
209.0881482861151142
 30
0.0
 40
1.0651997656929091
 50
118.8265441623211984
 51
127.1038122080770023
  0
ARC
  5
A74F
  8
0
 10
4707.5101962551343604
 20
209.4491877996987057
 30
0.0
 40
0.6564934007145676
 50
100.4667105011613017
 51
119.3611841227842945
  0
ARC
  5
A750
  8
0
 10
4707.4784381010649668
 20
209.5796930957247071
 30
0.0
 40
0.5224444579907832
 50
71.3648483645297773
 51
99.6418008654255232
  0
ARC
  5
A751
  8
0
 10
4707.4040327399661692
 20
209.3536726956158986
 30
0.0
 40
0.7603926677756374
 50
58.8069018214812615
 51
71.4943185241279053
  0
ARC
  5
A752
  8
0
 10
4707.2159745846047372
 20
209.0324778748745871
 30
0.0
 40
1.1325643849046361
 50
53.0595344057259624
 51
59.0843624973810222
  0
LINE
  5
A753
  8
0
 10
4707.8966286318927814
 20
209.9376917467654096
 30
0.0
 11
4707.8966286318927814
 21
209.7067814001653971
 31
0.0
  0
LINE
  5
A754
  8
0
 10
4707.8966286318927814
 20
209.9376917467654096
 30
0.0
 11
4708.0264130019932054
 21
209.9376917467654096
 31
0.0
  0
LINE
  5
A755
  8
0
 10
4708.0264130019932054
 20
209.9376917467654096
 30
0.0
 11
4708.0264130019932054
 21
209.7067814001653971
 31
0.0
  0
LINE
  5
A756
  8
0
 10
4708.4479700597921692
 20
209.9376917467654096
 30
0.0
 11
4708.4450715740931628
 21
209.9376917467654096
 31
0.0
  0
LINE
  5
A757
  8
0
 10
4708.4450715740931628
 20
209.9376917467654096
 30
0.0
 11
4708.4450715740931628
 21
209.7067814001653971
 31
0.0
  0
ARC
  5
A758
  8
0
 10
4707.8118477006473768
 20
209.5177622870805862
 30
0.0
 40
0.7598113088214392
 50
33.5507907724316183
 51
40.5804722023820332
  0
ARC
  5
A759
  8
0
 10
4708.1225742461692789
 20
209.7869873537713943
 30
0.0
 40
0.3486894670482111
 50
40.1956102852515471
 51
55.411685601804578
  0
ARC
  5
A75A
  8
0
 10
4708.2243167494416412
 20
209.933043352872005
 30
0.0
 40
0.1706938901702413
 50
55.6960854714230678
 51
76.9360115524405899
  0
ARC
  5
A75B
  8
0
 10
4708.2355419676941892
 20
209.9672655748078967
 30
0.0
 40
0.1348580122400611
 50
78.2953213344376167
 51
117.8328972676162039
  0
ARC
  5
A75C
  8
0
 10
4708.3164094298108466
 20
209.8218696316656064
 30
0.0
 40
0.3012119565530838
 50
118.5229452628507971
 51
139.7026544712225871
  0
ARC
  5
A75D
  8
0
 10
4708.6256119401859905
 20
209.5430253792654867
 30
0.0
 40
0.7174962781550267
 50
138.6887654338655125
 51
146.628835806609402
  0
LINE
  5
A75E
  8
0
 10
4708.2167200597941701
 20
209.7067814001653971
 30
0.0
 11
4708.2167200597941701
 21
209.676781400165396
 31
0.0
  0
ARC
  5
A75F
  8
0
 10
4708.0917200597014016
 20
209.676781400165396
 30
0.0
 40
0.1250000000916103
 50
319.200433577514616
 51
0.0
  0
ARC
  5
A760
  8
0
 10
4708.2809700600064389
 20
209.5134276810863128
 30
0.0
 40
0.1250000002126285
 50
139.2004335775145876
 51
179.9999999637541066
  0
LINE
  5
A761
  8
0
 10
4708.1559700597927076
 20
209.5134276811654104
 30
0.0
 11
4708.1559700588077249
 21
207.9547814001653876
 31
0.0
  0
ARC
  5
A762
  8
0
 10
4708.0309700548159526
 20
207.9547814002445136
 30
0.0
 40
0.1250000039912926
 50
321.9990006039822106
 51
359.9999999637540782
  0
ARC
  5
A763
  8
0
 10
4708.2279700684357522
 20
207.8008625873897017
 30
0.0
 40
0.1250000086419637
 50
141.9990006039822106
 51
179.9999986360168975
  0
LINE
  5
A764
  8
0
 10
4708.102970059792824
 20
207.8008625903653979
 30
0.0
 11
4708.1029700546969252
 21
207.5867814001653926
 31
0.0
  0
ARC
  5
A765
  8
0
 10
4708.9779731536573308
 20
207.5867813793350933
 30
0.0
 40
0.8750030989603897
 50
179.9999986360153059
 51
353.6599393486653184
  0
ARC
  5
A766
  8
0
 10
4709.7879885506708888
 20
207.4967815447770931
 30
0.0
 40
0.0600031519543662
 50
353.6599393486653184
 51
89.3994025549088747
  0
LINE
  5
A767
  8
0
 10
4709.852970059792824
 20
208.1167814001653937
 30
0.0
 11
4709.852970059792824
 21
208.5667814001654108
 31
0.0
  0
ARC
  5
A768
  8
0
 10
4711.9779700597937335
 20
208.5667814001654108
 30
0.0
 40
2.125
 50
90.0
 51
180.0
  0
LINE
  5
A769
  8
0
 10
4711.9779700597937335
 20
210.6917814001654108
 30
0.0
 11
4721.0979700597927149
 21
210.6917814001654108
 31
0.0
  0
ARC
  5
A76A
  8
0
 10
4711.3988415180228913
 20
200.618270572103313
 30
0.0
 40
5.8137903204688914
 50
116.7784668661523995
 51
121.7758834681435047
  0
ARC
  5
A76B
  8
0
 10
4708.9751440147010726
 20
205.4429828293970957
 30
0.0
 40
0.4146454972145197
 50
67.3156495163671593
 51
118.1558694079242002
  0
ARC
  5
A76C
  8
0
 10
4707.2353572004976741
 20
201.7837609657086944
 30
0.0
 40
4.4659744758269042
 50
57.7475235613288831
 51
64.8258441414517961
  0
LINE
  5
A76D
  8
0
 10
4706.8264700612780871
 20
207.877821993348789
 30
0.0
 11
4708.1299954362921198
 21
207.8784991951027905
 31
0.0
  0
LINE
  5
A76E
  8
0
 10
4706.7695950598163108
 20
209.5951045406226001
 30
0.0
 11
4708.186341765565885
 21
209.5951007240350066
 31
0.0
  0
LINE
  5
A76F
  8
0
 10
4722.2265054054887514
 20
208.6215862212418131
 30
0.0
 11
4722.2265054055924338
 21
211.5119765790653901
 31
0.0
  0
ENDSEC
  0
EOF
