  0
SECTION
  2
HEADER
  9
$ACADVER
  1
AC1009
  9
$INSBASE
 10
4708.4631850522609966
 20
217.3633292325067998
 30
0.0
  9
$EXTMIN
 10
4706.9531850522607783
 20
201.393329232506801
 30
0.0
  9
$EXTMAX
 10
4709.9731850522621244
 20
217.3677015996179023
 30
0.0
  9
$LIMMIN
 10
0.0
 20
0.0
  9
$LIMMAX
 10
11.6929133858000007
 20
8.2677165353999982
  9
$ORTHOMODE
 70
     0
  9
$REGENMODE
 70
     1
  9
$FILLMODE
 70
     1
  9
$QTEXTMODE
 70
     0
  9
$MIRRTEXT
 70
     0
  9
$DRAGMODE
 70
     2
  9
$LTSCALE
 40
0.6431102362
  9
$OSMODE
 70
   575
  9
$ATTMODE
 70
     1
  9
$TEXTSIZE
 40
0.2
  9
$TRACEWID
 40
0.05
  9
$TEXTSTYLE
  7
STANDARD
  9
$CLAYER
  8
0
  9
$CELTYPE
  6
BYLAYER
  9
$CECOLOR
 62
   256
  9
$DIMSCALE
 40
1.0
  9
$DIMASZ
 40
0.1875
  9
$DIMEXO
 40
0.0625
  9
$DIMDLI
 40
0.4443307087
  9
$DIMRND
 40
0.0
  9
$DIMDLE
 40
0.0
  9
$DIMEXE
 40
0.125
  9
$DIMTP
 40
0.01
  9
$DIMTM
 40
0.01
  9
$DIMTXT
 40
2.0
  9
$DIMCEN
 40
0.1052362205
  9
$DIMTSZ
 40
0.0
  9
$DIMTOL
 70
     1
  9
$DIMLIM
 70
     0
  9
$DIMTIH
 70
     1
  9
$DIMTOH
 70
     1
  9
$DIMSE1
 70
     0
  9
$DIMSE2
 70
     0
  9
$DIMTAD
 70
     0
  9
$DIMZIN
 70
     0
  9
$DIMBLK
  1

  9
$DIMASO
 70
     1
  9
$DIMSHO
 70
     1
  9
$DIMPOST
  1
\X
  9
$DIMAPOST
  1

  9
$DIMALT
 70
     1
  9
$DIMALTD
 70
     2
  9
$DIMALTF
 40
25.3999999999999986
  9
$DIMLFAC
 40
1.0
  9
$DIMTOFL
 70
     0
  9
$DIMTVP
 40
0.0
  9
$DIMTIX
 70
     0
  9
$DIMSOXD
 70
     0
  9
$DIMSAH
 70
     0
  9
$DIMBLK1
  1

  9
$DIMBLK2
  1

  9
$DIMSTYLE
  2
STANDARD
  9
$DIMCLRD
 70
     0
  9
$DIMCLRE
 70
     0
  9
$DIMCLRT
 70
     0
  9
$DIMTFAC
 40
1.0
  9
$DIMGAP
 40
0.09
  9
$LUNITS
 70
     2
  9
$LUPREC
 70
     4
  9
$SKETCHINC
 40
0.1
  9
$FILLETRAD
 40
0.0
  9
$AUNITS
 70
     0
  9
$AUPREC
 70
     0
  9
$MENU
  1
.
  9
$ELEVATION
 40
0.0
  9
$PELEVATION
 40
0.0
  9
$THICKNESS
 40
0.0
  9
$LIMCHECK
 70
     0
  9
$BLIPMODE
 70
     0
  9
$CHAMFERA
 40
0.0
  9
$CHAMFERB
 40
0.0
  9
$SKPOLY
 70
     0
  9
$TDCREATE
 40
2458060.468368056230247
  9
$TDUPDATE
 40
2459579.7555787041783333
  9
$TDINDWG
 40
0.4145325231
  9
$TDUSRTIMER
 40
0.4145325231
  9
$USRTIMER
 70
     1
  9
$ANGBASE
 50
0.0
  9
$ANGDIR
 70
     0
  9
$PDMODE
 70
     0
  9
$PDSIZE
 40
0.3125
  9
$PLINEWID
 40
0.0
  9
$COORDS
 70
     1
  9
$SPLFRAME
 70
     0
  9
$SPLINETYPE
 70
     6
  9
$SPLINESEGS
 70
     8
  9
$ATTDIA
 70
     1
  9
$ATTREQ
 70
     1
  9
$HANDLING
 70
     1
  9
$HANDSEED
  5
A750
  9
$SURFTAB1
 70
     6
  9
$SURFTAB2
 70
     6
  9
$SURFTYPE
 70
     6
  9
$SURFU
 70
     6
  9
$SURFV
 70
     6
  9
$UCSNAME
  2

  9
$UCSORG
 10
0.0
 20
0.0
 30
0.0
  9
$UCSXDIR
 10
1.0
 20
0.0
 30
0.0
  9
$UCSYDIR
 10
0.0
 20
1.0
 30
0.0
  9
$PUCSNAME
  2

  9
$PUCSORG
 10
0.0
 20
0.0
 30
0.0
  9
$PUCSXDIR
 10
1.0
 20
0.0
 30
0.0
  9
$PUCSYDIR
 10
0.0
 20
1.0
 30
0.0
  9
$USERI1
 70
     0
  9
$USERI2
 70
     0
  9
$USERI3
 70
     0
  9
$USERI4
 70
     0
  9
$USERI5
 70
     0
  9
$USERR1
 40
0.0
  9
$USERR2
 40
0.0
  9
$USERR3
 40
0.0
  9
$USERR4
 40
0.0
  9
$USERR5
 40
0.0
  9
$WORLDVIEW
 70
     1
  9
$SHADEDGE
 70
     3
  9
$SHADEDIF
 70
    70
  9
$TILEMODE
 70
     1
  9
$MAXACTVP
 70
    64
  9
$PLIMCHECK
 70
     0
  9
$PEXTMIN
 10
1.0000000000000000E+20
 20
1.0000000000000000E+20
 30
1.0000000000000000E+20
  9
$PEXTMAX
 10
-1.0000000000000000E+20
 20
-1.0000000000000000E+20
 30
-1.0000000000000000E+20
  9
$PLIMMIN
 10
0.0
 20
0.0
  9
$PLIMMAX
 10
12.0
 20
9.0
  9
$UNITMODE
 70
     0
  9
$VISRETAIN
 70
     1
  9
$PLINEGEN
 70
     0
  9
$PSLTSCALE
 70
     1
  0
ENDSEC
  0
SECTION
  2
TABLES
  0
TABLE
  2
VPORT
 70
     1
  0
VPORT
  2
*ACTIVE
 70
     0
 10
0.0
 20
0.0
 11
1.0
 21
1.0
 12
904.9191176600397739
 22
83.385253188111875
 13
0.0
 23
0.0
 14
1.0
 24
1.0
 15
0.0
 25
0.0
 16
0.0
 26
0.0
 36
17.1152628219792007
 17
3803.5440673828129547
 27
125.9952621967499056
 37
0.0
 40
23.3852031759685097
 41
2.469551282051281
 42
50.0
 43
0.0
 44
0.0
 50
0.0
 51
0.0
 71
     0
 72
   100
 73
     1
 74
     1
 75
     0
 76
     0
 77
     0
 78
     0
  0
ENDTAB
  0
TABLE
  2
LTYPE
 70
     2
  0
LTYPE
  2
CONTINUOUS
 70
     0
  3
Solid line
 72
    65
 73
     0
 40
0.0
  0
LTYPE
  2
PHANTOM2
 70
     0
  3
___ _ _ ___ _ _ ___ _ _ ___ _ _
 72
    65
 73
     6
 40
1.25
 49
0.625
 49
-0.125
 49
0.125
 49
-0.125
 49
0.125
 49
-0.125
  0
ENDTAB
  0
TABLE
  2
LAYER
 70
     2
  0
LAYER
  2
0
 70
     0
 62
   255
  6
CONTINUOUS
  0
LAYER
  2
DEFPOINTS
 70
     0
 62
     7
  6
CONTINUOUS
  0
ENDTAB
  0
TABLE
  2
STYLE
 70
     1
  0
STYLE
  2
STANDARD
 70
     0
 40
0.0
 41
0.8
 50
0.0
 71
     0
 42
0.2
  3
txt
  4

  0
ENDTAB
  0
TABLE
  2
VIEW
 70
     0
  0
ENDTAB
  0
TABLE
  2
UCS
 70
     0
  0
ENDTAB
  0
TABLE
  2
APPID
 70
     9
  0
APPID
  2
ACAD
 70
     0
  0
APPID
  2
ACAD_MLEADERVER
 70
     0
  0
APPID
  2
ACAD_EXEMPT_FROM_CAD_STANDARDS
 70
     0
  0
APPID
  2
ACAD_NAV_VCDISPLAY
 70
     0
  0
APPID
  2
ACAECLAYERSTANDARD
 70
     0
  0
APPID
  2
ACCMTRANSPARENCY
 70
     0
  0
APPID
  2
ACAD_DSTYLE_DIMJAG
 70
     0
  0
APPID
  2
ACAD_DSTYLE_DIMTALN
 70
     0
  0
APPID
  2
ACDBATTR
 70
     0
  0
ENDTAB
  0
TABLE
  2
DIMSTYLE
 70
     1
  0
DIMSTYLE
  2
STANDARD
 70
     0
  3

  4

  5

  6

  7

 40
1.0
 41
0.1875
 42
0.0625
 43
0.38
 44
0.125
 45
0.0
 46
0.0
 47
0.01
 48
0.01
140
0.15625
141
0.09
142
0.0
143
25.3999999999999986
144
1.0
145
0.0
146
1.0
147
0.09
 71
     1
 72
     0
 73
     1
 74
     1
 75
     0
 76
     0
 77
     0
 78
     4
170
     0
171
     2
172
     0
173
     0
174
     0
175
     0
176
     0
177
     0
178
     0
  0
ENDTAB
  0
ENDSEC
  0
SECTION
  2
BLOCKS
  0
BLOCK
  8
0
  2
$MODEL_SPACE
 70
     0
 10
0.0
 20
0.0
 30
0.0
  3
$MODEL_SPACE
  1

  0
ENDBLK
  5
21
  8
0
  0
BLOCK
 67
     1
  8
0
  2
$PAPER_SPACE
 70
     0
 10
0.0
 20
0.0
 30
0.0
  3
$PAPER_SPACE
  1

  0
ENDBLK
  5
1D
 67
     1
  8
0
  0
ENDSEC
  0
SECTION
  2
ENTITIES
  0
ATTDEF
  5
3930
  8
DEFPOINTS
 10
4708.4630898299919863
 20
217.3667015996178122
 30
0.0
 40
0.001
  1
K-9018
  3

  2
MODELNUMBER
 70
     0
1001
ACDBATTR
1070
     0
1070
     1
  0
ATTDEF
  5
3931
  8
DEFPOINTS
 10
4708.4630898299919863
 20
217.3650349329510902
 30
0.0
 40
0.001
  1

  3

  2
TRADENAME
 70
     0
1001
ACDBATTR
1070
     0
1070
     1
  0
ATTDEF
  5
3932
  8
DEFPOINTS
 10
4708.4630898299919863
 20
217.3633682662845104
 30
0.0
 40
0.001
  1
P-TRAP
  3

  2
PRODUCT
 70
     0
1001
ACDBATTR
1070
     0
1070
     1
  0
LINE
  5
A65F
  8
0
 10
4706.9531850522607783
 20
217.3633292325067998
 30
0.0
 11
4709.9731850522621244
 21
217.3633292325067998
 31
0.0
  0
LINE
  5
A660
  8
0
 10
4709.9731850522621244
 20
217.3633292325067998
 30
0.0
 11
4709.9731850522621244
 21
217.2798013095066949
 31
0.0
  0
ARC
  5
A661
  8
0
 10
4709.7231850524622132
 20
217.2798013095066949
 30
0.0
 40
0.2499999997989706
 50
317.7979630701959195
 51
0.0
  0
ARC
  5
A662
  8
0
 10
4711.3899416584490609
 20
215.7683707307961072
 30
0.0
 40
1.9999999952813889
 50
137.7979630701958911
 51
170.6797642905681016
  0
ARC
  5
A663
  8
0
 10
4709.2880606886801615
 20
216.1133292322492991
 30
0.0
 40
0.1299999997425401
 50
269.9999999036481881
 51
350.6797642905680732
  0
LINE
  5
A664
  8
0
 10
4709.2880606884609733
 20
215.9833292325068044
 30
0.0
 11
4707.6383094160601104
 21
215.9833292325068044
 31
0.0
  0
LINE
  5
A665
  8
0
 10
4709.0881850522609966
 20
215.9833292328428911
 30
0.0
 11
4709.0881850522609966
 21
205.3633292325066861
 31
0.0
  0
ARC
  5
A666
  8
0
 10
4708.4631850522609966
 20
205.3633292325066861
 30
0.0
 40
0.625
 50
180.0
 51
0.0
  0
ARC
  5
A667
  8
0
 10
4708.4631850522609966
 20
205.3633292325066861
 30
0.0
 40
0.797320462000001
 50
141.6210933193073913
 51
38.364107984695778
  0
LINE
  5
A668
  8
0
 10
4709.0881850522609966
 20
206.0128482854067897
 30
0.0
 11
4709.263254011160825
 21
205.9117721748067993
 31
0.0
  0
ARC
  5
A669
  8
0
 10
4708.4631850491978184
 20
205.3633292302660038
 30
0.0
 40
0.9700000037700149
 50
25.5695734804015196
 51
34.430426576647001
  0
LINE
  5
A66A
  8
0
 10
4709.3381850522609966
 20
205.7819878047066879
 30
0.0
 11
4709.3381850532832686
 21
204.944670660406814
 31
0.0
  0
ARC
  5
A66B
  8
0
 10
4708.4631849222359961
 20
205.3633293144359868
 30
0.0
 40
0.970000153569434
 50
325.569573785094974
 51
334.430425541714726
  0
LINE
  5
A66C
  8
0
 10
4709.2632540112190327
 20
204.8148862902492056
 30
0.0
 11
4708.5381160878741866
 21
204.3962277275458916
 31
0.0
  0
ARC
  5
A66D
  8
0
 10
4708.4631849888537545
 20
205.3633275933256073
 30
0.0
 40
0.9699983608188881
 50
265.5695696927252243
 51
274.4304375024747742
  0
LINE
  5
A66E
  8
0
 10
4709.0881850522609966
 20
204.713810182695596
 30
0.0
 11
4709.0881850522609966
 21
203.0128482854067897
 31
0.0
  0
ARC
  5
A66F
  8
0
 10
4708.4631850522100649
 20
202.3633292208442072
 30
0.0
 40
0.970000011662611
 50
85.5695734871083147
 51
94.4304265128916853
  0
LINE
  5
A670
  8
0
 10
4708.5381160932611238
 20
203.3304307469068135
 30
0.0
 11
4709.2632540112190327
 21
202.9117721747643088
 31
0.0
  0
ARC
  5
A671
  8
0
 10
4708.4631850522609966
 20
202.3633292325066861
 30
0.0
 40
0.9700000000002232
 50
25.5695734341953411
 51
34.4304265658137183
  0
LINE
  5
A672
  8
0
 10
4709.3381850522619061
 20
202.7819878046148006
 30
0.0
 11
4709.3381850522609966
 21
201.9446706603982022
 31
0.0
  0
ARC
  5
A673
  8
0
 10
4708.4631850522609966
 20
202.3633292325067998
 30
0.0
 40
0.9700000000001059
 50
325.5695734449670908
 51
334.4304265657543169
  0
LINE
  5
A674
  8
0
 10
4709.2632540113227151
 20
201.8148862903996985
 30
0.0
 11
4708.5381160933420688
 21
201.3962277180731064
 31
0.0
  0
ARC
  5
A675
  8
0
 10
4708.4631850527202914
 20
202.3633292443587948
 30
0.0
 40
0.9700000118520062
 50
265.569573461288428
 51
274.4304264867064944
  0
CIRCLE
  5
A676
  8
0
 10
4708.4631850522609966
 20
202.3633292325067998
 30
0.0
 40
0.6595
  0
CIRCLE
  5
A677
  8
0
 10
4708.4631850522609966
 20
202.3633292325067998
 30
0.0
 40
0.59375
  0
LINE
  5
A678
  8
0
 10
4708.3882540112617789
 20
203.3304307469068135
 30
0.0
 11
4707.66311609330387
 21
202.9117721747643088
 31
0.0
  0
ARC
  5
A679
  8
0
 10
4708.4631850522619061
 20
202.3633292325066861
 30
0.0
 40
0.9700000000002232
 50
145.5695734341861964
 51
154.4304265658045949
  0
LINE
  5
A67A
  8
0
 10
4707.5881850522609966
 20
202.7819878046148006
 30
0.0
 11
4707.5881850522609966
 21
201.9446706603982022
 31
0.0
  0
ARC
  5
A67B
  8
0
 10
4708.4631850522619061
 20
202.3633292325067998
 30
0.0
 40
0.9700000000001059
 50
205.5695734342457968
 51
214.4304265550327955
  0
LINE
  5
A67C
  8
0
 10
4707.6631160932001876
 20
201.8148862903996985
 30
0.0
 11
4708.3882540111799244
 21
201.3962277180731064
 31
0.0
  0
LINE
  5
A67D
  8
0
 10
4707.8381850522609966
 20
206.0128482854067897
 30
0.0
 11
4707.6631160933611682
 21
205.9117721748067993
 31
0.0
  0
ARC
  5
A67E
  8
0
 10
4708.4631850553241748
 20
205.3633292302660038
 30
0.0
 40
0.9700000037700149
 50
145.5695734233530061
 51
154.4304265195985124
  0
LINE
  5
A67F
  8
0
 10
4707.5881850522609966
 20
205.7819878047066879
 30
0.0
 11
4707.5881850512387246
 21
204.944670660406814
 31
0.0
  0
ARC
  5
A680
  8
0
 10
4708.4631851822859971
 20
205.3633293144359868
 30
0.0
 40
0.970000153569434
 50
205.5695744582853024
 51
214.4304262149049976
  0
LINE
  5
A681
  8
0
 10
4707.66311609330387
 20
204.8148862902492056
 30
0.0
 11
4708.3882540166478066
 21
204.3962277275458916
 31
0.0
  0
LINE
  5
A682
  8
0
 10
4707.8381850522609966
 20
215.9833292328428911
 30
0.0
 11
4707.8381850522609966
 21
205.3633292325066861
 31
0.0
  0
LINE
  5
A683
  8
0
 10
4706.9531850522607783
 20
217.3633292325067998
 30
0.0
 11
4706.9531850522607783
 21
217.2798013095066949
 31
0.0
  0
ARC
  5
A684
  8
0
 10
4707.2031850520606895
 20
217.2798013095066949
 30
0.0
 40
0.2499999997989706
 50
179.9999999999984084
 51
222.2020369298041089
  0
ARC
  5
A685
  8
0
 10
4705.5364284460729323
 20
215.7683707307961072
 30
0.0
 40
1.9999999952813889
 50
9.3202357094318717
 51
42.2020369298041089
  0
ARC
  5
A686
  8
0
 10
4707.6383094158427411
 20
216.1133292322492991
 30
0.0
 40
0.1299999997425401
 50
189.3202357094318984
 51
270.0000000963516982
  0
LINE
  5
A687
  8
0
 10
4707.8381850522609966
 20
204.713810182695596
 30
0.0
 11
4707.8381850522609966
 21
203.0128482854067897
 31
0.0
  0
CIRCLE
  5
A688
  8
0
 10
4708.4631850522609966
 20
202.3633292325067998
 30
0.0
 40
0.797320462
  0
LINE
  5
A689
  8
0
 10
4707.01798987336133
 20
217.1118645783066938
 30
0.0
 11
4709.9083802312215994
 21
217.1118645782952115
 31
0.0
  0
ENDSEC
  0
EOF
