  0
SECTION
  2
HEADER
  9
$ACADVER
  1
AC1009
  9
$INSBASE
 10
50.245405632827207
 20
6.3002860694000002
 30
0.0
  9
$EXTMIN
 10
39.424012402261951
 20
1.082791326408415
 30
-0.0000000000000053
  9
$EXTMAX
 10
52.24700058348327
 20
7.8005633203018263
 30
0.0000000000000099
  9
$LIMMIN
 10
0.0
 20
0.0
  9
$LIMMAX
 10
11.692913385800001
 20
8.2677165353999982
  9
$ORTHOMODE
 70
     0
  9
$REGENMODE
 70
     1
  9
$FILLMODE
 70
     1
  9
$QTEXTMODE
 70
     0
  9
$MIRRTEXT
 70
     0
  9
$DRAGMODE
 70
     2
  9
$LTSCALE
 40
0.6431102362
  9
$OSMODE
 70
  3071
  9
$ATTMODE
 70
     1
  9
$TEXTSIZE
 40
0.2
  9
$TRACEWID
 40
0.05
  9
$TEXTSTYLE
  7
STANDARD
  9
$CLAYER
  8
0
  9
$CELTYPE
  6
BYLAYER
  9
$CECOLOR
 62
   256
  9
$DIMSCALE
 40
1.0
  9
$DIMASZ
 40
0.1875
  9
$DIMEXO
 40
0.0625
  9
$DIMDLI
 40
0.38
  9
$DIMRND
 40
0.0
  9
$DIMDLE
 40
0.0
  9
$DIMEXE
 40
0.125
  9
$DIMTP
 40
1.5
  9
$DIMTM
 40
1.5
  9
$DIMTXT
 40
0.15625
  9
$DIMCEN
 40
0.09
  9
$DIMTSZ
 40
0.0
  9
$DIMTOL
 70
     0
  9
$DIMLIM
 70
     0
  9
$DIMTIH
 70
     1
  9
$DIMTOH
 70
     1
  9
$DIMSE1
 70
     0
  9
$DIMSE2
 70
     0
  9
$DIMTAD
 70
     0
  9
$DIMZIN
 70
     4
  9
$DIMBLK
  1

  9
$DIMASO
 70
     1
  9
$DIMSHO
 70
     1
  9
$DIMPOST
  1
\X
  9
$DIMAPOST
  1

  9
$DIMALT
 70
     1
  9
$DIMALTD
 70
     2
  9
$DIMALTF
 40
25.399999999999999
  9
$DIMLFAC
 40
1.0
  9
$DIMTOFL
 70
     0
  9
$DIMTVP
 40
0.0
  9
$DIMTIX
 70
     0
  9
$DIMSOXD
 70
     0
  9
$DIMSAH
 70
     0
  9
$DIMBLK1
  1

  9
$DIMBLK2
  1

  9
$DIMSTYLE
  2
STANDARD
  9
$DIMCLRD
 70
     0
  9
$DIMCLRE
 70
     0
  9
$DIMCLRT
 70
     0
  9
$DIMTFAC
 40
1.0
  9
$DIMGAP
 40
0.09
  9
$LUNITS
 70
     2
  9
$LUPREC
 70
     4
  9
$SKETCHINC
 40
0.1
  9
$FILLETRAD
 40
0.0
  9
$AUNITS
 70
     0
  9
$AUPREC
 70
     0
  9
$MENU
  1
.
  9
$ELEVATION
 40
0.0
  9
$PELEVATION
 40
0.0
  9
$THICKNESS
 40
0.0
  9
$LIMCHECK
 70
     0
  9
$BLIPMODE
 70
     0
  9
$CHAMFERA
 40
0.0
  9
$CHAMFERB
 40
0.0
  9
$SKPOLY
 70
     0
  9
$TDCREATE
 40
2457735.4604470371
  9
$TDUPDATE
 40
2457735.5763458679
  9
$TDINDWG
 40
0.0617687963
  9
$TDUSRTIMER
 40
0.0617687963
  9
$USRTIMER
 70
     1
  9
$ANGBASE
 50
0.0
  9
$ANGDIR
 70
     0
  9
$PDMODE
 70
     0
  9
$PDSIZE
 40
0.3125
  9
$PLINEWID
 40
0.0
  9
$COORDS
 70
     1
  9
$SPLFRAME
 70
     0
  9
$SPLINETYPE
 70
     6
  9
$SPLINESEGS
 70
     8
  9
$ATTDIA
 70
     1
  9
$ATTREQ
 70
     1
  9
$HANDLING
 70
     1
  9
$HANDSEED
  5
100F
  9
$SURFTAB1
 70
     6
  9
$SURFTAB2
 70
     6
  9
$SURFTYPE
 70
     6
  9
$SURFU
 70
     6
  9
$SURFV
 70
     6
  9
$UCSNAME
  2

  9
$UCSORG
 10
0.0
 20
0.0
 30
0.0
  9
$UCSXDIR
 10
1.0
 20
0.0
 30
0.0
  9
$UCSYDIR
 10
0.0
 20
1.0
 30
0.0
  9
$PUCSNAME
  2

  9
$PUCSORG
 10
0.0
 20
0.0
 30
0.0
  9
$PUCSXDIR
 10
1.0
 20
0.0
 30
0.0
  9
$PUCSYDIR
 10
0.0
 20
1.0
 30
0.0
  9
$USERI1
 70
     0
  9
$USERI2
 70
     0
  9
$USERI3
 70
     0
  9
$USERI4
 70
     0
  9
$USERI5
 70
     0
  9
$USERR1
 40
0.0
  9
$USERR2
 40
0.0
  9
$USERR3
 40
0.0
  9
$USERR4
 40
0.0
  9
$USERR5
 40
0.0
  9
$WORLDVIEW
 70
     1
  9
$SHADEDGE
 70
     3
  9
$SHADEDIF
 70
    70
  9
$TILEMODE
 70
     1
  9
$MAXACTVP
 70
    48
  9
$PLIMCHECK
 70
     0
  9
$PEXTMIN
 10
1.0000000000000000E+020
 20
1.0000000000000000E+020
 30
1.0000000000000000E+020
  9
$PEXTMAX
 10
-1.0000000000000000E+020
 20
-1.0000000000000000E+020
 30
-1.0000000000000000E+020
  9
$PLIMMIN
 10
0.0
 20
0.0
  9
$PLIMMAX
 10
12.0
 20
9.0
  9
$UNITMODE
 70
     0
  9
$VISRETAIN
 70
     1
  9
$PLINEGEN
 70
     0
  9
$PSLTSCALE
 70
     1
  0
ENDSEC
  0
SECTION
  2
TABLES
  0
TABLE
  2
VPORT
 70
     1
  0
VPORT
  2
*ACTIVE
 70
     0
 10
0.0
 20
0.0
 11
1.0
 21
1.0
 12
45.835506492872611
 22
4.4416773233551199
 13
0.0
 23
0.0
 14
1.0
 24
1.0
 15
0.0
 25
0.0
 16
0.0
 26
0.0
 36
1.0
 17
0.0
 27
0.0
 37
0.0
 40
7.787895756718008
 41
1.6528662420382161
 42
50.0
 43
0.0
 44
0.0
 50
0.0
 51
0.0
 71
     0
 72
   100
 73
     1
 74
     1
 75
     0
 76
     0
 77
     0
 78
     0
  0
ENDTAB
  0
TABLE
  2
LTYPE
 70
     2
  0
LTYPE
  2
CONTINUOUS
 70
     0
  3
Solid line
 72
    65
 73
     0
 40
0.0
  0
LTYPE
  2
PHANTOM2
 70
     0
  3
___ _ _ ___ _ _ ___ _ _ ___ _ _
 72
    65
 73
     6
 40
1.25
 49
0.625
 49
-0.125
 49
0.125
 49
-0.125
 49
0.125
 49
-0.125
  0
ENDTAB
  0
TABLE
  2
LAYER
 70
     2
  0
LAYER
  2
0
 70
     0
 62
     7
  6
CONTINUOUS
  0
LAYER
  2
DEFPOINTS
 70
     0
 62
     7
  6
CONTINUOUS
  0
ENDTAB
  0
TABLE
  2
STYLE
 70
     1
  0
STYLE
  2
STANDARD
 70
     0
 40
0.0
 41
0.8
 50
0.0
 71
     0
 42
0.2
  3
txt
  4

  0
ENDTAB
  0
TABLE
  2
VIEW
 70
     0
  0
ENDTAB
  0
TABLE
  2
UCS
 70
     0
  0
ENDTAB
  0
TABLE
  2
APPID
 70
     7
  0
APPID
  2
ACAD
 70
     0
  0
APPID
  2
ACAD_MLEADERVER
 70
     0
  0
APPID
  2
ACAD_DSTYLE_DIMJAG
 70
     0
  0
APPID
  2
ACAD_DSTYLE_DIMTALN
 70
     0
  0
APPID
  2
ACAD_NAV_VCDISPLAY
 70
     0
  0
APPID
  2
ACAD_EXEMPT_FROM_CAD_STANDARDS
 70
     0
  0
APPID
  2
ACDBATTR
 70
     0
  0
ENDTAB
  0
TABLE
  2
DIMSTYLE
 70
     1
  0
DIMSTYLE
  2
STANDARD
 70
     0
  3
\X
  4

  5

  6

  7

 40
1.0
 41
0.1875
 42
0.0625
 43
0.38
 44
0.125
 45
0.0
 46
0.0
 47
1.5
 48
1.5
140
0.15625
141
0.09
142
0.0
143
25.399999999999999
144
1.0
145
0.0
146
1.0
147
0.09
 71
     0
 72
     0
 73
     1
 74
     1
 75
     0
 76
     0
 77
     0
 78
     4
170
     1
171
     2
172
     0
173
     0
174
     0
175
     0
176
     0
177
     0
178
     0
  0
ENDTAB
  0
ENDSEC
  0
SECTION
  2
BLOCKS
  0
BLOCK
  8
0
  2
$MODEL_SPACE
 70
     0
 10
0.0
 20
0.0
 30
0.0
  3
$MODEL_SPACE
  1

  0
ENDBLK
  5
21
  8
0
  0
BLOCK
 67
     1
  8
0
  2
$PAPER_SPACE
 70
     0
 10
0.0
 20
0.0
 30
0.0
  3
$PAPER_SPACE
  1

  0
ENDBLK
  5
1D
 67
     1
  8
0
  0
ENDSEC
  0
SECTION
  2
ENTITIES
  0
LINE
  5
A74
  8
0
 10
39.558461267627223
 20
5.2519021474000001
 30
0.0
 11
39.681105263627217
 21
3.6887931899000002
 31
0.0
  0
ARC
  5
A75
  8
0
 10
41.995405535592283
 20
3.6658463767128162
 30
0.0
 40
2.3124998390823208
 50
180.50599183547081
 51
250.03394281608749
  0
ARC
  5
A76
  8
0
 10
41.12032559558093
 20
1.2573092572445219
 30
0.0
 40
0.2500803433615748
 50
0.2376457251640015
 51
70.021039930229861
  0
LINE
  5
A77
  8
0
 10
41.370403781329713
 20
1.2583480779392351
 30
0.0
 11
42.620407106427209
 21
1.2583465125999991
 31
0.0
  0
ARC
  5
A7A
  8
0
 10
42.915103318023696
 20
-2.539689338575823
 30
0.0
 40
4.3793915961846901
 50
106.7951074881025
 51
112.97395209637639
  0
ARC
  5
A7B
  8
0
 10
42.012297696504127
 20
0.4158457699929906
 30
0.0
 40
1.2891026474792591
 50
91.241503583768392
 51
106.337582806591
  0
ARC
  5
A7C
  8
0
 10
41.075307947630719
 20
-2.539689338575823
 30
0.0
 40
4.3793915961846901
 50
67.026047903623549
 51
73.204892511897526
  0
ARC
  5
A7D
  8
0
 10
41.980948580451923
 20
0.4282090179664024
 30
0.0
 40
1.2764413619015811
 50
73.628428722091655
 51
89.846548412415416
  0
ARC
  5
A7E
  8
0
 10
41.994307399334282
 20
3.6667614739574752
 30
0.0
 40
2.313598414413331
 50
289.974573433692
 51
359.9773411732819
  0
ARC
  5
A7F
  8
0
 10
42.8700856700735
 20
1.2573092572445219
 30
0.0
 40
0.2500803433615748
 50
109.9789600697701
 51
179.7623542748359
  0
LINE
  5
A80
  8
0
 10
41.401205632827207
 20
1.2083490378999999
 30
0.0
 11
42.589205632827209
 21
1.2083490378999999
 31
0.0
  0
LINE
  5
A81
  8
0
 10
42.589205632827209
 20
1.2083490378999999
 30
0.0
 11
42.589205632827209
 21
1.0833490378999999
 31
0.0
  0
LINE
  5
A82
  8
0
 10
42.589205632827209
 20
1.0833490378999999
 30
0.0
 11
41.401205632827207
 21
1.0833490378999999
 31
0.0
  0
LINE
  5
A83
  8
0
 10
41.401205632827207
 20
1.0833490378999999
 30
0.0
 11
41.401205632827207
 21
1.2083490378999999
 31
0.0
  0
LINE
  5
A84
  8
0
 10
41.459021858127223
 20
1.0833490378999999
 30
0.0
 11
41.459021858127223
 21
1.2083490378999999
 31
0.0
  0
LINE
  5
A85
  8
0
 10
41.938039407427212
 20
1.0833490378999999
 30
0.0
 11
41.938039407427212
 21
1.2083490378999999
 31
0.0
  0
LINE
  5
A86
  8
0
 10
42.052771858127208
 20
1.0833490378999999
 30
0.0
 11
42.052771858127208
 21
1.2083490378999999
 31
0.0
  0
LINE
  5
A87
  8
0
 10
42.531789407427212
 20
1.0833490378999999
 30
0.0
 11
42.531789407427212
 21
1.2083490378999999
 31
0.0
  0
ARC
  5
A88
  8
0
 10
42.493405632827212
 20
1.2433490379000001
 30
0.0
 40
0.0350000000000002
 50
270.0000000000029
 51
25.372358142864702
  0
ARC
  5
A89
  8
0
 10
41.497005632827211
 20
1.2433490379000001
 30
0.0
 40
0.0350000000000002
 50
154.62764185713519
 51
269.99999999999721
  0
ARC
  5
A8A
  8
0
 10
43.892489354353764
 20
-2.192126478034842
 30
0.0
 40
4.2731454579071659
 50
121.8320948279399
 51
126.1497015721859
  0
ARC
  5
A8B
  8
0
 10
42.100444862727969
 20
0.739497736481328
 30
0.0
 40
0.8375999162817372
 50
105.0426248262627
 51
123.4548987557322
  0
ARC
  5
A8C
  8
0
 10
41.995423476630251
 20
1.126831964497446
 30
0.0
 40
0.4362823880841963
 50
75.296171863356221
 51
104.9251083504351
  0
ARC
  5
A96
  8
0
 10
40.098192115200661
 20
-2.192126478034842
 30
0.0
 40
4.2731454579071659
 50
53.850298427814039
 51
58.167905172059839
  0
ARC
  5
A97
  8
0
 10
41.890236606826463
 20
0.739497736481328
 30
0.0
 40
0.8375999162817372
 50
56.545101244267798
 51
74.957375173737248
  0
ARC
  5
A98
  8
0
 10
41.995405632827207
 20
3.6658465125999991
 30
0.0
 40
0.6875
 50
190.43141772041739
 51
0.0
  0
LINE
  5
A99
  8
0
 10
42.425405632827207
 20
3.7908465125999991
 30
0.0
 11
44.565405632827208
 21
3.7908465125999991
 31
0.0
  0
LINE
  5
A9A
  8
0
 10
44.565405632827208
 20
3.7908465125999991
 30
0.0
 11
44.565405632827208
 21
4.0990581294000004
 31
0.0
  0
LINE
  5
A9B
  8
0
 10
44.565405632827208
 20
4.0990581294000004
 30
0.0
 11
44.41772614084752
 21
4.3548465126117062
 31
0.0
  0
LINE
  5
A9C
  8
0
 10
44.36576461662721
 20
4.3848465125999994
 30
0.0
 11
42.625049802327212
 21
4.3848465126000002
 31
0.0
  0
LINE
  5
A9D
  8
0
 10
42.573085129838567
 20
4.354846521499999
 30
0.0
 11
42.425405632827207
 21
4.0990581294000004
 31
0.0
  0
LINE
  5
A9E
  8
0
 10
42.425405632827207
 20
4.0990581294000004
 30
0.0
 11
42.425405632827207
 21
3.7908465125999999
 31
0.0
  0
LINE
  5
A9F
  8
0
 10
42.682905632827207
 20
3.6658465125999991
 30
0.0
 11
42.682905632827207
 21
3.697915904399999
 31
0.0
  0
ARC
  5
AA0
  8
0
 10
42.432905632827243
 20
3.6979159044000021
 30
0.0
 40
0.2499999999999751
 50
0.0000068301885593
 51
21.8218834555318
  0
ARC
  5
AA1
  8
0
 10
42.011994905424238
 20
3.6585836099514211
 30
0.0
 40
0.702573350017765
 50
176.34116492783161
 51
189.6039397653831
  0
LINE
  5
AA2
  8
0
 10
41.310853526338249
 20
3.703417511059679
 30
0.0
 11
41.434896360327208
 21
5.2843557850999989
 31
0.0
  0
LINE
  5
AA3
  8
0
 10
41.434896360327208
 20
5.2843557850999989
 30
0.0
 11
41.403432528587459
 21
5.3158170225433876
 31
0.0
  0
LINE
  5
AA4
  8
0
 10
41.403432528587459
 20
5.3158170225433876
 30
0.0
 11
41.435405632827212
 21
5.3478465126000003
 31
0.0
  0
LINE
  5
AA5
  8
0
 10
41.435405632827212
 20
5.3478465126000003
 30
0.0
 11
41.435405632827212
 21
5.3538465125999988
 31
0.0
  0
LINE
  5
AA6
  8
0
 10
41.435405632827212
 20
5.3538465125999988
 30
0.0
 11
41.418105327827213
 21
5.3712010323000001
 31
0.0
  0
LINE
  5
AA7
  8
0
 10
41.565405632827208
 20
5.3712010323000001
 30
0.0
 11
39.425405632827207
 21
5.3712010323000001
 31
0.0
  0
LINE
  5
AA8
  8
0
 10
39.425405632827207
 20
5.3712010323000001
 30
0.0
 11
39.425405632827207
 21
5.6794126490999988
 31
0.0
  0
LINE
  5
AA9
  8
0
 10
39.425405632827207
 20
5.6794126490999988
 30
0.0
 11
39.573085129838567
 21
5.9352010412
 31
0.0
  0
LINE
  5
AAA
  8
0
 10
39.62504664892721
 20
5.9652010322999987
 30
0.0
 11
41.365751333727218
 21
5.9652010323000004
 31
0.0
  0
LINE
  5
AAB
  8
0
 10
41.417726135715853
 20
5.9352010412
 30
0.0
 11
41.565405632827208
 21
5.6794126490999988
 31
0.0
  0
LINE
  5
AAC
  8
0
 10
41.565405632827208
 20
5.6794126490999988
 30
0.0
 11
41.565405632827208
 21
5.3712010323000001
 31
0.0
  0
ARC
  5
AAD
  8
0
 10
39.625046649163409
 20
5.9052010320369543
 30
0.0
 40
0.060000000345901
 50
89.996988950377258
 51
149.99999008700101
  0
ARC
  5
AAE
  8
0
 10
41.365764616627217
 20
5.905201032299999
 30
0.0
 40
0.0599999999999996
 50
30.000009813655691
 51
90.000000000001606
  0
LINE
  5
AAF
  8
0
 10
39.425405632827207
 20
5.6794126490999988
 30
0.0
 11
39.439051565927222
 21
5.6794126490999988
 31
0.0
  0
LINE
  5
AB0
  8
0
 10
39.439051565927222
 20
5.6794126490999988
 30
0.0
 11
39.439051565927222
 21
5.3712010323000001
 31
0.0
  0
LINE
  5
AB1
  8
0
 10
39.81970889212721
 20
5.6794126490999988
 30
0.0
 11
39.81970889212721
 21
5.3712010323000001
 31
0.0
  0
LINE
  5
AB2
  8
0
 10
39.81970889212721
 20
5.6794126490999988
 30
0.0
 11
40.114748306627213
 21
5.6794126490999988
 31
0.0
  0
LINE
  5
AB3
  8
0
 10
40.114748306627213
 20
5.6794126490999988
 30
0.0
 11
40.114748306627213
 21
5.3712010323000001
 31
0.0
  0
LINE
  5
AB4
  8
0
 10
40.876062959027209
 20
5.3712010323000001
 30
0.0
 11
40.876062959027209
 21
5.6794126490999988
 31
0.0
  0
LINE
  5
AB5
  8
0
 10
40.876062959027209
 20
5.6794126490999988
 30
0.0
 11
41.17110237342721
 21
5.6794126490999997
 31
0.0
  0
LINE
  5
AB6
  8
0
 10
41.17110237342721
 20
5.6794126490999997
 30
0.0
 11
41.17110237342721
 21
5.3712010323000001
 31
0.0
  0
LINE
  5
AB7
  8
0
 10
41.551759699727207
 20
5.3712010323000001
 30
0.0
 11
41.551759699727207
 21
5.6794126490999988
 31
0.0
  0
LINE
  5
AB8
  8
0
 10
41.551759699727207
 20
5.6794126490999988
 30
0.0
 11
41.565405632827208
 21
5.6794126490999997
 31
0.0
  0
ARC
  5
AB9
  8
0
 10
41.196781662931762
 20
5.3938891986360176
 30
0.0
 40
0.4555579517163612
 50
38.811152581144142
 51
55.87689520791622
  0
ARC
  5
ABA
  8
0
 10
41.3571012017591
 20
5.6226426201209838
 30
0.0
 40
0.1763078886548597
 50
57.30483420084559
 51
86.54695827744051
  0
ARC
  5
ABB
  8
0
 10
41.365014698340737
 20
5.6159813274119772
 30
0.0
 40
0.182669131187405
 50
89.151324207705727
 51
126.4117813159031
  0
ARC
  5
ABC
  8
0
 10
41.523900258749563
 20
5.4040686706294858
 30
0.0
 40
0.4475272666194734
 50
126.67789623413699
 51
142.0294527946289
  0
ARC
  5
ABD
  8
0
 10
40.495405632827207
 20
5.1346339438176072
 30
0.0
 40
0.664592986510461
 50
55.056555096198757
 51
124.94344490380141
  0
ARC
  5
ABE
  8
0
 10
39.794029602722659
 20
5.3938891986360176
 30
0.0
 40
0.4555579517163612
 50
124.12310479208369
 51
141.1888474188558
  0
ARC
  5
ABF
  8
0
 10
39.633710063895322
 20
5.6226426201209838
 30
0.0
 40
0.1763078886548597
 50
93.453041722559476
 51
122.6951657991544
  0
ARC
  5
AC0
  8
0
 10
39.625796567313692
 20
5.6159813274119772
 30
0.0
 40
0.182669131187405
 50
53.588218684096873
 51
90.848675792294287
  0
ARC
  5
AC1
  8
0
 10
39.466911006904859
 20
5.4040686706294858
 30
0.0
 40
0.4475272666194734
 50
37.970547205371112
 51
53.322103765862977
  0
LINE
  5
AC2
  8
0
 10
39.558526033146123
 20
5.2520234096425904
 30
0.0
 11
39.587480328527207
 21
5.2807074070999986
 31
0.0
  0
LINE
  5
AC3
  8
0
 10
39.587480328527207
 20
5.2807074070999986
 30
0.0
 11
39.555507224287453
 21
5.3127368971566113
 31
0.0
  0
LINE
  5
AC4
  8
0
 10
39.555507224287453
 20
5.3127368971566113
 30
0.0
 11
39.555507224287453
 21
5.3187368971566098
 31
0.0
  0
LINE
  5
AC5
  8
0
 10
39.555507224287453
 20
5.3187368971566098
 30
0.0
 11
39.58736390152783
 21
5.3508465892043224
 31
0.0
  0
LINE
  5
AC6
  8
0
 10
39.58736390152783
 20
5.3508465892043224
 30
0.0
 11
39.567011591627207
 21
5.3712010323000001
 31
0.0
  0
ARC
  5
AC7
  8
0
 10
38.980044604694903
 20
3.6365067187429552
 30
0.0
 40
0.703007768576761
 50
0.7268219261069869
 51
4.2653324156275918
  0
ARC
  5
AC8
  8
0
 10
39.832074450689099
 20
134.18682310120261
 30
0.0
 40
130.4981172370953
 50
269.9337162913327
 51
270.56626099722359
  0
ARC
  5
AC9
  8
0
 10
41.089788037244027
 20
6.6519690068031281
 30
0.0
 40
2.957063007993241
 50
270.61992133600552
 51
274.28718324917202
  0
ARC
  5
ACA
  8
0
 10
39.659273916725141
 20
-71.563602811353476
 30
0.0
 40
75.209030991848195
 50
89.104201900284025
 51
89.981928175797222
  0
ARC
  5
ACB
  8
0
 10
40.80580099562853
 20
0.5811696844223299
 30
0.0
 40
3.0552069822761609
 50
82.59615430728752
 51
89.450699962367437
  0
ARC
  5
ACC
  8
0
 10
41.179020179819737
 20
3.4377166620308932
 30
0.0
 40
0.1743941371990112
 50
36.466669243647871
 51
83.255443732017497
  0
ARC
  5
ACD
  8
0
 10
39.597252915332398
 20
5.0039877917944144
 30
0.0
 40
0.2509308876590027
 50
89.251754742689613
 51
98.893073923035431
  0
ARC
  5
ACE
  8
0
 10
41.81952517317805
 20
-103.0487051810926
 30
0.0
 40
108.32633219536049
 50
90.3898757281992
 51
91.173749349250741
  0
ARC
  5
ACF
  8
0
 10
40.880538079647643
 20
23.21414593291518
 30
0.0
 40
17.94016265467474
 50
270.6447410808417
 51
271.61628606697332
  0
ARC
  5
AD0
  8
0
 10
41.377886384295429
 20
5.7550908312689888
 30
0.0
 40
0.4740490960403105
 50
271.0476935555123
 51
276.89996374161308
  0
ARC
  5
AD1
  8
0
 10
39.647874310635807
 20
4.7473573276265197
 30
0.0
 40
0.5372282643996199
 50
90.915980186684166
 51
96.399418975009283
  0
ARC
  5
AD2
  8
0
 10
44.352667304174268
 20
-255.80620361546499
 30
0.0
 40
261.13326161812739
 50
90.700284082096573
 51
91.03422871415215
  0
ARC
  5
AD3
  8
0
 10
40.995623839831467
 20
16.2073170767429
 30
0.0
 40
10.90101949766011
 50
270.86981523233737
 51
271.92191382089521
  0
ARC
  5
AD4
  8
0
 10
41.346272258080411
 20
5.7634602631830694
 30
0.0
 40
0.4512779422880716
 50
271.89766297941668
 51
277.27680655224992
  0
ARC
  5
AD5
  8
0
 10
39.594265771483947
 20
5.0647976846550353
 30
0.0
 40
0.2509308876590027
 50
89.251754742689613
 51
98.893073923035431
  0
ARC
  5
AD6
  8
0
 10
41.816538029329593
 20
-102.987895288232
 30
0.0
 40
108.32633219536049
 50
90.3898757281992
 51
91.173749349250741
  0
ARC
  5
AD7
  8
0
 10
40.877550935799214
 20
23.274955825775791
 30
0.0
 40
17.94016265467474
 50
270.6447410808417
 51
271.61628606697332
  0
ARC
  5
AD8
  8
0
 10
41.374899240446979
 20
5.8159007241296097
 30
0.0
 40
0.4740490960403105
 50
271.0476935555123
 51
276.89996374161308
  0
ARC
  5
AD9
  8
0
 10
39.647242748536421
 20
4.816965767530843
 30
0.0
 40
0.5372282643996199
 50
90.915980186684166
 51
96.399418975009283
  0
ARC
  5
ADA
  8
0
 10
44.352035742074889
 20
-255.73659517556069
 30
0.0
 40
261.13326161812739
 50
90.800175779706748
 51
91.03422871415215
  0
LINE
  5
ADC
  8
0
 10
44.307905632827207
 20
3.6658465126040758
 30
0.0
 11
44.307905632827207
 21
3.697915904399999
 31
0.0
  0
ARC
  5
ADD
  8
0
 10
44.557905632827129
 20
3.6979159044000172
 30
0.0
 40
0.2499999999999165
 50
158.17811654446649
 51
180.00000000000091
  0
LINE
  5
ADE
  8
0
 10
42.682905632827207
 20
3.6979159043999861
 30
0.0
 11
44.307905632827207
 21
3.6979159043999861
 31
0.0
  0
LINE
  5
ADF
  8
0
 10
42.81970889212721
 20
3.7908465125999991
 30
0.0
 11
42.81970889212721
 21
4.0990581294000004
 31
0.0
  0
LINE
  5
AE0
  8
0
 10
42.81970889212721
 20
4.0990581294000004
 30
0.0
 11
43.114748306627213
 21
4.0990581294000004
 31
0.0
  0
LINE
  5
AE1
  8
0
 10
43.114748306627213
 20
4.0990581294000004
 30
0.0
 11
43.114748306627213
 21
3.7908465125999999
 31
0.0
  0
LINE
  5
AE2
  8
0
 10
43.876062959027209
 20
3.7908465125999991
 30
0.0
 11
43.876062959027209
 21
4.0990581294000004
 31
0.0
  0
LINE
  5
AE3
  8
0
 10
43.876062959027209
 20
4.0990581294000004
 30
0.0
 11
44.17110237342721
 21
4.0990581294000004
 31
0.0
  0
LINE
  5
AE4
  8
0
 10
44.17110237342721
 20
4.0990581294000004
 30
0.0
 11
44.17110237342721
 21
3.7908465125999991
 31
0.0
  0
LINE
  5
AE5
  8
0
 10
44.565405632827208
 20
4.0990581294000004
 30
0.0
 11
44.551759699727207
 21
4.0990581294000004
 31
0.0
  0
LINE
  5
AE6
  8
0
 10
44.551759699727207
 20
4.0990581294000004
 30
0.0
 11
44.551759699727207
 21
3.7908465125999999
 31
0.0
  0
LINE
  5
AE7
  8
0
 10
42.425405632827207
 20
4.0990581294000004
 30
0.0
 11
42.439051565927208
 21
4.0990581294000004
 31
0.0
  0
LINE
  5
AE8
  8
0
 10
42.439051565927208
 20
4.0990581294000004
 30
0.0
 11
42.439051565927208
 21
3.7908465125999999
 31
0.0
  0
ARC
  5
AE9
  8
0
 10
42.625046649163409
 20
4.3248465123369426
 30
0.0
 40
0.0600000003459109
 50
89.996988950380512
 51
149.9999900869947
  0
ARC
  5
AEA
  8
0
 10
44.365764612612722
 20
4.3248465085855008
 30
0.0
 40
0.0600000054839051
 50
30.000001416092189
 51
90.012680400548305
  0
LINE
  5
AEB
  8
0
 10
44.245405632827207
 20
4.3848465126000002
 30
0.0
 11
44.245405632827207
 21
4.6752860694000002
 31
0.0
  0
LINE
  5
AEC
  8
0
 10
42.745405632827207
 20
4.3848465126000002
 30
0.0
 11
42.745405632827207
 21
4.6752860694000002
 31
0.0
  0
ARC
  5
AED
  8
0
 10
45.120405632827207
 20
4.6752860693999994
 30
0.0
 40
2.374999999999996
 50
90.0
 51
180.0
  0
ARC
  5
AEE
  8
0
 10
45.120405632827207
 20
4.6752860694000002
 30
0.0
 40
0.8750000000000017
 50
90.000000000000185
 51
180.0
  0
LINE
  5
AEF
  8
0
 10
42.745405632827207
 20
4.6752860693999994
 30
0.0
 11
44.245405632827207
 21
4.6752860693999994
 31
0.0
  0
LINE
  5
AF0
  8
0
 10
45.120405632827207
 20
5.5502860694000002
 30
0.0
 11
48.870405632827207
 21
5.5502860694000002
 31
0.0
  0
LINE
  5
AF1
  8
0
 10
45.120405632827207
 20
7.0502860693999949
 30
0.0
 11
48.870405632827207
 21
7.0502860694000002
 31
0.0
  0
LINE
  5
AF2
  8
0
 10
48.870405632827207
 20
7.1875320460000003
 30
0.0
 11
48.870405632827207
 21
5.4130400927000002
 31
0.0
  0
ARC
  5
AF3
  8
0
 10
48.930405632827203
 20
5.4130400926999931
 30
0.0
 40
0.0599999999999916
 50
179.999999999994
 51
262.58089752830608
  0
ARC
  5
AF4
  8
0
 10
48.930405632827203
 20
7.1875320460000029
 30
0.0
 40
0.0599999999999952
 50
97.419102471337794
 51
180.00000000000341
  0
ARC
  5
AF5
  8
0
 10
48.66440563295064
 20
9.2302860689828528
 30
0.0
 40
1.9999999995704061
 50
277.4194076477803
 51
313.67230846106651
  0
ARC
  5
AF6
  8
0
 10
50.086903435927212
 20
7.7402860694000086
 30
0.0
 40
0.0599999999999884
 50
89.999999999993278
 51
133.67230839148331
  0
LINE
  5
AF7
  8
0
 10
50.086903435927212
 20
7.8002860694000002
 30
0.0
 11
50.245405632827207
 21
7.8002860694000002
 31
0.0
  0
LINE
  5
AF8
  8
0
 10
50.045471461127207
 20
7.7836841275999991
 30
0.0
 11
50.045471461127207
 21
4.8168880111593904
 31
0.0
  0
ARC
  5
AF9
  8
0
 10
48.66440563295064
 20
3.3702860698171468
 30
0.0
 40
1.9999999995704061
 50
46.327691538933429
 51
82.580592352219654
  0
ARC
  5
AFA
  8
0
 10
50.086903435927212
 20
4.8602860693999901
 30
0.0
 40
0.0599999999999884
 50
226.32769160851669
 51
270.00000000000671
  0
LINE
  5
AFB
  8
0
 10
50.086903435927212
 20
4.8002860694000002
 30
0.0
 11
50.245405632827207
 21
4.8002860694000002
 31
0.0
  0
LINE
  5
AFC
  8
0
 10
50.245405632827207
 20
7.0502860694000002
 30
0.0
 11
52.245405632827207
 21
7.0502860694000002
 31
0.0
  0
LINE
  5
AFD
  8
0
 10
52.245405632827207
 20
7.0502860694000002
 30
0.0
 11
52.245405632827207
 21
5.5502860694000002
 31
0.0
  0
LINE
  5
AFE
  8
0
 10
52.245405632827207
 20
5.5502860694000002
 30
0.0
 11
50.245405632827207
 21
5.5502860694000002
 31
0.0
  0
LINE
  5
AFF
  8
0
 10
50.245405632827207
 20
4.8002860694000002
 30
0.0
 11
50.245405632827207
 21
7.8002860694000002
 31
0.0
  0
ARC
  5
B00
  8
0
 10
44.196781662931762
 20
3.8135346789360209
 30
0.0
 40
0.4555579517163612
 50
38.811152581144142
 51
55.87689520791622
  0
ARC
  5
B01
  8
0
 10
44.357101201759107
 20
4.0422881004209881
 30
0.0
 40
0.1763078886548597
 50
57.30483420084559
 51
86.54695827744051
  0
ARC
  5
B02
  8
0
 10
44.365014698340737
 20
4.0356268077119797
 30
0.0
 40
0.182669131187405
 50
89.151324207705727
 51
126.4117813159031
  0
ARC
  5
B03
  8
0
 10
44.52390025874957
 20
3.8237141509294901
 30
0.0
 40
0.4475272666194734
 50
126.67789623413699
 51
142.0294527946289
  0
ARC
  5
B04
  8
0
 10
43.495405632827207
 20
3.5542794241176101
 30
0.0
 40
0.664592986510461
 50
55.056555096198757
 51
124.94344490380141
  0
ARC
  5
B05
  8
0
 10
42.794029602722659
 20
3.8135346789360209
 30
0.0
 40
0.4555579517163612
 50
124.12310479208369
 51
141.1888474188558
  0
ARC
  5
B06
  8
0
 10
42.633710063895322
 20
4.0422881004209881
 30
0.0
 40
0.1763078886548597
 50
93.453041722559476
 51
122.6951657991544
  0
ARC
  5
B07
  8
0
 10
42.625796567313678
 20
4.0356268077119797
 30
0.0
 40
0.182669131187405
 50
53.588218684096873
 51
90.848675792294287
  0
ARC
  5
B08
  8
0
 10
42.466911006904859
 20
3.8237141509294901
 30
0.0
 40
0.4475272666194734
 50
37.970547205371112
 51
53.322103765862977
  0
ATTDEF
  5
CA5
  8
DEFPOINTS
 10
50.25109800732568
 20
6.2972824041254407
 30
0.0
 40
0.001
  1
BRASS
  3

  2
MATERIAL
 70
     0
1001
ACDBATTR
1070
     0
1070
     1
  0
ATTDEF
  5
CA6
  8
DEFPOINTS
 10
50.25109800732568
 20
6.298949070792113
 30
0.0
 40
0.001
  1
P-TRAP
  3

  2
PRODUCT
 70
     0
1001
ACDBATTR
1070
     0
1070
     1
  0
ATTDEF
  5
CA7
  8
DEFPOINTS
 10
50.25109800732568
 20
6.300615737458779
 30
0.0
 40
0.001
  1

  3

  2
TRADENAME
 70
     0
1001
ACDBATTR
1070
     0
1070
     1
  0
ATTDEF
  5
CA8
  8
DEFPOINTS
 10
50.25109800732568
 20
6.3022824041254442
 30
0.0
 40
0.001
  1
K-9000
  3

  2
MODELNUMBER
 70
     0
1001
ACDBATTR
1070
     0
1070
     1
  0
ENDSEC
  0
EOF
