  0
SECTION
  2
HEADER
  9
$ACADVER
  1
AC1009
  9
$INSBASE
 10
35.954980493177217
 20
20.872728317
 30
0.0
  9
$EXTMIN
 10
34.453272347112133
 20
10.05125414926674
 30
-0.000000000000013
  9
$EXTMAX
 10
37.456638853377932
 20
22.872728503390721
 30
0.0000000000000023
  9
$LIMMIN
 10
0.0
 20
0.0
  9
$LIMMAX
 10
11.692913385800001
 20
8.2677165353999982
  9
$ORTHOMODE
 70
     0
  9
$REGENMODE
 70
     1
  9
$FILLMODE
 70
     1
  9
$QTEXTMODE
 70
     0
  9
$MIRRTEXT
 70
     0
  9
$DRAGMODE
 70
     2
  9
$LTSCALE
 40
0.6431102362
  9
$OSMODE
 70
  3071
  9
$ATTMODE
 70
     1
  9
$TEXTSIZE
 40
0.2
  9
$TRACEWID
 40
0.05
  9
$TEXTSTYLE
  7
STANDARD
  9
$CLAYER
  8
0
  9
$CELTYPE
  6
BYLAYER
  9
$CECOLOR
 62
   256
  9
$DIMSCALE
 40
1.0
  9
$DIMASZ
 40
0.1875
  9
$DIMEXO
 40
0.0625
  9
$DIMDLI
 40
0.38
  9
$DIMRND
 40
0.0
  9
$DIMDLE
 40
0.0
  9
$DIMEXE
 40
0.125
  9
$DIMTP
 40
1.5
  9
$DIMTM
 40
1.5
  9
$DIMTXT
 40
0.15625
  9
$DIMCEN
 40
0.09
  9
$DIMTSZ
 40
0.0
  9
$DIMTOL
 70
     0
  9
$DIMLIM
 70
     0
  9
$DIMTIH
 70
     1
  9
$DIMTOH
 70
     1
  9
$DIMSE1
 70
     0
  9
$DIMSE2
 70
     0
  9
$DIMTAD
 70
     0
  9
$DIMZIN
 70
     4
  9
$DIMBLK
  1

  9
$DIMASO
 70
     1
  9
$DIMSHO
 70
     1
  9
$DIMPOST
  1
\X
  9
$DIMAPOST
  1

  9
$DIMALT
 70
     1
  9
$DIMALTD
 70
     2
  9
$DIMALTF
 40
25.399999999999999
  9
$DIMLFAC
 40
1.0
  9
$DIMTOFL
 70
     0
  9
$DIMTVP
 40
0.0
  9
$DIMTIX
 70
     0
  9
$DIMSOXD
 70
     0
  9
$DIMSAH
 70
     0
  9
$DIMBLK1
  1

  9
$DIMBLK2
  1

  9
$DIMSTYLE
  2
STANDARD
  9
$DIMCLRD
 70
     0
  9
$DIMCLRE
 70
     0
  9
$DIMCLRT
 70
     0
  9
$DIMTFAC
 40
1.0
  9
$DIMGAP
 40
0.09
  9
$LUNITS
 70
     2
  9
$LUPREC
 70
     4
  9
$SKETCHINC
 40
0.1
  9
$FILLETRAD
 40
0.0
  9
$AUNITS
 70
     0
  9
$AUPREC
 70
     0
  9
$MENU
  1
.
  9
$ELEVATION
 40
0.0
  9
$PELEVATION
 40
0.0
  9
$THICKNESS
 40
0.0
  9
$LIMCHECK
 70
     0
  9
$BLIPMODE
 70
     0
  9
$CHAMFERA
 40
0.0
  9
$CHAMFERB
 40
0.0
  9
$SKPOLY
 70
     0
  9
$TDCREATE
 40
2457735.4604470371
  9
$TDUPDATE
 40
2457735.5759832868
  9
$TDINDWG
 40
0.0613146759
  9
$TDUSRTIMER
 40
0.0613146759
  9
$USRTIMER
 70
     1
  9
$ANGBASE
 50
0.0
  9
$ANGDIR
 70
     0
  9
$PDMODE
 70
     0
  9
$PDSIZE
 40
0.3125
  9
$PLINEWID
 40
0.0
  9
$COORDS
 70
     1
  9
$SPLFRAME
 70
     0
  9
$SPLINETYPE
 70
     6
  9
$SPLINESEGS
 70
     8
  9
$ATTDIA
 70
     1
  9
$ATTREQ
 70
     1
  9
$HANDLING
 70
     1
  9
$HANDSEED
  5
F04
  9
$SURFTAB1
 70
     6
  9
$SURFTAB2
 70
     6
  9
$SURFTYPE
 70
     6
  9
$SURFU
 70
     6
  9
$SURFV
 70
     6
  9
$UCSNAME
  2

  9
$UCSORG
 10
0.0
 20
0.0
 30
0.0
  9
$UCSXDIR
 10
1.0
 20
0.0
 30
0.0
  9
$UCSYDIR
 10
0.0
 20
1.0
 30
0.0
  9
$PUCSNAME
  2

  9
$PUCSORG
 10
0.0
 20
0.0
 30
0.0
  9
$PUCSXDIR
 10
1.0
 20
0.0
 30
0.0
  9
$PUCSYDIR
 10
0.0
 20
1.0
 30
0.0
  9
$USERI1
 70
     0
  9
$USERI2
 70
     0
  9
$USERI3
 70
     0
  9
$USERI4
 70
     0
  9
$USERI5
 70
     0
  9
$USERR1
 40
0.0
  9
$USERR2
 40
0.0
  9
$USERR3
 40
0.0
  9
$USERR4
 40
0.0
  9
$USERR5
 40
0.0
  9
$WORLDVIEW
 70
     1
  9
$SHADEDGE
 70
     3
  9
$SHADEDIF
 70
    70
  9
$TILEMODE
 70
     1
  9
$MAXACTVP
 70
    48
  9
$PLIMCHECK
 70
     0
  9
$PEXTMIN
 10
1.0000000000000000E+020
 20
1.0000000000000000E+020
 30
1.0000000000000000E+020
  9
$PEXTMAX
 10
-1.0000000000000000E+020
 20
-1.0000000000000000E+020
 30
-1.0000000000000000E+020
  9
$PLIMMIN
 10
0.0
 20
0.0
  9
$PLIMMAX
 10
12.0
 20
9.0
  9
$UNITMODE
 70
     0
  9
$VISRETAIN
 70
     1
  9
$PLINEGEN
 70
     0
  9
$PSLTSCALE
 70
     1
  0
ENDSEC
  0
SECTION
  2
TABLES
  0
TABLE
  2
VPORT
 70
     1
  0
VPORT
  2
*ACTIVE
 70
     0
 10
0.0
 20
0.0
 11
1.0
 21
1.0
 12
35.954955600245029
 22
16.461991326328729
 13
0.0
 23
0.0
 14
1.0
 24
1.0
 15
0.0
 25
0.0
 16
0.0
 26
0.0
 36
1.0
 17
0.0
 27
0.0
 37
0.0
 40
12.903053194129001
 41
1.6528662420382161
 42
50.0
 43
0.0
 44
0.0
 50
0.0
 51
0.0
 71
     0
 72
   100
 73
     1
 74
     1
 75
     0
 76
     0
 77
     0
 78
     0
  0
ENDTAB
  0
TABLE
  2
LTYPE
 70
     2
  0
LTYPE
  2
CONTINUOUS
 70
     0
  3
Solid line
 72
    65
 73
     0
 40
0.0
  0
LTYPE
  2
PHANTOM2
 70
     0
  3
___ _ _ ___ _ _ ___ _ _ ___ _ _
 72
    65
 73
     6
 40
1.25
 49
0.625
 49
-0.125
 49
0.125
 49
-0.125
 49
0.125
 49
-0.125
  0
ENDTAB
  0
TABLE
  2
LAYER
 70
     2
  0
LAYER
  2
0
 70
     0
 62
     7
  6
CONTINUOUS
  0
LAYER
  2
DEFPOINTS
 70
     0
 62
     7
  6
CONTINUOUS
  0
ENDTAB
  0
TABLE
  2
STYLE
 70
     1
  0
STYLE
  2
STANDARD
 70
     0
 40
0.0
 41
0.8
 50
0.0
 71
     0
 42
0.2
  3
txt
  4

  0
ENDTAB
  0
TABLE
  2
VIEW
 70
     0
  0
ENDTAB
  0
TABLE
  2
UCS
 70
     0
  0
ENDTAB
  0
TABLE
  2
APPID
 70
     7
  0
APPID
  2
ACAD
 70
     0
  0
APPID
  2
ACAD_MLEADERVER
 70
     0
  0
APPID
  2
ACAD_DSTYLE_DIMJAG
 70
     0
  0
APPID
  2
ACAD_DSTYLE_DIMTALN
 70
     0
  0
APPID
  2
ACAD_NAV_VCDISPLAY
 70
     0
  0
APPID
  2
ACAD_EXEMPT_FROM_CAD_STANDARDS
 70
     0
  0
APPID
  2
ACDBATTR
 70
     0
  0
ENDTAB
  0
TABLE
  2
DIMSTYLE
 70
     1
  0
DIMSTYLE
  2
STANDARD
 70
     0
  3
\X
  4

  5

  6

  7

 40
1.0
 41
0.1875
 42
0.0625
 43
0.38
 44
0.125
 45
0.0
 46
0.0
 47
1.5
 48
1.5
140
0.15625
141
0.09
142
0.0
143
25.399999999999999
144
1.0
145
0.0
146
1.0
147
0.09
 71
     0
 72
     0
 73
     1
 74
     1
 75
     0
 76
     0
 77
     0
 78
     4
170
     1
171
     2
172
     0
173
     0
174
     0
175
     0
176
     0
177
     0
178
     0
  0
ENDTAB
  0
ENDSEC
  0
SECTION
  2
BLOCKS
  0
BLOCK
  8
0
  2
$MODEL_SPACE
 70
     0
 10
0.0
 20
0.0
 30
0.0
  3
$MODEL_SPACE
  1

  0
ENDBLK
  5
21
  8
0
  0
BLOCK
 67
     1
  8
0
  2
$PAPER_SPACE
 70
     0
 10
0.0
 20
0.0
 30
0.0
  3
$PAPER_SPACE
  1

  0
ENDBLK
  5
1D
 67
     1
  8
0
  0
ENDSEC
  0
SECTION
  2
ENTITIES
  0
LINE
  5
921
  8
0
 10
35.204988298527219
 20
22.872728317
 30
0.0
 11
36.704985468527219
 21
22.872728317
 31
0.0
  0
LINE
  5
922
  8
0
 10
36.704985468527219
 20
22.872728317
 30
0.0
 11
36.704986883527212
 21
20.872728317
 31
0.0
  0
LINE
  5
923
  8
0
 10
35.204986883527212
 20
20.872728317
 30
0.0
 11
35.204988298527219
 21
22.872728317
 31
0.0
  0
LINE
  5
924
  8
0
 10
34.454986883527212
 20
20.872728317
 30
0.0
 11
37.454974102827222
 21
20.872728317
 31
0.0
  0
LINE
  5
925
  8
0
 10
37.454974102827222
 20
20.872728317
 30
0.0
 11
37.454974102827222
 21
20.714226120199999
 31
0.0
  0
LINE
  5
927
  8
0
 10
34.454986883527212
 20
20.872728317
 30
0.0
 11
34.454999664327211
 21
20.714226120199999
 31
0.0
  0
ARC
  5
929
  8
0
 10
34.514986890734171
 20
20.714226121590201
 30
0.0
 40
0.0600000072069562
 50
180.0000013275413
 51
223.68265556226231
  0
ARC
  5
92A
  8
0
 10
33.024986883527198
 20
19.29172831699999
 30
0.0
 40
2.0000000000000191
 50
7.4191024714001239
 51
43.671997930257071
  0
ARC
  5
92B
  8
0
 10
37.39498687632026
 20
20.714226121590201
 30
0.0
 40
0.0600000072069562
 50
316.31734443773769
 51
359.99999867245867
  0
ARC
  5
92C
  8
0
 10
38.88498688352724
 20
19.29172831699999
 30
0.0
 40
2.0000000000000191
 50
136.32800206974289
 51
172.58089752859991
  0
ARC
  5
92D
  8
0
 10
35.067740906927213
 20
19.557728316999999
 30
0.0
 40
0.0599999999999952
 50
187.41910247189529
 51
270.0000000000025
  0
LINE
  5
92E
  8
0
 10
35.067741871527211
 20
19.497728317
 30
0.0
 11
36.842232860127211
 21
19.497728317
 31
0.0
  0
LINE
  5
92F
  8
0
 10
35.204986883527212
 20
19.497728317
 30
0.0
 11
35.204986883527212
 21
14.122728317
 31
0.0
  0
LINE
  5
930
  8
0
 10
36.704986883527212
 20
19.497728317
 30
0.0
 11
36.704986883527212
 21
14.122728317
 31
0.0
  0
ARC
  5
931
  8
0
 10
36.842233824727217
 20
19.557728316999999
 30
0.0
 40
0.0599999999999952
 50
269.99999999999733
 51
352.58089752810457
  0
ARC
  5
932
  8
0
 10
35.954986883527219
 20
14.122728317
 30
0.0
 40
0.7500000000000009
 50
180.0
 51
0.0
  0
LINE
  5
933
  8
0
 10
34.954986883527212
 20
13.7420709908
 30
0.0
 11
34.954986883527212
 21
14.5033856432
 31
0.0
  0
ARC
  5
935
  8
0
 10
35.954986883527233
 20
14.122728317
 30
0.0
 40
1.07000000000002
 50
140.83969366480059
 51
159.16030633520029
  0
LINE
  5
936
  8
0
 10
35.125327968927223
 20
14.798425057699999
 30
0.0
 11
35.204986883527212
 21
14.844416153499999
 31
0.0
  0
ARC
  5
937
  8
0
 10
35.954986883527233
 20
14.122728317
 30
0.0
 40
1.07000000000002
 50
200.8396936647996
 51
219.16030633519949
  0
LINE
  5
938
  8
0
 10
35.125327968927223
 20
13.447031576300001
 30
0.0
 11
35.784645798091468
 21
13.06637425012063
 31
0.0
  0
ARC
  5
939
  8
0
 10
35.954986883481098
 20
14.12272831757565
 30
0.0
 40
1.0700000005756569
 50
260.83969367028033
 51
279.16030633273061
  0
LINE
  5
93A
  8
0
 10
36.954986883527212
 20
13.7420709908
 30
0.0
 11
36.954986883527212
 21
14.5033856432
 31
0.0
  0
ARC
  5
93B
  8
0
 10
35.954986883527191
 20
14.122728317
 30
0.0
 40
1.07000000000002
 50
20.839693664799679
 51
39.160306335199323
  0
LINE
  5
93C
  8
0
 10
36.784645798127222
 20
14.798425057699999
 30
0.0
 11
36.704986883527212
 21
14.844416153499999
 31
0.0
  0
ARC
  5
93D
  8
0
 10
35.954986883527191
 20
14.122728317
 30
0.0
 40
1.07000000000002
 50
320.83969366480051
 51
339.1603063352004
  0
LINE
  5
93E
  8
0
 10
36.784645798127222
 20
13.447031576300001
 30
0.0
 11
36.125327968962957
 21
13.06637425012063
 31
0.0
  0
ARC
  5
93F
  8
0
 10
35.954986883527219
 20
14.122728317
 30
0.0
 40
0.8703589657999998
 50
149.50951322898089
 51
30.490486771019139
  0
LINE
  5
940
  8
0
 10
35.204986883527212
 20
15.747728317
 30
0.0
 11
36.704986883527212
 21
15.747728317
 31
0.0
  0
LINE
  5
941
  8
0
 10
35.142486883527212
 20
11.808331761664091
 30
0.0
 11
35.142486883527212
 21
13.4371248723
 31
0.0
  0
LINE
  5
942
  8
0
 10
36.767486883527212
 20
11.808331761664091
 30
0.0
 11
36.767486883527212
 21
13.4371248723
 31
0.0
  0
ARC
  5
943
  8
0
 10
35.954986883527219
 20
11.12272831699997
 30
0.0
 40
1.07000000000003
 50
80.839693660869997
 51
99.160306335199706
  0
CIRCLE
  5
945
  8
0
 10
35.954986883527219
 20
11.122728317
 30
0.0
 40
0.7187500000000006
  0
ARC
  5
9EB
  8
0
 10
35.954986883527269
 20
11.12272831699997
 30
0.0
 40
1.070000000000062
 50
140.83969366480051
 51
159.16030633515521
  0
ARC
  5
9EC
  8
0
 10
35.954986883527262
 20
11.12272831700003
 30
0.0
 40
1.0700000000000549
 50
200.8396936648447
 51
219.16030633519949
  0
ARC
  5
9ED
  8
0
 10
35.95499563292389
 20
11.127090643816009
 30
0.0
 40
1.0743083049486619
 50
260.87627098949628
 51
278.89389623922648
  0
ARC
  5
9EE
  8
0
 10
35.954986883527191
 20
11.12272831700002
 30
0.0
 40
1.0700000000000329
 50
320.83969366479988
 51
339.16030633515493
  0
ARC
  5
9EF
  8
0
 10
35.954986883527233
 20
11.122728317000011
 30
0.0
 40
1.0699999999999821
 50
20.839693664844301
 51
39.16030633520019
  0
LINE
  5
9F0
  8
0
 10
36.954986883527212
 20
11.5033856432
 30
0.0
 11
36.954986883527212
 21
10.742070990786511
 31
0.0
  0
LINE
  5
9F1
  8
0
 10
36.784645798127222
 20
10.447031576300001
 30
0.0
 11
36.121089215959977
 21
10.065699454971909
 31
0.0
  0
LINE
  5
9F2
  8
0
 10
35.784645798163943
 20
10.06637425010895
 30
0.0
 11
35.125327968927223
 21
10.447031576300001
 31
0.0
  0
LINE
  5
9F3
  8
0
 10
34.954986883527212
 20
10.7420709908
 30
0.0
 11
34.954986883527212
 21
11.50338564321348
 31
0.0
  0
LINE
  5
9F4
  8
0
 10
36.125327968962957
 20
12.17908238387936
 30
0.0
 11
36.784645798164227
 21
11.79842505767834
 31
0.0
  0
LINE
  5
9F5
  8
0
 10
35.125327968927223
 20
11.798425057699999
 30
0.0
 11
35.784645798163943
 21
12.17908238389105
 31
0.0
  0
CIRCLE
  5
9F6
  8
0
 10
35.954986883527219
 20
11.1402676871
 30
0.0
 40
0.8528195956999997
  0
CIRCLE
  5
9F7
  8
0
 10
35.954986883527219
 20
11.122728317
 30
0.0
 40
0.7600000000000008
  0
LINE
  5
9F8
  8
0
 10
34.454999664327211
 20
20.714226120199999
 30
0.0
 11
37.454974102827222
 21
20.714226120199999
 31
0.0
  0
ATTDEF
  5
C64
  8
DEFPOINTS
 10
35.950376297115731
 20
20.876673135292339
 30
0.0
 40
0.001
  1
BRASS
  3

  2
MATERIAL
 70
     0
1001
ACDBATTR
1070
     0
1070
     1
  0
ATTDEF
  5
C65
  8
DEFPOINTS
 10
35.950376297115731
 20
20.878339801959012
 30
0.0
 40
0.001
  1
P-TRAP
  3

  2
PRODUCT
 70
     0
1001
ACDBATTR
1070
     0
1070
     1
  0
ATTDEF
  5
C66
  8
DEFPOINTS
 10
35.950376297115731
 20
20.88000646862568
 30
0.0
 40
0.001
  1

  3

  2
TRADENAME
 70
     0
1001
ACDBATTR
1070
     0
1070
     1
  0
ATTDEF
  5
C67
  8
DEFPOINTS
 10
35.950376297115731
 20
20.881673135292338
 30
0.0
 40
0.001
  1
K-9000
  3

  2
MODELNUMBER
 70
     0
1001
ACDBATTR
1070
     0
1070
     1
  0
ENDSEC
  0
EOF
