  0
SECTION
  2
HEADER
  9
$ACADVER
  1
AC1009
  9
$INSBASE
 10
6.2644531250000002
 20
12.698542294799999
 30
0.0
  9
$EXTMIN
 10
4.762817439579897
 20
8.2003937258855331
 30
-0.0015258207003583
  9
$EXTMAX
 10
7.7655945170735938
 20
14.199005163273551
 30
0.0000000349246037
  9
$LIMMIN
 10
0.0
 20
0.0
  9
$LIMMAX
 10
22.0
 20
17.0
  9
$ORTHOMODE
 70
     0
  9
$REGENMODE
 70
     1
  9
$FILLMODE
 70
     1
  9
$QTEXTMODE
 70
     0
  9
$MIRRTEXT
 70
     0
  9
$DRAGMODE
 70
     2
  9
$LTSCALE
 40
1.2099999999999991
  9
$OSMODE
 70
    39
  9
$ATTMODE
 70
     1
  9
$TEXTSIZE
 40
0.2
  9
$TRACEWID
 40
0.05
  9
$TEXTSTYLE
  7
STANDARD
  9
$CLAYER
  8
0
  9
$CELTYPE
  6
BYLAYER
  9
$CECOLOR
 62
   256
  9
$DIMSCALE
 40
1.0
  9
$DIMASZ
 40
0.1875
  9
$DIMEXO
 40
0.0625
  9
$DIMDLI
 40
0.8359999999999999
  9
$DIMRND
 40
0.0
  9
$DIMDLE
 40
0.0
  9
$DIMEXE
 40
0.125
  9
$DIMTP
 40
0.0
  9
$DIMTM
 40
0.0
  9
$DIMTXT
 40
0.15625
  9
$DIMCEN
 40
0.198
  9
$DIMTSZ
 40
0.0
  9
$DIMTOL
 70
     0
  9
$DIMLIM
 70
     0
  9
$DIMTIH
 70
     1
  9
$DIMTOH
 70
     1
  9
$DIMSE1
 70
     0
  9
$DIMSE2
 70
     0
  9
$DIMTAD
 70
     0
  9
$DIMZIN
 70
     0
  9
$DIMBLK
  1

  9
$DIMASO
 70
     1
  9
$DIMSHO
 70
     1
  9
$DIMPOST
  1

  9
$DIMAPOST
  1

  9
$DIMALT
 70
     0
  9
$DIMALTD
 70
     2
  9
$DIMALTF
 40
25.399999999999999
  9
$DIMLFAC
 40
1.0
  9
$DIMTOFL
 70
     0
  9
$DIMTVP
 40
0.0
  9
$DIMTIX
 70
     0
  9
$DIMSOXD
 70
     0
  9
$DIMSAH
 70
     0
  9
$DIMBLK1
  1

  9
$DIMBLK2
  1

  9
$DIMSTYLE
  2
STANDARD
  9
$DIMCLRD
 70
     0
  9
$DIMCLRE
 70
     0
  9
$DIMCLRT
 70
     0
  9
$DIMTFAC
 40
1.0
  9
$DIMGAP
 40
0.09
  9
$LUNITS
 70
     2
  9
$LUPREC
 70
     4
  9
$SKETCHINC
 40
0.1
  9
$FILLETRAD
 40
0.0
  9
$AUNITS
 70
     0
  9
$AUPREC
 70
     0
  9
$MENU
  1
.
  9
$ELEVATION
 40
0.0
  9
$PELEVATION
 40
0.0
  9
$THICKNESS
 40
0.0
  9
$LIMCHECK
 70
     0
  9
$BLIPMODE
 70
     0
  9
$CHAMFERA
 40
0.0
  9
$CHAMFERB
 40
0.0
  9
$SKPOLY
 70
     0
  9
$TDCREATE
 40
2457562.5920391548
  9
$TDUPDATE
 40
2457562.719872952
  9
$TDINDWG
 40
0.0521815509
  9
$TDUSRTIMER
 40
0.0521815509
  9
$USRTIMER
 70
     1
  9
$ANGBASE
 50
0.0
  9
$ANGDIR
 70
     0
  9
$PDMODE
 70
     0
  9
$PDSIZE
 40
0.3125
  9
$PLINEWID
 40
0.0
  9
$COORDS
 70
     1
  9
$SPLFRAME
 70
     0
  9
$SPLINETYPE
 70
     6
  9
$SPLINESEGS
 70
     8
  9
$ATTDIA
 70
     0
  9
$ATTREQ
 70
     1
  9
$HANDLING
 70
     1
  9
$HANDSEED
  5
8FD
  9
$SURFTAB1
 70
     6
  9
$SURFTAB2
 70
     6
  9
$SURFTYPE
 70
     6
  9
$SURFU
 70
     6
  9
$SURFV
 70
     6
  9
$UCSNAME
  2

  9
$UCSORG
 10
0.0
 20
0.0
 30
0.0
  9
$UCSXDIR
 10
1.0
 20
0.0
 30
0.0
  9
$UCSYDIR
 10
0.0
 20
1.0
 30
0.0
  9
$PUCSNAME
  2

  9
$PUCSORG
 10
0.0
 20
0.0
 30
0.0
  9
$PUCSXDIR
 10
1.0
 20
0.0
 30
0.0
  9
$PUCSYDIR
 10
0.0
 20
1.0
 30
0.0
  9
$USERI1
 70
     0
  9
$USERI2
 70
     0
  9
$USERI3
 70
     0
  9
$USERI4
 70
     0
  9
$USERI5
 70
     0
  9
$USERR1
 40
0.0
  9
$USERR2
 40
0.0
  9
$USERR3
 40
0.0
  9
$USERR4
 40
0.0
  9
$USERR5
 40
0.0
  9
$WORLDVIEW
 70
     1
  9
$SHADEDGE
 70
     3
  9
$SHADEDIF
 70
    70
  9
$TILEMODE
 70
     1
  9
$MAXACTVP
 70
    48
  9
$PLIMCHECK
 70
     0
  9
$PEXTMIN
 10
1.0000000000000000E+020
 20
1.0000000000000000E+020
 30
1.0000000000000000E+020
  9
$PEXTMAX
 10
-1.0000000000000000E+020
 20
-1.0000000000000000E+020
 30
-1.0000000000000000E+020
  9
$PLIMMIN
 10
0.0
 20
0.0
  9
$PLIMMAX
 10
12.0
 20
9.0
  9
$UNITMODE
 70
     0
  9
$VISRETAIN
 70
     1
  9
$PLINEGEN
 70
     0
  9
$PSLTSCALE
 70
     1
  0
ENDSEC
  0
SECTION
  2
TABLES
  0
TABLE
  2
VPORT
 70
     1
  0
VPORT
  2
*ACTIVE
 70
     0
 10
0.0
 20
0.0
 11
1.0
 21
1.0
 12
-0.000247146673261
 22
-0.0002800412246966
 13
0.0
 23
0.0
 14
1.0
 24
1.0
 15
0.0
 25
0.0
 16
-0.0000000000000044
 26
0.0
 36
18.393569090563961
 17
6.2644531250000082
 27
11.19997948580423
 37
0.0
 40
6.156718600278638
 41
2.0329087048832268
 42
50.0
 43
0.0
 44
0.0
 50
0.0
 51
0.0
 71
     0
 72
   100
 73
     1
 74
     1
 75
     0
 76
     0
 77
     0
 78
     0
  0
ENDTAB
  0
TABLE
  2
LTYPE
 70
     1
  0
LTYPE
  2
CONTINUOUS
 70
     0
  3
Solid line
 72
    65
 73
     0
 40
0.0
  0
ENDTAB
  0
TABLE
  2
LAYER
 70
     2
  0
LAYER
  2
0
 70
     0
 62
     7
  6
CONTINUOUS
  0
LAYER
  2
DEFPOINTS
 70
     0
 62
     7
  6
CONTINUOUS
  0
ENDTAB
  0
TABLE
  2
STYLE
 70
     1
  0
STYLE
  2
STANDARD
 70
     0
 40
0.0
 41
0.8
 50
0.0
 71
     0
 42
0.2
  3
txt
  4

  0
ENDTAB
  0
TABLE
  2
VIEW
 70
     1
  0
ENDTAB
  0
TABLE
  2
UCS
 70
     0
  0
ENDTAB
  0
TABLE
  2
APPID
 70
     4
  0
APPID
  2
ACAD
 70
     0
  0
APPID
  2
ACAD_MLEADERVER
 70
     0
  0
APPID
  2
ACAD_NAV_VCDISPLAY
 70
     0
  0
APPID
  2
ACDBATTR
 70
     0
  0
ENDTAB
  0
TABLE
  2
DIMSTYLE
 70
     1
  0
DIMSTYLE
  2
STANDARD
 70
     0
  3

  4

  5

  6

  7

 40
1.0
 41
0.1875
 42
0.0625
 43
0.38
 44
0.125
 45
0.0
 46
0.0
 47
1.5
 48
1.5
140
0.15625
141
0.09
142
0.0
143
25.399999999999999
144
1.0
145
0.0
146
1.0
147
0.09
 71
     0
 72
     0
 73
     1
 74
     1
 75
     0
 76
     0
 77
     0
 78
     4
170
     0
171
     2
172
     0
173
     0
174
     0
175
     0
176
     0
177
     0
178
     0
  0
ENDTAB
  0
ENDSEC
  0
SECTION
  2
BLOCKS
  0
BLOCK
  8
0
  2
$MODEL_SPACE
 70
     0
 10
0.0
 20
0.0
 30
0.0
  3
$MODEL_SPACE
  1

  0
ENDBLK
  5
21
  8
0
  0
BLOCK
 67
     1
  8
0
  2
$PAPER_SPACE
 70
     0
 10
0.0
 20
0.0
 30
0.0
  3
$PAPER_SPACE
  1

  0
ENDBLK
  5
1D
 67
     1
  8
0
  0
ENDSEC
  0
SECTION
  2
ENTITIES
  0
LINE
  5
217
  8
0
 10
5.609453124999999
 20
8.2014577051999993
 30
0.0
 11
6.9194531250000004
 21
8.2014577051999993
 31
0.0
  0
LINE
  5
21B
  8
0
 10
6.9194531250000004
 20
8.3264577051999993
 30
0.0
 11
5.609453124999999
 21
8.3264577051999993
 31
0.0
  0
LINE
  5
21C
  8
0
 10
5.6652632927682216
 20
8.3474577052550387
 30
0.0
 11
6.8636421384000004
 21
8.3474577052000001
 31
0.0
  0
LINE
  5
225
  8
0
 10
5.4671326168999999
 20
12.4914577052
 30
0.0
 11
5.3894531250000002
 21
12.356913674299999
 31
0.0
  0
LINE
  5
228
  8
0
 10
5.3894531250000002
 20
11.961457705200001
 30
0.0
 11
5.3894531250000002
 21
12.356913674299999
 31
0.0
  0
LINE
  5
22B
  8
0
 10
5.4484531250000003
 20
11.961457705200001
 30
0.0
 11
5.4484531250000003
 21
11.943068543800001
 31
0.0
  0
LINE
  5
22C
  8
0
 10
5.4643841660000003
 20
12.192368051800001
 30
0.0
 11
5.4643841660000003
 21
11.961457705200001
 31
0.0
  0
LINE
  5
22E
  8
0
 10
5.5244531249999991
 20
9.1338890866999982
 30
0.0
 11
5.5244531249999991
 21
11.715068543799999
 31
0.0
  0
LINE
  5
22F
  8
0
 10
5.609453124999999
 20
8.2014577051999993
 30
0.0
 11
5.609453124999999
 21
8.3264577051999993
 31
0.0
  0
LINE
  5
234
  8
0
 10
5.6394531250000002
 20
12.698542294799999
 30
0.0
 11
5.6394531250000002
 21
12.5214577052
 31
0.0
  0
LINE
  5
235
  8
0
 10
5.6394531250000002
 20
8.4105422948000008
 30
0.0
 11
5.6394531250000002
 21
8.6704794944000003
 31
0.0
  0
LINE
  5
236
  8
0
 10
5.8119531249999987
 20
8.3264577051999993
 30
0.0
 11
5.8119531249999987
 21
8.3474577052000001
 31
0.0
  0
LINE
  5
23C
  8
0
 10
5.8885309970000002
 20
8.2014577051999993
 30
0.0
 11
5.8885309970000002
 21
8.3264577051999993
 31
0.0
  0
LINE
  5
23D
  8
0
 10
5.9888603820000004
 20
8.3264577051999993
 30
0.0
 11
5.9888603820000004
 21
8.2014577051999993
 31
0.0
  0
LINE
  5
23E
  8
0
 10
6.189522084
 20
11.961457705200001
 30
0.0
 11
6.189522084
 21
12.192368051800001
 31
0.0
  0
LINE
  5
247
  8
0
 10
6.3393841660000003
 20
12.192368051800001
 30
0.0
 11
6.3393841660000003
 21
11.961457705200001
 31
0.0
  0
LINE
  5
249
  8
0
 10
6.5400458679999991
 20
8.2014577051999993
 30
0.0
 11
6.5400458679999991
 21
8.3264577051999993
 31
0.0
  0
LINE
  5
24A
  8
0
 10
6.6403752529999993
 20
8.3264577051999993
 30
0.0
 11
6.6403752529999993
 21
8.2014577051999993
 31
0.0
  0
LINE
  5
24D
  8
0
 10
6.8894531250000002
 20
12.698542294799999
 30
0.0
 11
6.8894531250000002
 21
12.5214577052
 31
0.0
  0
LINE
  5
250
  8
0
 10
6.9194531250000004
 20
8.2014577051999993
 30
0.0
 11
6.9194531250000004
 21
8.3264577051999993
 31
0.0
  0
LINE
  5
256
  8
0
 10
7.064522084
 20
11.961457705200001
 30
0.0
 11
7.064522084
 21
12.192368051800001
 31
0.0
  0
LINE
  5
258
  8
0
 10
7.1394531250000002
 20
12.356913674299999
 30
0.0
 11
7.1394531250000002
 21
11.961457705200001
 31
0.0
  0
LINE
  5
25D
  8
0
 10
5.3894531250000002
 20
11.961457705200001
 30
0.0
 11
7.1394531250000002
 21
11.961457705200001
 31
0.0
  0
LINE
  5
25F
  8
0
 10
7.1394531250000002
 20
12.192368051800001
 30
0.0
 11
7.064522084
 21
12.192368051800001
 31
0.0
  0
LINE
  5
260
  8
0
 10
6.3393841660000003
 20
12.192368051800001
 30
0.0
 11
6.189522084
 21
12.192368051800001
 31
0.0
  0
LINE
  5
261
  8
0
 10
5.4643841660000003
 20
12.192368051800001
 30
0.0
 11
5.3894531250000002
 21
12.192368051800001
 31
0.0
  0
LINE
  5
263
  8
0
 10
7.0098121088000003
 20
12.5214577052
 30
0.0
 11
5.5190941412000001
 21
12.5214577052
 31
0.0
  0
LINE
  5
265
  8
0
 10
7.0617736330999987
 20
12.4914577052
 30
0.0
 11
7.1394531250000002
 21
12.356913674299999
 31
0.0
  0
ARC
  5
4A0
  8
0
 10
6.2644531250000002
 20
12.698542294799999
 30
0.0
 40
1.5
 50
299.55990837867847
 51
240.44009162132161
  0
ARC
  5
4A6
  8
0
 10
6.2644531250000002
 20
12.698542294799999
 30
0.0
 40
0.6915242398999999
 50
345.16249073421358
 51
194.83750926578639
  0
ARC
  5
4A8
  8
0
 10
6.2644531250000002
 20
12.698542294799999
 30
0.0
 40
0.625
 50
0.0
 51
180.0
  0
ARC
  5
4A9
  8
0
 10
5.1444531250000001
 20
11.715068543799999
 30
0.0
 40
0.38
 50
0.0
 51
36.869897645800002
  0
ARC
  5
4AC
  8
0
 10
5.729453125
 20
8.4105422948000008
 30
0.0
 40
0.09
 50
180.0
 51
224.50245973489999
  0
ARC
  5
4AF
  8
0
 10
7.0098121088000003
 20
12.461457705200001
 30
0.0
 40
0.06
 50
30.0000880499
 51
90.0
  0
ARC
  5
4B0
  8
0
 10
5.5190941412000001
 20
12.461457705200001
 30
0.0
 40
0.06
 50
90.0
 51
149.9999119501
  0
ARC
  5
6C1
  8
0
 10
6.0106278493626002
 20
11.568379598347279
 30
0.0
 40
0.8293031723416081
 50
114.41544278253819
 51
131.19912075372201
  0
ARC
  5
6C2
  8
0
 10
5.8269536802372617
 20
11.97299713997314
 30
0.0
 40
0.3849479592572583
 50
65.582360424894631
 51
114.41544278253809
  0
ARC
  5
6C3
  8
0
 10
5.643223345896792
 20
11.56829709783095
 30
0.0
 40
0.8294015112362652
 50
48.80177154344117
 51
65.582360424894745
  0
ARC
  5
6C4
  8
0
 10
6.8856278493626002
 20
11.568379598347279
 30
0.0
 40
0.8293031723416081
 50
114.41544278253819
 51
131.19912075372201
  0
ARC
  5
6C5
  8
0
 10
6.7019536802372617
 20
11.97299713997314
 30
0.0
 40
0.3849479592572583
 50
65.582360424894631
 51
114.41544278253809
  0
ARC
  5
6C6
  8
0
 10
6.518223345896792
 20
11.56829709783095
 30
0.0
 40
0.8294015112362652
 50
48.80177154344117
 51
65.582360424894745
  0
LINE
  5
6E1
  8
0
 10
5.4671326168999999
 20
11.070542294799999
 30
0.0
 11
5.3894531250000002
 21
10.9359982639
 31
0.0
  0
LINE
  5
6E2
  8
0
 10
5.3894531250000002
 20
10.5405422948
 30
0.0
 11
5.3894531250000002
 21
10.9359982639
 31
0.0
  0
LINE
  5
6E3
  8
0
 10
5.4643841660000003
 20
10.7714526414
 30
0.0
 11
5.4643841660000003
 21
10.5405422948
 31
0.0
  0
LINE
  5
6E6
  8
0
 10
7.064522084
 20
10.5405422948
 30
0.0
 11
7.064522084
 21
10.7714526414
 31
0.0
  0
LINE
  5
6E7
  8
0
 10
7.1394531250000002
 20
10.9359982639
 30
0.0
 11
7.1394531250000002
 21
10.5405422948
 31
0.0
  0
LINE
  5
6E8
  8
0
 10
5.3894531250000002
 20
10.5405422948
 30
0.0
 11
5.5244531249999991
 21
10.5405422948
 31
0.0
  0
LINE
  5
6E9
  8
0
 10
7.1394531250000002
 20
10.7714526414
 30
0.0
 11
7.064522084
 21
10.7714526414
 31
0.0
  0
LINE
  5
6EB
  8
0
 10
5.4643841660000003
 20
10.7714526414
 30
0.0
 11
5.3894531250000002
 21
10.7714526414
 31
0.0
  0
LINE
  5
6EC
  8
0
 10
7.0098121088000003
 20
11.1005422948
 30
0.0
 11
7.0044531250000004
 21
11.1005422948
 31
0.0
  0
LINE
  5
6ED
  8
0
 10
7.0617736330999987
 20
11.070542294799999
 30
0.0
 11
7.1394531250000002
 21
10.9359982639
 31
0.0
  0
ARC
  5
6EE
  8
0
 10
7.0098121088000003
 20
11.0405422948
 30
0.0
 40
0.06
 50
30.00008804990005
 51
90.0
  0
ARC
  5
6EF
  8
0
 10
5.5190941412000001
 20
11.0405422948
 30
0.0
 40
0.06
 50
90.0
 51
149.99991195009989
  0
ARC
  5
6F0
  8
0
 10
6.0106278493626002
 20
10.14746418794728
 30
0.0
 40
0.8293031723416081
 50
125.89098261527759
 51
131.19912075372201
  0
ARC
  5
6F5
  8
0
 10
6.518223345896792
 20
10.147381687430951
 30
0.0
 40
0.8294015112362652
 50
48.801771543441141
 51
54.109238741877412
  0
LINE
  5
6F6
  8
0
 10
7.080453125
 20
11.961457705200001
 30
0.0
 11
7.080453125
 21
11.943068543800001
 31
0.0
  0
LINE
  5
6F7
  8
0
 10
7.0044531250000004
 20
9.1338890866999982
 30
0.0
 11
7.0044531250000004
 21
11.715068543799999
 31
0.0
  0
ARC
  5
6F8
  8
0
 10
7.3844531250000003
 20
11.715068543799999
 30
0.0
 40
0.38
 50
143.13010235420001
 51
180.0
  0
LINE
  5
6FC
  8
0
 10
5.524453125
 20
11.1005422948
 30
0.0
 11
5.5190941412000001
 21
11.1005422948
 31
0.0
  0
LINE
  5
6FE
  8
0
 10
7.0044531249999986
 20
10.5405422948
 30
0.0
 11
7.1394531250000002
 21
10.5405422948
 31
0.0
  0
ARC
  5
6FF
  8
0
 10
5.2858472217086501
 20
10.404539071960199
 30
0.0
 40
0.2387362354540112
 50
1.8933199893543711
 51
34.727903748651087
  0
ARC
  5
700
  8
0
 10
7.2575951274677193
 20
10.399111738259361
 30
0.0
 40
0.2539073170670645
 50
146.15028340594961
 51
175.5503160307118
  0
ARC
  5
701
  8
0
 10
6.257014471906241
 20
9.1332982584831832
 30
0.0
 40
0.7325615851647341
 50
179.95378959585611
 51
208.48840264215059
  0
ARC
  5
708
  8
0
 10
6.2718917780937593
 20
9.1332982584831832
 30
0.0
 40
0.7325615851647341
 50
331.51159735784938
 51
0.0462104041439029
  0
ARC
  5
71C
  8
0
 10
5.3770902613197888
 20
8.6693885032651998
 30
0.0
 40
0.2623651320205051
 50
0.2382533348677652
 51
25.873380363694089
  0
LINE
  5
71D
  8
0
 10
6.8894523061682218
 20
8.4105422948000008
 30
0.0
 11
6.8894523061682218
 21
8.6704794944000003
 31
0.0
  0
ARC
  5
71E
  8
0
 10
6.7994523061682219
 20
8.4105422948000008
 30
0.0
 40
0.09
 50
315.49754026509999
 51
0.000000000000007
  0
ARC
  5
71F
  8
0
 10
7.1518151698484331
 20
8.6693885032651998
 30
0.0
 40
0.2623651320205051
 50
154.12661963630589
 51
179.76174666513219
  0
ARC
  5
728
  8
0
 10
6.0155712712338456
 20
9.1155665864170778
 30
0.0
 40
0.5218675757108584
 50
219.6637056045623
 51
244.44155613400031
  0
ARC
  5
729
  8
0
 10
6.2380996235299948
 20
9.5808848830031188
 30
0.0
 40
1.0376582161003221
 50
244.44155613400031
 51
271.45530259335129
  0
ARC
  5
72A
  8
0
 10
6.5133341599343764
 20
9.1155665864170778
 30
0.0
 40
0.5218675757108584
 50
295.55844386599972
 51
320.33629439543768
  0
ARC
  5
72B
  8
0
 10
6.2908059292224161
 20
9.5808845259541791
 30
0.0
 40
1.0376578415349089
 50
268.54473522746599
 51
295.55844631515407
  0
ATTDEF
  5
76D
  8
DEFPOINTS
 10
6.2594531032263436
 20
12.688542276543879
 30
0.0
 40
0.001
  1
CAST BRASS
  3

  2
MATERIAL
 70
     0
1001
ACDBATTR
1070
     0
1070
     1
  0
ATTDEF
  5
76E
  8
DEFPOINTS
 10
6.2594531032263436
 20
12.69020894321055
 30
0.0
 40
0.001
  1
P-TRAP
  3

  2
PRODUCT
 70
     0
1001
ACDBATTR
1070
     0
1070
     1
  0
ATTDEF
  5
76F
  8
DEFPOINTS
 10
6.2594531032263436
 20
12.69187560987721
 30
0.0
 40
0.001
  1

  3

  2
TRADENAME
 70
     0
1001
ACDBATTR
1070
     0
1070
     1
  0
ATTDEF
  5
770
  8
DEFPOINTS
 10
6.2594531032263436
 20
12.69354227654388
 30
0.0
 40
0.001
  1
K-8998
  3

  2
MODELNUMBER
 70
     0
1001
ACDBATTR
1070
     0
1070
     1
  0
LINE
  5
7D1
  8
0
 10
6.7169523061682233
 20
8.3264577051999993
 30
0.0
 11
6.7169523061682233
 21
8.3474577052000001
 31
0.0
  0
ENDSEC
  0
EOF
