  0
SECTION
  2
HEADER
  9
$ACADVER
  1
AC1009
  9
$INSBASE
 10
23.015966271001229
 20
11.81405205428943
 30
0.0
  9
$EXTMIN
 10
20.765966271001229
 20
9.5640520542894354
 30
0.0
  9
$EXTMAX
 10
25.265966271001229
 20
14.06405205428943
 30
0.0
  9
$LIMMIN
 10
0.0
 20
0.0
  9
$LIMMAX
 10
11.692913385800001
 20
8.2677165353999982
  9
$ORTHOMODE
 70
     0
  9
$REGENMODE
 70
     1
  9
$FILLMODE
 70
     1
  9
$QTEXTMODE
 70
     0
  9
$MIRRTEXT
 70
     0
  9
$DRAGMODE
 70
     2
  9
$LTSCALE
 40
0.6431102362
  9
$OSMODE
 70
  3071
  9
$ATTMODE
 70
     1
  9
$TEXTSIZE
 40
0.2
  9
$TRACEWID
 40
0.05
  9
$TEXTSTYLE
  7
STANDARD
  9
$CLAYER
  8
0
  9
$CELTYPE
  6
BYLAYER
  9
$CECOLOR
 62
   256
  9
$DIMSCALE
 40
1.0
  9
$DIMASZ
 40
0.1875
  9
$DIMEXO
 40
0.0625
  9
$DIMDLI
 40
0.4443307087
  9
$DIMRND
 40
0.0
  9
$DIMDLE
 40
0.0
  9
$DIMEXE
 40
0.125
  9
$DIMTP
 40
0.0
  9
$DIMTM
 40
0.0
  9
$DIMTXT
 40
0.15625
  9
$DIMCEN
 40
0.1052362205
  9
$DIMTSZ
 40
0.0
  9
$DIMTOL
 70
     0
  9
$DIMLIM
 70
     0
  9
$DIMTIH
 70
     1
  9
$DIMTOH
 70
     1
  9
$DIMSE1
 70
     0
  9
$DIMSE2
 70
     0
  9
$DIMTAD
 70
     0
  9
$DIMZIN
 70
     0
  9
$DIMBLK
  1

  9
$DIMASO
 70
     1
  9
$DIMSHO
 70
     1
  9
$DIMPOST
  1
\X
  9
$DIMAPOST
  1

  9
$DIMALT
 70
     1
  9
$DIMALTD
 70
     2
  9
$DIMALTF
 40
25.399999999999999
  9
$DIMLFAC
 40
1.0
  9
$DIMTOFL
 70
     0
  9
$DIMTVP
 40
0.0
  9
$DIMTIX
 70
     0
  9
$DIMSOXD
 70
     0
  9
$DIMSAH
 70
     0
  9
$DIMBLK1
  1

  9
$DIMBLK2
  1

  9
$DIMSTYLE
  2
STANDARD
  9
$DIMCLRD
 70
     0
  9
$DIMCLRE
 70
     0
  9
$DIMCLRT
 70
     0
  9
$DIMTFAC
 40
1.0
  9
$DIMGAP
 40
0.09
  9
$LUNITS
 70
     2
  9
$LUPREC
 70
     4
  9
$SKETCHINC
 40
0.1
  9
$FILLETRAD
 40
0.0
  9
$AUNITS
 70
     0
  9
$AUPREC
 70
     0
  9
$MENU
  1
.
  9
$ELEVATION
 40
0.0
  9
$PELEVATION
 40
0.0
  9
$THICKNESS
 40
0.0
  9
$LIMCHECK
 70
     0
  9
$BLIPMODE
 70
     0
  9
$CHAMFERA
 40
0.0
  9
$CHAMFERB
 40
0.0
  9
$SKPOLY
 70
     0
  9
$TDCREATE
 40
2457730.4866459491
  9
$TDUPDATE
 40
2457731.509866239
  9
$TDINDWG
 40
0.0557995139
  9
$TDUSRTIMER
 40
0.0557995139
  9
$USRTIMER
 70
     1
  9
$ANGBASE
 50
0.0
  9
$ANGDIR
 70
     0
  9
$PDMODE
 70
     0
  9
$PDSIZE
 40
0.3125
  9
$PLINEWID
 40
0.0
  9
$COORDS
 70
     1
  9
$SPLFRAME
 70
     0
  9
$SPLINETYPE
 70
     6
  9
$SPLINESEGS
 70
     8
  9
$ATTDIA
 70
     1
  9
$ATTREQ
 70
     1
  9
$HANDLING
 70
     1
  9
$HANDSEED
  5
1EA6
  9
$SURFTAB1
 70
     6
  9
$SURFTAB2
 70
     6
  9
$SURFTYPE
 70
     6
  9
$SURFU
 70
     6
  9
$SURFV
 70
     6
  9
$UCSNAME
  2

  9
$UCSORG
 10
0.0
 20
0.0
 30
0.0
  9
$UCSXDIR
 10
1.0
 20
0.0
 30
0.0
  9
$UCSYDIR
 10
0.0
 20
1.0
 30
0.0
  9
$PUCSNAME
  2

  9
$PUCSORG
 10
0.0
 20
0.0
 30
0.0
  9
$PUCSXDIR
 10
1.0
 20
0.0
 30
0.0
  9
$PUCSYDIR
 10
0.0
 20
1.0
 30
0.0
  9
$USERI1
 70
     0
  9
$USERI2
 70
     0
  9
$USERI3
 70
     0
  9
$USERI4
 70
     0
  9
$USERI5
 70
     0
  9
$USERR1
 40
0.0
  9
$USERR2
 40
0.0
  9
$USERR3
 40
0.0
  9
$USERR4
 40
0.0
  9
$USERR5
 40
0.0
  9
$WORLDVIEW
 70
     1
  9
$SHADEDGE
 70
     3
  9
$SHADEDIF
 70
    70
  9
$TILEMODE
 70
     1
  9
$MAXACTVP
 70
    48
  9
$PLIMCHECK
 70
     0
  9
$PEXTMIN
 10
1.0000000000000000E+020
 20
1.0000000000000000E+020
 30
1.0000000000000000E+020
  9
$PEXTMAX
 10
-1.0000000000000000E+020
 20
-1.0000000000000000E+020
 30
-1.0000000000000000E+020
  9
$PLIMMIN
 10
0.0
 20
0.0
  9
$PLIMMAX
 10
12.0
 20
9.0
  9
$UNITMODE
 70
     0
  9
$VISRETAIN
 70
     1
  9
$PLINEGEN
 70
     0
  9
$PSLTSCALE
 70
     1
  0
ENDSEC
  0
SECTION
  2
TABLES
  0
TABLE
  2
VPORT
 70
     1
  0
VPORT
  2
*ACTIVE
 70
     0
 10
0.0
 20
0.0
 11
1.0
 21
1.0
 12
23.016313040791321
 22
12.12475991681875
 13
0.0
 23
0.0
 14
1.0
 24
1.0
 15
0.0
 25
0.0
 16
0.0
 26
0.0
 36
1.0
 17
0.0
 27
0.0
 37
0.0
 40
4.5318940781111827
 41
2.1748571428571419
 42
50.0
 43
0.0
 44
0.0
 50
0.0
 51
0.0
 71
     0
 72
   100
 73
     1
 74
     1
 75
     0
 76
     0
 77
     0
 78
     0
  0
ENDTAB
  0
TABLE
  2
LTYPE
 70
     2
  0
LTYPE
  2
CONTINUOUS
 70
     0
  3
Solid line
 72
    65
 73
     0
 40
0.0
  0
LTYPE
  2
PHANTOM2
 70
     0
  3
___ _ _ ___ _ _ ___ _ _ ___ _ _
 72
    65
 73
     6
 40
1.25
 49
0.625
 49
-0.125
 49
0.125
 49
-0.125
 49
0.125
 49
-0.125
  0
ENDTAB
  0
TABLE
  2
LAYER
 70
     2
  0
LAYER
  2
0
 70
     0
 62
     7
  6
CONTINUOUS
  0
LAYER
  2
DEFPOINTS
 70
     0
 62
     7
  6
CONTINUOUS
  0
ENDTAB
  0
TABLE
  2
STYLE
 70
     1
  0
STYLE
  2
STANDARD
 70
     0
 40
0.0
 41
0.8
 50
0.0
 71
     0
 42
0.2
  3
txt
  4

  0
ENDTAB
  0
TABLE
  2
VIEW
 70
     0
  0
ENDTAB
  0
TABLE
  2
UCS
 70
     0
  0
ENDTAB
  0
TABLE
  2
APPID
 70
     7
  0
APPID
  2
ACAD
 70
     0
  0
APPID
  2
ACAD_MLEADERVER
 70
     0
  0
APPID
  2
ACAD_NAV_VCDISPLAY
 70
     0
  0
APPID
  2
ACAD_DSTYLE_DIMJAG
 70
     0
  0
APPID
  2
ACAD_DSTYLE_DIMTALN
 70
     0
  0
APPID
  2
ACAD_EXEMPT_FROM_CAD_STANDARDS
 70
     0
  0
APPID
  2
ACDBATTR
 70
     0
  0
ENDTAB
  0
TABLE
  2
DIMSTYLE
 70
     1
  0
DIMSTYLE
  2
STANDARD
 70
     0
  3
\X
  4

  5

  6

  7

 40
1.0
 41
0.1875
 42
0.0625
 43
0.38
 44
0.125
 45
0.0
 46
0.0
 47
1.5
 48
1.5
140
0.15625
141
0.09
142
0.0
143
25.399999999999999
144
1.0
145
0.0
146
1.0
147
0.09
 71
     0
 72
     0
 73
     1
 74
     1
 75
     0
 76
     0
 77
     0
 78
     4
170
     1
171
     2
172
     0
173
     0
174
     0
175
     0
176
     0
177
     0
178
     0
  0
ENDTAB
  0
ENDSEC
  0
SECTION
  2
BLOCKS
  0
BLOCK
  8
0
  2
$MODEL_SPACE
 70
     0
 10
0.0
 20
0.0
 30
0.0
  3
$MODEL_SPACE
  1

  0
ENDBLK
  5
21
  8
0
  0
BLOCK
 67
     1
  8
0
  2
$PAPER_SPACE
 70
     0
 10
0.0
 20
0.0
 30
0.0
  3
$PAPER_SPACE
  1

  0
ENDBLK
  5
1D
 67
     1
  8
0
  0
ENDSEC
  0
SECTION
  2
ENTITIES
  0
CIRCLE
  5
922
  8
0
 10
22.47470039370123
 20
11.50155205428943
 30
0.0
 40
0.095
  0
CIRCLE
  5
923
  8
0
 10
22.703466271001229
 20
11.272786176889429
 30
0.0
 40
0.095
  0
CIRCLE
  5
924
  8
0
 10
22.721473075401221
 20
10.907695194189429
 30
0.0
 40
0.095
  0
CIRCLE
  5
925
  8
0
 10
22.45580692560122
 20
11.043058858589429
 30
0.0
 40
0.095
  0
CIRCLE
  5
926
  8
0
 10
22.24497307540123
 20
11.253892708789429
 30
0.0
 40
0.095
  0
CIRCLE
  5
927
  8
0
 10
22.10960941100122
 20
11.519558858589431
 30
0.0
 40
0.095
  0
CIRCLE
  5
928
  8
0
 10
23.01594391340122
 20
10.53305205448944
 30
0.0
 40
0.095
  0
CIRCLE
  5
929
  8
0
 10
22.73089827140122
 20
10.56517366318943
 30
0.0
 40
0.095
  0
CIRCLE
  5
92A
  8
0
 10
22.460146813001231
 20
10.659917863589429
 30
0.0
 40
0.095
  0
CIRCLE
  5
92B
  8
0
 10
22.217265846401219
 20
10.81253389088943
 30
0.0
 40
0.095
  0
CIRCLE
  5
92C
  8
0
 10
22.01443416780123
 20
11.015369109489431
 30
0.0
 40
0.095
  0
CIRCLE
  5
92D
  8
0
 10
21.86182237970122
 20
11.25825273978943
 30
0.0
 40
0.095
  0
CIRCLE
  5
92E
  8
0
 10
21.767082904801232
 20
11.52900585168943
 30
0.0
 40
0.095
  0
CIRCLE
  5
92F
  8
0
 10
22.390966271001229
 20
11.81405205428943
 30
0.0
 40
0.095
  0
CIRCLE
  5
930
  8
0
 10
22.703466271001229
 20
12.35531793158944
 30
0.0
 40
0.095
  0
CIRCLE
  5
931
  8
0
 10
22.47470039370123
 20
12.126552054289441
 30
0.0
 40
0.095
  0
CIRCLE
  5
932
  8
0
 10
22.06296627100123
 20
11.81405205428943
 30
0.0
 40
0.095
  0
CIRCLE
  5
933
  8
0
 10
22.10960941100122
 20
12.108545249889429
 30
0.0
 40
0.095
  0
CIRCLE
  5
934
  8
0
 10
22.24497307540123
 20
12.374211399689431
 30
0.0
 40
0.095
  0
CIRCLE
  5
935
  8
0
 10
22.45580692560122
 20
12.585045249889429
 30
0.0
 40
0.095
  0
CIRCLE
  5
936
  8
0
 10
22.721473075401221
 20
12.720408914289431
 30
0.0
 40
0.095
  0
CIRCLE
  5
937
  8
0
 10
21.73496627180123
 20
11.81409676958943
 30
0.0
 40
0.095
  0
CIRCLE
  5
938
  8
0
 10
21.767092855601231
 20
12.09914185088943
 30
0.0
 40
0.095
  0
CIRCLE
  5
939
  8
0
 10
21.861841781401228
 20
12.36989165558944
 30
0.0
 40
0.095
  0
CIRCLE
  5
93A
  8
0
 10
22.01446204770123
 20
12.61276995858943
 30
0.0
 40
0.095
  0
CIRCLE
  5
93B
  8
0
 10
22.21730080640123
 20
12.81559809698944
 30
0.0
 40
0.095
  0
CIRCLE
  5
93C
  8
0
 10
22.460187100201221
 20
12.96820564598943
 30
0.0
 40
0.095
  0
CIRCLE
  5
93D
  8
0
 10
22.730941865701229
 20
13.062940395289431
 30
0.0
 40
0.095
  0
CIRCLE
  5
93E
  8
0
 10
23.015966271001229
 20
11.18905205428943
 30
0.0
 40
0.095
  0
CIRCLE
  5
93F
  8
0
 10
23.328466271001229
 20
11.272786176889429
 30
0.0
 40
0.095
  0
CIRCLE
  5
940
  8
0
 10
23.55723214840123
 20
11.50155205428943
 30
0.0
 40
0.095
  0
CIRCLE
  5
941
  8
0
 10
23.922323131101219
 20
11.519558858589431
 30
0.0
 40
0.095
  0
CIRCLE
  5
942
  8
0
 10
23.786959466701219
 20
11.253892708789429
 30
0.0
 40
0.095
  0
CIRCLE
  5
943
  8
0
 10
23.57612561650123
 20
11.043058858589429
 30
0.0
 40
0.095
  0
CIRCLE
  5
944
  8
0
 10
23.310459466701229
 20
10.907695194189429
 30
0.0
 40
0.095
  0
CIRCLE
  5
945
  8
0
 10
23.015966271001229
 20
10.861052054289431
 30
0.0
 40
0.095
  0
CIRCLE
  5
946
  8
0
 10
24.29696627030123
 20
11.81400733888943
 30
0.0
 40
0.095
  0
CIRCLE
  5
947
  8
0
 10
24.264839686501219
 20
11.528962257689431
 30
0.0
 40
0.095
  0
CIRCLE
  5
948
  8
0
 10
24.170090760701228
 20
11.25821245288944
 30
0.0
 40
0.095
  0
CIRCLE
  5
949
  8
0
 10
24.017470494301222
 20
11.01533414988943
 30
0.0
 40
0.095
  0
CIRCLE
  5
94A
  8
0
 10
23.814631735601221
 20
10.812506011589431
 30
0.0
 40
0.095
  0
CIRCLE
  5
94B
  8
0
 10
23.57174544180123
 20
10.65989846248943
 30
0.0
 40
0.095
  0
CIRCLE
  5
94C
  8
0
 10
23.300990676401231
 20
10.565163713189429
 30
0.0
 40
0.095
  0
CIRCLE
  5
94D
  8
0
 10
23.015966271001229
 20
11.81405205428943
 30
0.0
 40
2.25
  0
CIRCLE
  5
94E
  8
0
 10
23.015966271001229
 20
11.81405205428943
 30
0.0
 40
1.8069999999999999
  0
CIRCLE
  5
953
  8
0
 10
23.015966271001229
 20
11.81405205428943
 30
0.0
 40
1.491383933499999
  0
CIRCLE
  5
954
  8
0
 10
23.015966271001229
 20
11.81405205428943
 30
0.0
 40
1.397512757199999
  0
CIRCLE
  5
991
  8
0
 10
23.015966271001229
 20
11.81405205428943
 30
0.0
 40
0.31
  0
CIRCLE
  5
992
  8
0
 10
23.015966271001229
 20
11.81405205428943
 30
0.0
 40
0.2760938555
  0
CIRCLE
  5
993
  8
0
 10
23.015966271001229
 20
12.439052054289441
 30
0.0
 40
0.095
  0
CIRCLE
  5
994
  8
0
 10
23.55723214840123
 20
12.126552054289441
 30
0.0
 40
0.095
  0
CIRCLE
  5
995
  8
0
 10
23.328466271001229
 20
12.35531793158944
 30
0.0
 40
0.095
  0
CIRCLE
  5
996
  8
0
 10
23.015966271001229
 20
12.76705205428944
 30
0.0
 40
0.095
  0
CIRCLE
  5
997
  8
0
 10
23.310459466701229
 20
12.720408914289431
 30
0.0
 40
0.095
  0
CIRCLE
  5
998
  8
0
 10
23.57612561650123
 20
12.585045249889429
 30
0.0
 40
0.095
  0
CIRCLE
  5
999
  8
0
 10
23.015988628701219
 20
13.095052054089431
 30
0.0
 40
0.095
  0
CIRCLE
  5
99A
  8
0
 10
23.301034270601221
 20
13.06293044528943
 30
0.0
 40
0.095
  0
CIRCLE
  5
99B
  8
0
 10
23.571785729101219
 20
12.968186244889431
 30
0.0
 40
0.095
  0
CIRCLE
  5
99C
  8
0
 10
23.640966271001229
 20
11.81405205428943
 30
0.0
 40
0.095
  0
CIRCLE
  5
99D
  8
0
 10
23.968966271001221
 20
11.81405205428943
 30
0.0
 40
0.095
  0
CIRCLE
  5
99E
  8
0
 10
23.786959466701219
 20
12.374211399689431
 30
0.0
 40
0.095
  0
CIRCLE
  5
99F
  8
0
 10
23.922323131101219
 20
12.108545249889429
 30
0.0
 40
0.095
  0
CIRCLE
  5
9A0
  8
0
 10
24.17011016240123
 20
12.36985136878943
 30
0.0
 40
0.095
  0
CIRCLE
  5
9A1
  8
0
 10
24.264849637301229
 20
12.099098256789439
 30
0.0
 40
0.095
  0
CIRCLE
  5
9A2
  8
0
 10
23.81466669570122
 20
12.81557021768943
 30
0.0
 40
0.095
  0
CIRCLE
  5
9A3
  8
0
 10
24.017498374201232
 20
12.61273499898943
 30
0.0
 40
0.095
  0
ATTDEF
  5
1BC1
  8
DEFPOINTS
 10
23.000267423498212
 20
11.8114624186199
 30
0.0
 40
0.001
  1
BRASS
  3

  2
MATERIAL
 70
     0
1001
ACDBATTR
1070
     0
1070
     1
  0
ATTDEF
  5
1BC2
  8
DEFPOINTS
 10
23.000267423498212
 20
11.813129085286571
 30
0.0
 40
0.001
  1
SINK STRAINER
  3

  2
PRODUCT
 70
     0
1001
ACDBATTR
1070
     0
1070
     1
  0
ATTDEF
  5
1BC3
  8
DEFPOINTS
 10
23.000267423498212
 20
11.814795751953231
 30
0.0
 40
0.001
  1
DUOSTRAINER
  3

  2
TRADENAME
 70
     0
1001
ACDBATTR
1070
     0
1070
     1
  0
ATTDEF
  5
1BC4
  8
DEFPOINTS
 10
23.000267423498212
 20
11.816462418619899
 30
0.0
 40
0.001
  1
K-8801
  3

  2
MODELNUMBER
 70
     0
1001
ACDBATTR
1070
     0
1070
     1
  0
ENDSEC
  0
EOF
