  0
SECTION
  2
HEADER
  9
$ACADVER
  1
AC1009
  9
$INSBASE
 10
23.015966271051241
 20
0.9709205146999999
 30
0.0
  9
$EXTMIN
 10
20.764050472825531
 20
0.9610514206169575
 30
-0.000000000000013
  9
$EXTMAX
 10
25.267078941229911
 20
7.8680564286939818
 30
0.0000000000000023
  9
$LIMMIN
 10
0.0
 20
0.0
  9
$LIMMAX
 10
11.692913385800001
 20
8.2677165353999982
  9
$ORTHOMODE
 70
     0
  9
$REGENMODE
 70
     1
  9
$FILLMODE
 70
     1
  9
$QTEXTMODE
 70
     0
  9
$MIRRTEXT
 70
     0
  9
$DRAGMODE
 70
     2
  9
$LTSCALE
 40
0.6431102362
  9
$OSMODE
 70
  3071
  9
$ATTMODE
 70
     1
  9
$TEXTSIZE
 40
0.2
  9
$TRACEWID
 40
0.05
  9
$TEXTSTYLE
  7
STANDARD
  9
$CLAYER
  8
0
  9
$CELTYPE
  6
BYLAYER
  9
$CECOLOR
 62
   256
  9
$DIMSCALE
 40
1.0
  9
$DIMASZ
 40
0.1875
  9
$DIMEXO
 40
0.0625
  9
$DIMDLI
 40
0.4443307087
  9
$DIMRND
 40
0.0
  9
$DIMDLE
 40
0.0
  9
$DIMEXE
 40
0.125
  9
$DIMTP
 40
0.0
  9
$DIMTM
 40
0.0
  9
$DIMTXT
 40
0.15625
  9
$DIMCEN
 40
0.1052362205
  9
$DIMTSZ
 40
0.0
  9
$DIMTOL
 70
     0
  9
$DIMLIM
 70
     0
  9
$DIMTIH
 70
     1
  9
$DIMTOH
 70
     1
  9
$DIMSE1
 70
     0
  9
$DIMSE2
 70
     0
  9
$DIMTAD
 70
     0
  9
$DIMZIN
 70
     0
  9
$DIMBLK
  1

  9
$DIMASO
 70
     1
  9
$DIMSHO
 70
     1
  9
$DIMPOST
  1
\X
  9
$DIMAPOST
  1

  9
$DIMALT
 70
     1
  9
$DIMALTD
 70
     2
  9
$DIMALTF
 40
25.399999999999999
  9
$DIMLFAC
 40
1.0
  9
$DIMTOFL
 70
     0
  9
$DIMTVP
 40
0.0
  9
$DIMTIX
 70
     0
  9
$DIMSOXD
 70
     0
  9
$DIMSAH
 70
     0
  9
$DIMBLK1
  1

  9
$DIMBLK2
  1

  9
$DIMSTYLE
  2
STANDARD
  9
$DIMCLRD
 70
     0
  9
$DIMCLRE
 70
     0
  9
$DIMCLRT
 70
     0
  9
$DIMTFAC
 40
1.0
  9
$DIMGAP
 40
0.09
  9
$LUNITS
 70
     2
  9
$LUPREC
 70
     4
  9
$SKETCHINC
 40
0.1
  9
$FILLETRAD
 40
0.0
  9
$AUNITS
 70
     0
  9
$AUPREC
 70
     0
  9
$MENU
  1
.
  9
$ELEVATION
 40
0.0
  9
$PELEVATION
 40
0.0
  9
$THICKNESS
 40
0.0
  9
$LIMCHECK
 70
     0
  9
$BLIPMODE
 70
     0
  9
$CHAMFERA
 40
0.0
  9
$CHAMFERB
 40
0.0
  9
$SKPOLY
 70
     0
  9
$TDCREATE
 40
2457730.4866459491
  9
$TDUPDATE
 40
2457731.5097444099
  9
$TDINDWG
 40
0.0647426852
  9
$TDUSRTIMER
 40
0.0647426852
  9
$USRTIMER
 70
     1
  9
$ANGBASE
 50
0.0
  9
$ANGDIR
 70
     0
  9
$PDMODE
 70
     0
  9
$PDSIZE
 40
0.3125
  9
$PLINEWID
 40
0.0
  9
$COORDS
 70
     1
  9
$SPLFRAME
 70
     0
  9
$SPLINETYPE
 70
     6
  9
$SPLINESEGS
 70
     8
  9
$ATTDIA
 70
     1
  9
$ATTREQ
 70
     1
  9
$HANDLING
 70
     1
  9
$HANDSEED
  5
1E18
  9
$SURFTAB1
 70
     6
  9
$SURFTAB2
 70
     6
  9
$SURFTYPE
 70
     6
  9
$SURFU
 70
     6
  9
$SURFV
 70
     6
  9
$UCSNAME
  2

  9
$UCSORG
 10
0.0
 20
0.0
 30
0.0
  9
$UCSXDIR
 10
1.0
 20
0.0
 30
0.0
  9
$UCSYDIR
 10
0.0
 20
1.0
 30
0.0
  9
$PUCSNAME
  2

  9
$PUCSORG
 10
0.0
 20
0.0
 30
0.0
  9
$PUCSXDIR
 10
1.0
 20
0.0
 30
0.0
  9
$PUCSYDIR
 10
0.0
 20
1.0
 30
0.0
  9
$USERI1
 70
     0
  9
$USERI2
 70
     0
  9
$USERI3
 70
     0
  9
$USERI4
 70
     0
  9
$USERI5
 70
     0
  9
$USERR1
 40
0.0
  9
$USERR2
 40
0.0
  9
$USERR3
 40
0.0
  9
$USERR4
 40
0.0
  9
$USERR5
 40
0.0
  9
$WORLDVIEW
 70
     1
  9
$SHADEDGE
 70
     3
  9
$SHADEDIF
 70
    70
  9
$TILEMODE
 70
     1
  9
$MAXACTVP
 70
    48
  9
$PLIMCHECK
 70
     0
  9
$PEXTMIN
 10
1.0000000000000000E+020
 20
1.0000000000000000E+020
 30
1.0000000000000000E+020
  9
$PEXTMAX
 10
-1.0000000000000000E+020
 20
-1.0000000000000000E+020
 30
-1.0000000000000000E+020
  9
$PLIMMIN
 10
0.0
 20
0.0
  9
$PLIMMAX
 10
12.0
 20
9.0
  9
$UNITMODE
 70
     0
  9
$VISRETAIN
 70
     1
  9
$PLINEGEN
 70
     0
  9
$PSLTSCALE
 70
     1
  0
ENDSEC
  0
SECTION
  2
TABLES
  0
TABLE
  2
VPORT
 70
     1
  0
VPORT
  2
*ACTIVE
 70
     0
 10
0.0
 20
0.0
 11
1.0
 21
1.0
 12
23.015564707027721
 22
4.4145539246554701
 13
0.0
 23
0.0
 14
1.0
 24
1.0
 15
0.0
 25
0.0
 16
0.0
 26
0.0
 36
1.0
 17
0.0
 27
0.0
 37
0.0
 40
6.9543132615570036
 41
2.1748571428571419
 42
50.0
 43
0.0
 44
0.0
 50
0.0
 51
0.0
 71
     0
 72
   100
 73
     1
 74
     1
 75
     0
 76
     0
 77
     0
 78
     0
  0
ENDTAB
  0
TABLE
  2
LTYPE
 70
     2
  0
LTYPE
  2
CONTINUOUS
 70
     0
  3
Solid line
 72
    65
 73
     0
 40
0.0
  0
LTYPE
  2
PHANTOM2
 70
     0
  3
___ _ _ ___ _ _ ___ _ _ ___ _ _
 72
    65
 73
     6
 40
1.25
 49
0.625
 49
-0.125
 49
0.125
 49
-0.125
 49
0.125
 49
-0.125
  0
ENDTAB
  0
TABLE
  2
LAYER
 70
     2
  0
LAYER
  2
0
 70
     0
 62
     7
  6
CONTINUOUS
  0
LAYER
  2
DEFPOINTS
 70
     0
 62
     7
  6
CONTINUOUS
  0
ENDTAB
  0
TABLE
  2
STYLE
 70
     1
  0
STYLE
  2
STANDARD
 70
     0
 40
0.0
 41
0.8
 50
0.0
 71
     0
 42
0.2
  3
txt
  4

  0
ENDTAB
  0
TABLE
  2
VIEW
 70
     0
  0
ENDTAB
  0
TABLE
  2
UCS
 70
     0
  0
ENDTAB
  0
TABLE
  2
APPID
 70
     7
  0
APPID
  2
ACAD
 70
     0
  0
APPID
  2
ACAD_MLEADERVER
 70
     0
  0
APPID
  2
ACAD_NAV_VCDISPLAY
 70
     0
  0
APPID
  2
ACAD_DSTYLE_DIMJAG
 70
     0
  0
APPID
  2
ACAD_DSTYLE_DIMTALN
 70
     0
  0
APPID
  2
ACAD_EXEMPT_FROM_CAD_STANDARDS
 70
     0
  0
APPID
  2
ACDBATTR
 70
     0
  0
ENDTAB
  0
TABLE
  2
DIMSTYLE
 70
     1
  0
DIMSTYLE
  2
STANDARD
 70
     0
  3
\X
  4

  5

  6

  7

 40
1.0
 41
0.1875
 42
0.0625
 43
0.38
 44
0.125
 45
0.0
 46
0.0
 47
1.5
 48
1.5
140
0.15625
141
0.09
142
0.0
143
25.399999999999999
144
1.0
145
0.0
146
1.0
147
0.09
 71
     0
 72
     0
 73
     1
 74
     1
 75
     0
 76
     0
 77
     0
 78
     4
170
     1
171
     2
172
     0
173
     0
174
     0
175
     0
176
     0
177
     0
178
     0
  0
ENDTAB
  0
ENDSEC
  0
SECTION
  2
BLOCKS
  0
BLOCK
  8
0
  2
$MODEL_SPACE
 70
     0
 10
0.0
 20
0.0
 30
0.0
  3
$MODEL_SPACE
  1

  0
ENDBLK
  5
21
  8
0
  0
BLOCK
 67
     1
  8
0
  2
$PAPER_SPACE
 70
     0
 10
0.0
 20
0.0
 30
0.0
  3
$PAPER_SPACE
  1

  0
ENDBLK
  5
1D
 67
     1
  8
0
  0
ENDSEC
  0
SECTION
  2
ENTITIES
  0
LINE
  5
12DC
  8
0
 10
20.765966271001211
 20
7.7209205147000004
 30
0.0
 11
25.265966271001211
 21
7.7209205147000004
 31
0.0
  0
LINE
  5
12DE
  8
0
 10
20.765966271001219
 20
7.6899205146999998
 30
0.0
 11
20.765966271001219
 21
7.7209205147000004
 31
0.0
  0
LINE
  5
12DF
  8
0
 10
20.765966271001211
 20
7.6899205146999998
 30
0.0
 11
25.265966271001211
 21
7.6899205147000034
 31
0.0
  0
ARC
  5
12E0
  8
0
 10
22.7559662709604
 20
7.7709205146591867
 30
0.0
 40
0.0499999999591871
 50
108.77804981666171
 51
270.00000004676571
  0
ARC
  5
12E1
  8
0
 10
23.04246345281905
 20
6.928294050219586
 30
0.0
 40
0.9399999964682203
 50
91.615295551969794
 51
108.778274567282
  0
ARC
  5
12E2
  8
0
 10
22.989469064057531
 20
6.9282939302289961
 30
0.0
 40
0.9400001182365684
 50
71.221725335716116
 51
88.384701915971789
  0
ARC
  5
12E3
  8
0
 10
23.275966271001209
 20
7.7709205146999993
 30
0.0
 40
0.0500000000000012
 50
270.0000000000008
 51
71.220796548362202
  0
ARC
  5
1325
  8
0
 10
24.80796627101191
 20
7.4898542132961632
 30
0.0
 40
0.1090000000106865
 50
101.00000001202871
 51
179.99999999798311
  0
LINE
  5
1327
  8
0
 10
20.765966271001211
 20
7.4709205147000004
 30
0.0
 11
25.265966271001211
 21
7.4709205147000004
 31
0.0
  0
LINE
  5
1329
  8
0
 10
25.265966271001211
 20
7.3459205147000004
 30
0.0
 11
20.765966271001211
 21
7.3459205147000004
 31
0.0
  0
LINE
  5
132A
  8
0
 10
20.765966271001211
 20
7.3459205147000004
 30
0.0
 11
20.765966271001211
 21
7.4709205146999986
 31
0.0
  0
LINE
  5
132B
  8
0
 10
20.765984852601211
 20
7.2409205146999991
 30
0.0
 11
20.765984852601211
 21
7.120920514699999
 31
0.0
  0
LINE
  5
132C
  8
0
 10
20.765984852601211
 20
7.120920514699999
 30
0.0
 11
25.265947689501211
 21
7.120920514699999
 31
0.0
  0
LINE
  5
132E
  8
0
 10
25.265966271001211
 20
7.2409205146999991
 30
0.0
 11
20.765984852601211
 21
7.2409205146999831
 31
0.0
  0
LINE
  5
1330
  8
0
 10
24.698966271001229
 20
7.4898542132961632
 30
0.0
 11
24.698966271001229
 21
7.4709205147000004
 31
0.0
  0
ARC
  5
1333
  8
0
 10
21.223966271090521
 20
7.4898542132961632
 30
0.0
 40
0.1090000000106865
 50
0.0000000020168858
 51
78.999999987971265
  0
LINE
  5
1334
  8
0
 10
21.24476445157562
 20
7.5968515762999989
 30
0.0
 11
20.76596627110121
 21
7.6899205146999998
 31
0.0
  0
LINE
  5
1335
  8
0
 10
21.33296627110121
 20
7.4898542132961632
 30
0.0
 11
21.33296627110121
 21
7.4709205147000004
 31
0.0
  0
LINE
  5
1336
  8
0
 10
20.765966271001211
 20
6.910920514699999
 30
0.0
 11
20.765966271001211
 21
6.9559205146999998
 31
0.0
  0
LINE
  5
1337
  8
0
 10
20.765966271001211
 20
6.9559205146999998
 30
0.0
 11
20.780966271001208
 21
6.9709205147000004
 31
0.0
  0
LINE
  5
1338
  8
0
 10
20.780966271001208
 20
6.9709205147000004
 30
0.0
 11
25.250947746401209
 21
6.9709205147000004
 31
0.0
  0
LINE
  5
1339
  8
0
 10
25.250947746401209
 20
6.9709205147000004
 30
0.0
 11
25.265966271001211
 21
6.9559205146999998
 31
0.0
  0
ARC
  5
133F
  8
0
 10
22.7539691657833
 20
7.6468461678380697
 30
0.0
 40
0.7660001148230676
 50
270.7989013607118
 51
276.8203613936289
  0
ARC
  5
1340
  8
0
 10
22.301451003644161
 20
11.26212938281976
 30
0.0
 40
4.4094841739965878
 50
277.07992911283247
 51
279.325357276891
  0
ARC
  5
1344
  8
0
 10
23.277963376921051
 20
7.6468461678380697
 30
0.0
 40
0.7660001148230676
 50
263.17963860637121
 51
269.2010986392882
  0
ARC
  5
1345
  8
0
 10
23.73048153906019
 20
11.26212938281976
 30
0.0
 40
4.4094841739965878
 50
260.67464272310889
 51
262.92007088716741
  0
LINE
  5
1346
  8
0
 10
24.78716809042686
 20
7.5968515762999989
 30
0.0
 11
25.26596627090127
 21
7.6899205146999998
 31
0.0
  0
LINE
  5
1347
  8
0
 10
25.26596627100124
 20
7.2409205146999991
 30
0.0
 11
25.26596627100124
 21
7.120920514699999
 31
0.0
  0
LINE
  5
1348
  8
0
 10
25.265947689401241
 20
7.4709205147000004
 30
0.0
 11
25.26596627100124
 21
7.3459205147000004
 31
0.0
  0
LINE
  5
1349
  8
0
 10
25.265966271028571
 20
6.9559205146726706
 30
0.0
 11
25.26596627100124
 21
6.910920514699999
 31
0.0
  0
LINE
  5
134A
  8
0
 10
22.76464981739548
 20
6.880920518972534
 30
0.0
 11
20.795967003101239
 21
6.8809205146999997
 31
0.0
  0
LINE
  5
134B
  8
0
 10
23.267282725308981
 20
6.8809205189725331
 30
0.0
 11
25.235966185901241
 21
6.8809205146999997
 31
0.0
  0
ARC
  5
134C
  8
0
 10
25.235966271001239
 20
6.9109205146999972
 30
0.0
 40
0.0299999999999976
 50
269.99999999999648
 51
359.99999996520887
  0
ARC
  5
134D
  8
0
 10
20.795966271016489
 20
6.9109205147063149
 30
0.0
 40
0.0300000000152477
 50
180.00000001206229
 51
270.00139817888561
  0
ARC
  5
134E
  8
0
 10
20.980178432327619
 20
6.8330856513400482
 30
0.0
 40
0.047829173559899
 50
359.8052176335579
 51
89.714845724698236
  0
LINE
  5
134F
  8
0
 10
21.028007329501239
 20
6.8329230518999999
 30
0.0
 11
21.028007329501239
 21
6.7509205146999998
 31
0.0
  0
ARC
  5
1350
  8
0
 10
21.057886606605472
 20
6.750920514701753
 30
0.0
 40
0.0300000000042315
 50
180.0000000033468
 51
270.00073643367119
  0
LINE
  5
1351
  8
0
 10
21.057886606605472
 20
6.7209205146975206
 30
0.0
 11
24.974045694601241
 21
6.7209205147000004
 31
0.0
  0
ARC
  5
1353
  8
0
 10
24.974045935399591
 20
6.7509205147006837
 30
0.0
 40
0.0300000000016506
 50
269.99954010902559
 51
359.9999999986938
  0
LINE
  5
1354
  8
0
 10
25.004045935401241
 20
6.7509205146999998
 30
0.0
 11
25.003985632301241
 21
6.834303403399999
 31
0.0
  0
ARC
  5
1355
  8
0
 10
25.054278860457959
 20
6.8304847308812011
 30
0.0
 40
0.050437992210533
 50
89.463835104054269
 51
175.65796788133849
  0
ARC
  5
1356
  8
0
 10
21.495628477517059
 20
6.3905117040871664
 30
0.0
 40
0.1202105480585851
 50
178.37504570607661
 51
235.4177232500885
  0
ARC
  5
1357
  8
0
 10
21.40187278507295
 20
6.2544808464647721
 30
0.0
 40
0.0449999997261961
 50
1.999999929652112
 51
55.442465418676761
  0
LINE
  5
1358
  8
0
 10
21.446844950972348
 20
6.2560633349082702
 30
0.0
 11
21.451444147904681
 21
6.124359610993781
 31
0.0
  0
ARC
  5
1359
  8
0
 10
21.511452645823201
 20
6.1264736383054768
 30
0.0
 40
0.0600457236937941
 50
182.0176271052928
 51
271.67532346081919
  0
LINE
  5
135A
  8
0
 10
21.51320812723257
 20
6.0664535814999994
 30
0.0
 11
21.938122855891478
 21
6.0663873971874098
 31
0.0
  0
ARC
  5
135B
  8
0
 10
21.704436919025049
 20
5.7845815157691689
 30
0.0
 40
0.3760330204545643
 50
359.7469140864402
 51
45.654143423697967
  0
LINE
  5
135C
  8
0
 10
22.080466271001239
 20
5.7829205146999723
 30
0.0
 11
22.080734922501239
 21
5.4570833944999997
 31
0.0
  0
LINE
  5
135D
  8
0
 10
22.080734922501239
 20
5.4570833944999997
 30
0.0
 11
22.13437136900124
 21
5.4261061811999989
 31
0.0
  0
LINE
  5
135E
  8
0
 10
22.13437136900124
 20
5.4261061811999989
 30
0.0
 11
22.134373058501239
 21
5.4167063812
 31
0.0
  0
LINE
  5
135F
  8
0
 10
22.134373058501239
 20
5.4167063812
 30
0.0
 11
22.105308881901241
 21
5.3999205146999998
 31
0.0
  0
LINE
  5
1361
  8
0
 10
22.01596627100124
 20
5.3999205146999998
 30
0.0
 11
22.01596627100124
 21
4.9679339939
 31
0.0
  0
LINE
  5
1362
  8
0
 10
22.01596627100124
 20
4.9679339939
 30
0.0
 11
22.091279742855129
 21
4.837420505599999
 31
0.0
  0
ARC
  5
1363
  8
0
 10
22.145839337967971
 20
4.8689205145758274
 30
0.0
 40
0.0629999998758269
 50
210.0000094915145
 51
270.00000003026042
  0
LINE
  5
1364
  8
0
 10
22.14583998410124
 20
4.8059205147000004
 30
0.0
 11
23.886092558001241
 21
4.8059205147000004
 31
0.0
  0
ARC
  5
1365
  8
0
 10
23.886093204134511
 20
4.8689205145758194
 30
0.0
 40
0.0629999998758191
 50
269.99999996973798
 51
330.00000006520492
  0
LINE
  5
1366
  8
0
 10
23.940652804501241
 20
4.8374205146999998
 30
0.0
 11
24.01596627100124
 21
4.9678672651999989
 31
0.0
  0
LINE
  5
1367
  8
0
 10
24.01596627100124
 20
4.9678672651999989
 30
0.0
 11
24.01596627100124
 21
5.3999205146999998
 31
0.0
  0
LINE
  5
1368
  8
0
 10
24.01596627100124
 20
5.3999205146999998
 30
0.0
 11
22.01596627100124
 21
5.3999205146999998
 31
0.0
  0
LINE
  5
1369
  8
0
 10
23.91956932870124
 20
5.3999205146999998
 30
0.0
 11
23.95092538643091
 21
5.4180333554311524
 31
0.0
  0
LINE
  5
136B
  8
0
 10
23.95092538643091
 20
5.4180333554311524
 30
0.0
 11
23.951200163001239
 21
5.4180703837999991
 31
0.0
  0
LINE
  5
136C
  8
0
 10
23.951200163001239
 20
5.4180703837999991
 30
0.0
 11
23.951466271001241
 21
5.4183664890999994
 31
0.0
  0
LINE
  5
136D
  8
0
 10
23.951466271001241
 20
5.4183664890999994
 30
0.0
 11
23.951466271001241
 21
5.4244745401999994
 31
0.0
  0
LINE
  5
136E
  8
0
 10
23.951466271001241
 20
5.4244745401999994
 30
0.0
 11
23.897808364601239
 21
5.4554363504999994
 31
0.0
  0
LINE
  5
136F
  8
0
 10
23.897808364601239
 20
5.4554363504999994
 30
0.0
 11
23.897808364601239
 21
5.4646826731748712
 31
0.0
  0
LINE
  5
1370
  8
0
 10
23.897808364601239
 20
5.4646826731748712
 30
0.0
 11
23.951466271001241
 21
5.4963664890999988
 31
0.0
  0
LINE
  5
1371
  8
0
 10
23.951466271001241
 20
5.4963664890999988
 30
0.0
 11
23.951466271001241
 21
5.7829205146999998
 31
0.0
  0
ARC
  5
1372
  8
0
 10
24.337593442107011
 20
5.780357397066326
 30
0.0
 40
0.3861356780176544
 50
134.97926710066449
 51
179.61967538968869
  0
ARC
  5
1373
  8
0
 10
24.09624940090124
 20
6.021453581499995
 30
0.0
 40
0.0450000000000037
 50
90.000000000002245
 51
134.59894239729721
  0
LINE
  5
1374
  8
0
 10
24.09624940090124
 20
6.0664535814999994
 30
0.0
 11
24.52052494450124
 21
6.0664535814999994
 31
0.0
  0
LINE
  5
1375
  8
0
 10
24.580488394201371
 20
6.1243596117036176
 30
0.0
 11
24.585087170102799
 21
6.2560513237446091
 31
0.0
  0
ARC
  5
1376
  8
0
 10
24.63003024006791
 20
6.2544969887588922
 30
0.0
 40
0.0449699652376273
 50
124.5382105605217
 51
178.06378624898531
  0
ARC
  5
1377
  8
0
 10
24.5364662721461
 20
6.3903677819175124
 30
0.0
 40
0.1199999988551467
 50
304.55752111505183
 51
359.99999927544081
  0
ARC
  5
1378
  8
0
 10
22.154617311070169
 20
5.3472361011296261
 30
0.0
 40
0.0818084283206944
 50
91.485521789520575
 51
104.5395542132228
  0
ARC
  5
1379
  8
0
 10
27.911697070853648
 20
-263.63505807175738
 30
0.0
 40
269.12570465136452
 50
90.880285128208243
 51
91.226204230814432
  0
ARC
  5
137A
  8
0
 10
23.76068635900987
 20
7.05992882335135
 30
0.0
 40
1.601128578244196
 50
270.585446771031
 51
274.91287700585099
  0
ARC
  5
137B
  8
0
 10
22.13652509032201
 20
5.1229084616923144
 30
0.0
 40
0.3387999830910429
 50
89.903816709956587
 51
99.478060286032189
  0
ARC
  5
137C
  8
0
 10
28.47840378187097
 20
-329.36488607968772
 30
0.0
 40
334.88663797316349
 50
90.803973940203619
 51
91.085000030678714
  0
ARC
  5
137D
  8
0
 10
23.766282141048809
 20
7.7423288824673779
 30
0.0
 40
2.253583864515976
 50
270.33430853791759
 51
274.71349059862229
  0
LINE
  5
1387
  8
0
 10
22.01596627100124
 20
5.0891108217000003
 30
0.0
 11
22.18630735640124
 21
5.0891108217000003
 31
0.0
  0
LINE
  5
1388
  8
0
 10
22.18630735640124
 20
5.0891108217000003
 30
0.0
 11
22.18630735640124
 21
5.3999205146999998
 31
0.0
  0
LINE
  5
1389
  8
0
 10
22.845625185701241
 20
5.0891108217000003
 30
0.0
 11
22.845625185701241
 21
5.3999205146999998
 31
0.0
  0
LINE
  5
138A
  8
0
 10
23.18630735640124
 20
5.3999205146999998
 30
0.0
 11
23.18630735640124
 21
5.0891108217000003
 31
0.0
  0
LINE
  5
138B
  8
0
 10
23.845625185701241
 20
5.3999205146999998
 30
0.0
 11
23.845625185701241
 21
5.0891108217000003
 31
0.0
  0
LINE
  5
138C
  8
0
 10
23.845625185701241
 20
5.0891108217000003
 30
0.0
 11
24.01596627100124
 21
5.0891108217000003
 31
0.0
  0
LINE
  5
138D
  8
0
 10
22.845625185701241
 20
5.0891108217000003
 30
0.0
 11
23.18630735640124
 21
5.0891108217000003
 31
0.0
  0
ARC
  5
138E
  8
0
 10
22.515966271051241
 20
5.4847878093579663
 30
0.0
 40
0.5150099790977821
 50
230.20057463010349
 51
309.79942536989648
  0
ARC
  5
138F
  8
0
 10
23.515966271051241
 20
5.4772826161815606
 30
0.0
 40
0.5092664744897819
 50
229.6600754469342
 51
310.33992455306583
  0
ARC
  5
1390
  8
0
 10
23.919051243444279
 20
5.5893463679182611
 30
0.0
 40
0.1680281333190329
 50
269.6457828910244
 51
281.12290773983511
  0
ARC
  5
1391
  8
0
 10
22.664122551125061
 20
43.420892572472241
 30
0.0
 40
38.020253099115941
 50
270.0493691750732
 51
271.88993032336492
  0
ARC
  5
1392
  8
0
 10
24.520524944444571
 20
6.126453581640261
 30
0.0
 40
0.0600000001402625
 50
270.00000005411852
 51
357.99999987270922
  0
LINE
  5
1393
  8
0
 10
24.656466271001239
 20
6.3903677803999992
 30
0.0
 11
24.656466271001239
 21
6.3939205146999996
 31
0.0
  0
LINE
  5
1394
  8
0
 10
24.656466271001239
 20
6.3939205146999996
 30
0.0
 11
24.68888672860124
 21
6.4263409722000002
 31
0.0
  0
LINE
  5
1395
  8
0
 10
24.68888672860124
 20
6.4263409722000002
 30
0.0
 11
24.66536581970124
 21
6.4399500510512668
 31
0.0
  0
LINE
  5
1396
  8
0
 10
24.66536581970124
 20
6.4399500510512668
 30
0.0
 11
24.66536581970124
 21
6.44588927742923
 31
0.0
  0
LINE
  5
1397
  8
0
 10
24.66536581970124
 20
6.44588927742923
 30
0.0
 11
24.698914203401241
 21
6.4652575135000001
 31
0.0
  0
LINE
  5
1398
  8
0
 10
24.69896627100124
 20
6.4653194837000001
 30
0.0
 11
24.69896627100124
 21
6.4700187394000004
 31
0.0
  0
LINE
  5
1399
  8
0
 10
24.69890021130124
 20
6.4700187394000004
 30
0.0
 11
24.665357313301239
 21
6.4894172796999996
 31
0.0
  0
LINE
  5
139A
  8
0
 10
24.665357313301239
 20
6.4894172796999996
 30
0.0
 11
24.665357313301239
 21
6.4954187232000002
 31
0.0
  0
LINE
  5
139B
  8
0
 10
24.665357313301239
 20
6.4954187232000002
 30
0.0
 11
24.69896627100124
 21
6.5148194837000002
 31
0.0
  0
LINE
  5
139C
  8
0
 10
24.69896627100124
 20
6.5148194837000002
 30
0.0
 11
24.69896627100124
 21
6.5195215455999991
 31
0.0
  0
LINE
  5
139D
  8
0
 10
24.69896627100124
 20
6.5195215455999991
 30
0.0
 11
24.665311224501242
 21
6.5389183294000004
 31
0.0
  0
LINE
  5
139E
  8
0
 10
24.665311224501242
 20
6.5389183294000004
 30
0.0
 11
24.665338829401239
 21
6.5449341523999989
 31
0.0
  0
LINE
  5
139F
  8
0
 10
24.665338829401239
 20
6.5449341523999989
 30
0.0
 11
24.69890648290124
 21
6.5642530778000001
 31
0.0
  0
LINE
  5
13A0
  8
0
 10
24.69890648290124
 20
6.5642530778000001
 30
0.0
 11
24.69896627100124
 21
6.5690215455999992
 31
0.0
  0
LINE
  5
13A1
  8
0
 10
24.69896627100124
 20
6.5690215455999992
 30
0.0
 11
24.66536607490124
 21
6.5884212809999996
 31
0.0
  0
LINE
  5
13A2
  8
0
 10
24.66536607490124
 20
6.5884212809999996
 30
0.0
 11
24.665337734501239
 21
6.5943722450999989
 31
0.0
  0
LINE
  5
13A3
  8
0
 10
24.665337734501239
 20
6.5943722450999989
 30
0.0
 11
24.698911103880569
 21
6.6137564856208133
 31
0.0
  0
LINE
  5
13A4
  8
0
 10
24.698911103880569
 20
6.6137564856208133
 30
0.0
 11
24.69896627100124
 21
6.6185215455999993
 31
0.0
  0
LINE
  5
13A5
  8
0
 10
24.69896627100124
 20
6.6185215455999993
 30
0.0
 11
24.66530685240178
 21
6.6379552453148021
 31
0.0
  0
LINE
  5
13A6
  8
0
 10
24.66530685240178
 20
6.6379552453148021
 30
0.0
 11
24.66530685250007
 21
6.6438526400536526
 31
0.0
  0
LINE
  5
13A7
  8
0
 10
24.66530685250007
 20
6.6438526400536526
 30
0.0
 11
24.69896627100124
 21
6.6633194836999996
 31
0.0
  0
LINE
  5
13A8
  8
0
 10
24.69896627100124
 20
6.6633194836999996
 30
0.0
 11
24.69896627100124
 21
6.6680215455999994
 31
0.0
  0
LINE
  5
13A9
  8
0
 10
24.69896627100124
 20
6.6680215455999994
 30
0.0
 11
24.665329286801239
 21
6.6874232658999997
 31
0.0
  0
LINE
  5
13AA
  8
0
 10
24.665329286801239
 20
6.6874232658999997
 30
0.0
 11
24.665329287199071
 21
6.6933908127288051
 31
0.0
  0
LINE
  5
13AB
  8
0
 10
24.665329287199071
 20
6.6933908127288051
 30
0.0
 11
24.69896627100124
 21
6.7128192837
 31
0.0
  0
LINE
  5
13AC
  8
0
 10
24.69896627100124
 20
6.7128192837
 30
0.0
 11
24.69896627100124
 21
6.7175215455999986
 31
0.0
  0
LINE
  5
13AD
  8
0
 10
24.69896627100124
 20
6.7175215455999986
 30
0.0
 11
24.69306396400124
 21
6.7209205147000004
 31
0.0
  0
LINE
  5
13AE
  8
0
 10
24.483380951490531
 20
6.1243596116999992
 30
0.0
 11
24.485963781418508
 21
6.2560513237000004
 31
0.0
  0
ARC
  5
13AF
  8
0
 10
24.424900292952429
 20
6.1248938046579884
 30
0.0
 40
0.058483098286313
 50
272.1940761497882
 51
359.47664490331982
  0
LINE
  5
13BA
  8
0
 10
24.093736324399192
 20
6.1397763304999993
 30
0.0
 11
21.93735295530124
 21
6.1397765470000003
 31
0.0
  0
LINE
  5
13BB
  8
0
 10
24.093736587360151
 20
6.139776262747457
 30
0.0
 11
24.374652127401241
 21
6.2521431653999988
 31
0.0
  0
ARC
  5
13BC
  8
0
 10
24.714320273325718
 20
5.3809671001723238
 30
0.0
 40
0.9350492645506024
 50
106.4644649237882
 51
111.31994844024911
  0
ARC
  5
13BD
  8
0
 10
24.56875021279858
 20
5.9204941965712292
 30
0.0
 40
0.3766227795599438
 50
99.871583680313691
 51
108.4894565135023
  0
LINE
  5
13BE
  8
0
 10
24.50418208800124
 20
6.2915409198000001
 30
0.0
 11
24.604534269740899
 21
6.2915409261106561
 31
0.0
  0
LINE
  5
13BF
  8
0
 10
24.064653104823812
 20
6.0534953367998661
 30
0.0
 11
24.00495664700124
 21
6.0534953267316078
 31
0.0
  0
ARC
  5
13C0
  8
0
 10
24.071245324153072
 20
6.0386363385163344
 30
0.0
 40
0.0747244747981219
 50
125.6710054036829
 51
162.63789272022851
  0
ARC
  5
13C1
  8
0
 10
24.17430679700562
 20
5.9339492011273887
 30
0.0
 40
0.2210348575265722
 50
111.37772453176331
 51
131.5600564971659
  0
ARC
  5
13C2
  8
0
 10
24.004659447030068
 20
6.058715338832779
 30
0.0
 40
0.0052284686175216
 50
154.8807607082127
 51
273.25915246179261
  0
LINE
  5
13C3
  8
0
 10
21.93819595474233
 20
6.139776262747457
 30
0.0
 11
21.657280414701241
 21
6.2521431653999988
 31
0.0
  0
ARC
  5
13C4
  8
0
 10
21.31761226877676
 20
5.3809671001723238
 30
0.0
 40
0.9350492645506024
 50
68.680051559750837
 51
73.535535076211744
  0
ARC
  5
13C5
  8
0
 10
21.463182329303901
 20
5.9204941965712292
 30
0.0
 40
0.3766227795599438
 50
71.510543486497852
 51
80.128416319686082
  0
LINE
  5
13C6
  8
0
 10
21.527750454101241
 20
6.2915409198000001
 30
0.0
 11
21.427398272361579
 21
6.2915409261106561
 31
0.0
  0
LINE
  5
13C7
  8
0
 10
21.96727943727867
 20
6.0534953367998661
 30
0.0
 11
22.026975895101241
 21
6.0534953267316078
 31
0.0
  0
ARC
  5
13C8
  8
0
 10
21.96068721794941
 20
6.0386363385163344
 30
0.0
 40
0.0747244747981219
 50
17.36210727977145
 51
54.328994596317109
  0
ARC
  5
13C9
  8
0
 10
21.857625745096861
 20
5.9339492011273887
 30
0.0
 40
0.2210348575265722
 50
48.439943502834048
 51
68.622275468236637
  0
ARC
  5
13CA
  8
0
 10
22.027273095072399
 20
6.058715338832779
 30
0.0
 40
0.0052284686175216
 50
266.74084753820739
 51
25.119239291787281
  0
ARC
  5
13CB
  8
0
 10
24.53694345495574
 20
6.2523024254222639
 30
0.0
 40
0.0511173292754881
 50
129.85975985493201
 51
175.79420382781919
  0
ARC
  5
13CC
  8
0
 10
21.935683141201881
 20
6.0214535815026906
 30
0.0
 40
0.0449999999972766
 50
45.401057601335658
 51
86.892134132160592
  0
LINE
  5
140E
  8
0
 10
23.76595386820124
 20
0.9709205146999999
 30
0.0
 11
23.76595386820124
 21
4.8059205147000004
 31
0.0
  0
LINE
  5
140F
  8
0
 10
22.26596627100124
 20
0.9709205146999999
 30
0.0
 11
22.26596627100124
 21
4.8059205147000004
 31
0.0
  0
LINE
  5
1410
  8
0
 10
22.26596627100124
 20
0.9709205146999999
 30
0.0
 11
23.76595386820124
 21
0.9709205146999999
 31
0.0
  0
LINE
  5
1411
  8
0
 10
24.698914203401241
 20
6.4652575135000001
 30
0.0
 11
24.69896627100124
 21
6.4653194837000001
 31
0.0
  0
LINE
  5
1412
  8
0
 10
24.69890021130124
 20
6.4700187394000004
 30
0.0
 11
24.69896627100124
 21
6.4700187394000004
 31
0.0
  0
ARC
  5
1413
  8
0
 10
23.862042557998709
 20
19.880531893492389
 30
0.0
 40
13.18958993752679
 50
273.55667991432091
 51
273.63805347590898
  0
ARC
  5
1414
  8
0
 10
23.638957799053131
 20
65.071194785010093
 30
0.0
 40
58.364138708686212
 50
269.83367184021279
 51
271.0223059877178
  0
ARC
  5
1415
  8
0
 10
23.048833757269868
 20
-94.508000593426743
 30
0.0
 40
101.21617688546461
 50
89.761855258976396
 51
90.960789010004603
  0
ARC
  5
1416
  8
0
 10
21.462478329858119
 20
4.7429512568391017
 30
0.0
 40
1.9541412008284189
 50
93.251951983269052
 51
93.798389234587106
  0
LINE
  5
1417
  8
0
 10
21.366632195901239
 20
6.7121718445000003
 30
0.0
 11
21.366632195901239
 21
6.7180081887038341
 31
0.0
  0
LINE
  5
1418
  8
0
 10
21.366632195901239
 20
6.7180081887038341
 30
0.0
 11
21.361815114001239
 21
6.7209205147000004
 31
0.0
  0
LINE
  5
1419
  8
0
 10
21.366632195901239
 20
6.7121718445000003
 30
0.0
 11
21.33296627100124
 21
6.6927715455999994
 31
0.0
  0
LINE
  5
141A
  8
0
 10
21.33296627100124
 20
6.6927715455999994
 30
0.0
 11
21.33296627100124
 21
6.6880694836999988
 31
0.0
  0
LINE
  5
141B
  8
0
 10
21.33296627100124
 20
6.6880694836999988
 30
0.0
 11
21.366609351101239
 21
6.668686072199999
 31
0.0
  0
LINE
  5
141C
  8
0
 10
21.366609351101239
 20
6.668686072199999
 30
0.0
 11
21.366693695001238
 21
6.6627356557999997
 31
0.0
  0
LINE
  5
141D
  8
0
 10
21.366693695001238
 20
6.6627356557999997
 30
0.0
 11
21.33296627100124
 21
6.6432715455999993
 31
0.0
  0
LINE
  5
141E
  8
0
 10
21.33296627100124
 20
6.6432715455999993
 30
0.0
 11
21.33296627100124
 21
6.6384391192593073
 31
0.0
  0
LINE
  5
141F
  8
0
 10
21.33296627100124
 20
6.6384391192593073
 30
0.0
 11
21.366591670508289
 21
6.6191408086148229
 31
0.0
  0
LINE
  5
1420
  8
0
 10
21.366591670508289
 20
6.6191408086148229
 30
0.0
 11
21.366648012401239
 21
6.6132384409
 31
0.0
  0
LINE
  5
1421
  8
0
 10
21.366648012401239
 20
6.6132384409
 30
0.0
 11
21.333049869823022
 21
6.5938395960479479
 31
0.0
  0
LINE
  5
1422
  8
0
 10
21.333049869823022
 20
6.5938395960479479
 30
0.0
 11
21.33296627100124
 21
6.5890694837000003
 31
0.0
  0
LINE
  5
1423
  8
0
 10
21.33296627100124
 20
6.5890694837000003
 30
0.0
 11
21.36655842060124
 21
6.5696837244999999
 31
0.0
  0
LINE
  5
1424
  8
0
 10
21.36655842060124
 20
6.5696837244999999
 30
0.0
 11
21.366642377601242
 21
6.563732847999999
 31
0.0
  0
LINE
  5
1425
  8
0
 10
21.366642377601242
 20
6.563732847999999
 30
0.0
 11
21.33296627100124
 21
6.5442715455999991
 31
0.0
  0
LINE
  5
1426
  8
0
 10
21.33296627100124
 20
6.5442715455999991
 30
0.0
 11
21.33296627100124
 21
6.5395694837000002
 31
0.0
  0
LINE
  5
1427
  8
0
 10
21.33296627100124
 20
6.5395694837000002
 30
0.0
 11
21.366610857601241
 21
6.5201864447000002
 31
0.0
  0
LINE
  5
1428
  8
0
 10
21.366610857601241
 20
6.5201864447000002
 30
0.0
 11
21.366610857601241
 21
6.5141943984806296
 31
0.0
  0
LINE
  5
1429
  8
0
 10
21.366610857601241
 20
6.5141943984806296
 30
0.0
 11
21.33296627100124
 21
6.494771545599999
 31
0.0
  0
LINE
  5
142A
  8
0
 10
21.33296627100124
 20
6.494771545599999
 30
0.0
 11
21.33296627100124
 21
6.4900694837000001
 31
0.0
  0
LINE
  5
142B
  8
0
 10
21.33296627100124
 20
6.4900694837000001
 30
0.0
 11
21.366808969201241
 21
6.4706383787400048
 31
0.0
  0
LINE
  5
142C
  8
0
 10
21.366808969201241
 20
6.4706383787400048
 30
0.0
 11
21.366808969201241
 21
6.4648115816902392
 31
0.0
  0
LINE
  5
142D
  8
0
 10
21.366808969201241
 20
6.4648115816902392
 30
0.0
 11
21.33296627100124
 21
6.4452322171
 31
0.0
  0
LINE
  5
142E
  8
0
 10
21.33296627100124
 20
6.4452322171
 30
0.0
 11
21.332966268319758
 21
6.4405694863320404
 31
0.0
  0
LINE
  5
142F
  8
0
 10
21.332966268319758
 20
6.4405694863320404
 30
0.0
 11
21.366879591301242
 21
6.4211045883000004
 31
0.0
  0
LINE
  5
1430
  8
0
 10
21.366879591301242
 20
6.4211045883000004
 30
0.0
 11
21.366806262301239
 21
6.4151689057999999
 31
0.0
  0
LINE
  5
1431
  8
0
 10
21.366806262301239
 20
6.4151689057999999
 30
0.0
 11
21.358747995001242
 21
6.4106889865999994
 31
0.0
  0
LINE
  5
1432
  8
0
 10
21.358747995001242
 20
6.4106889865999994
 30
0.0
 11
21.37546627100124
 21
6.3939205146999996
 31
0.0
  0
ARC
  5
1433
  8
0
 10
24.787620488255481
 20
4.5121716021214562
 30
0.0
 40
2.184644681081656
 50
93.208958509449801
 51
93.699444374468527
  0
ARC
  5
1434
  8
0
 10
23.605348420253129
 20
65.047112610110091
 30
0.0
 40
58.364138708686212
 50
269.83367184021279
 51
271.0223059877178
  0
ARC
  5
1435
  8
0
 10
23.004688661824051
 20
-82.580252855131974
 30
0.0
 40
89.264514308785408
 50
89.723207153217373
 51
91.045107533008476
  0
ARC
  5
1436
  8
0
 10
21.374379249789321
 20
6.6306876956260714
 30
0.0
 40
0.0387846354614456
 50
86.801055149136317
 51
101.5565175465271
  0
ARC
  5
1447
  8
0
 10
24.14264703889479
 20
15.1441527698702
 30
0.0
 40
8.6919521553501653
 50
273.54618269374618
 51
273.66930813887848
  0
ARC
  5
1448
  8
0
 10
23.638957799053131
 20
64.823691978810089
 30
0.0
 40
58.364138708686212
 50
269.83367184021279
 51
271.0223059877178
  0
ARC
  5
1449
  8
0
 10
23.048833757269868
 20
-94.755503399626761
 30
0.0
 40
101.21617688546461
 50
89.761855258976396
 51
90.960789010004603
  0
ARC
  5
144A
  8
0
 10
21.396016468479619
 20
5.6179140133144108
 30
0.0
 40
0.8297172637212483
 50
93.066819121553735
 51
94.358106264291436
  0
ARC
  5
1453
  8
0
 10
24.51556223955857
 20
9.2272689035126838
 30
0.0
 40
2.71389513629041
 50
273.47837352995248
 51
273.87274506994657
  0
ARC
  5
1454
  8
0
 10
23.638906059353129
 20
64.873221978810093
 30
0.0
 40
58.364138708686212
 50
269.83367184021279
 51
271.0223059877178
  0
ARC
  5
1455
  8
0
 10
23.048782017569881
 20
-94.705973399626757
 30
0.0
 40
101.21617688546461
 50
89.761855258976396
 51
90.960789010004603
  0
ARC
  5
1456
  8
0
 10
21.39861348089336
 20
5.6227095901439617
 30
0.0
 40
0.8745293650418066
 50
93.083305798398584
 51
94.305000625287477
  0
ARC
  5
1457
  8
0
 10
24.776820729824099
 20
5.0973601834419231
 30
0.0
 40
1.4737192682555109
 50
93.028262905947244
 51
93.758528176809222
  0
ARC
  5
1458
  8
0
 10
23.638902947953131
 20
64.922758336110093
 30
0.0
 40
58.364138708686212
 50
269.83367184021279
 51
271.0223059877178
  0
ARC
  5
1459
  8
0
 10
23.048778906169879
 20
-94.656437042326743
 30
0.0
 40
101.21617688546461
 50
89.761855258976396
 51
90.960789010004603
  0
ARC
  5
145A
  8
0
 10
21.384735247221752
 20
5.9065810473757576
 30
0.0
 40
0.639788401289363
 50
92.971304601852125
 51
94.641206611036253
  0
ARC
  5
145B
  8
0
 10
24.867632189699972
 20
3.694032090294129
 30
0.0
 40
2.9293492052545909
 50
93.300798990656574
 51
93.668307772235664
  0
ARC
  5
145C
  8
0
 10
23.638898451653141
 20
64.972228122810094
 30
0.0
 40
58.364138708686212
 50
269.83367184021279
 51
271.0223059877178
  0
ARC
  5
145D
  8
0
 10
23.048774409869878
 20
-94.606967255626756
 30
0.0
 40
101.21617688546461
 50
89.761855258976396
 51
90.960789010004603
  0
ARC
  5
145E
  8
0
 10
21.446371291275302
 20
4.91501192278914
 30
0.0
 40
1.6826400878716059
 50
93.229909438970594
 51
93.86164898449212
  0
ARC
  5
145F
  8
0
 10
24.231007202027541
 20
13.92445465476011
 30
0.0
 40
7.2715259728154962
 50
273.54016937422
 51
273.68981994275339
  0
ARC
  5
1460
  8
0
 10
23.638698557565249
 20
65.021653144818757
 30
0.0
 40
58.364138708686212
 50
269.83367184021279
 51
271.0223059877178
  0
ARC
  5
1461
  8
0
 10
23.04857451578199
 20
-94.557542233618094
 30
0.0
 40
101.21617688546461
 50
89.761855258976396
 51
90.960789010004603
  0
ARC
  5
1462
  8
0
 10
21.46181889778255
 20
4.6999112973945909
 30
0.0
 40
1.9476272881979819
 50
93.25104805985633
 51
93.793389033532335
  0
ARC
  5
14A4
  8
0
 10
24.482008485357412
 20
9.3515506511663364
 30
0.0
 40
2.71389513629041
 50
273.47837352995248
 51
273.87274506994657
  0
ARC
  5
14A5
  8
0
 10
23.605352305151971
 20
64.997503726463734
 30
0.0
 40
58.364138708686212
 50
269.83367184021279
 51
271.0223059877178
  0
ARC
  5
14A6
  8
0
 10
23.00469254672289
 20
-82.629861738778317
 30
0.0
 40
89.264514308785408
 50
89.723207153217373
 51
91.045107533008476
  0
ARC
  5
14A7
  8
0
 10
21.374419112324471
 20
6.5766308462652843
 30
0.0
 40
0.0432245965203247
 50
87.17768510075075
 51
100.4331203757712
  0
ARC
  5
14A8
  8
0
 10
24.533312358263188
 20
8.4813902106158512
 30
0.0
 40
1.891630910656301
 50
273.435516574335
 51
274.00218232565402
  0
ARC
  5
14A9
  8
0
 10
23.605355583053129
 20
64.948007393810087
 30
0.0
 40
58.364138708686212
 50
269.83367184021279
 51
271.0223059877178
  0
ARC
  5
14AA
  8
0
 10
23.004695824624051
 20
-82.679358071431992
 30
0.0
 40
89.264514308785408
 50
89.723207153217373
 51
91.045107533008476
  0
ARC
  5
14AB
  8
0
 10
21.374451570714101
 20
6.5235268888325644
 30
0.0
 40
0.0468268651260666
 50
87.430695107299996
 51
99.704122004370859
  0
ARC
  5
14AC
  8
0
 10
24.482040462258571
 20
9.2526321635126827
 30
0.0
 40
2.71389513629041
 50
273.47837352995248
 51
273.87274506994657
  0
ARC
  5
14AD
  8
0
 10
23.60538428205313
 20
64.898585238810085
 30
0.0
 40
58.364138708686212
 50
269.83367184021279
 51
271.0223059877178
  0
ARC
  5
14AE
  8
0
 10
23.004724523624049
 20
-82.728780226431994
 30
0.0
 40
89.264514308785408
 50
89.723207153217373
 51
91.045107533008476
  0
ARC
  5
14AF
  8
0
 10
21.374432431457301
 20
6.480019044719608
 30
0.0
 40
0.0409218406082934
 50
86.992569037475235
 51
101.0189973135992
  0
ARC
  5
14B0
  8
0
 10
24.48205894615857
 20
9.2030831700547786
 30
0.0
 40
2.71389513629041
 50
273.47837352995248
 51
273.87274506994657
  0
ARC
  5
14B1
  8
0
 10
23.605402765953141
 20
64.849036245352181
 30
0.0
 40
58.364138708686212
 50
269.83367184021279
 51
271.0223059877178
  0
ARC
  5
14B2
  8
0
 10
23.004743007524048
 20
-82.778329219889898
 30
0.0
 40
89.264514308785408
 50
89.723207153217373
 51
91.045107533008476
  0
ARC
  5
14B3
  8
0
 10
21.374433224735441
 20
6.4326571676924358
 30
0.0
 40
0.0387388908603585
 50
86.796724544037801
 51
101.3505602895477
  0
ARC
  5
14B4
  8
0
 10
24.998656965445299
 20
0.8894068160695123
 30
0.0
 40
5.5664745452025297
 50
93.432517267373726
 51
93.625034657830355
  0
ARC
  5
14B5
  8
0
 10
23.605394724353129
 20
64.799592539210096
 30
0.0
 40
58.364138708686212
 50
269.83367184021279
 51
271.0223059877178
  0
ARC
  5
14B6
  8
0
 10
23.004734965924051
 20
-82.827772926031983
 30
0.0
 40
89.264514308785408
 50
89.723207153217373
 51
91.045107533008476
  0
ARC
  5
14B7
  8
0
 10
21.374383938105218
 20
6.3883126425729397
 30
0.0
 40
0.0336515618800685
 50
86.241465325851465
 51
103.1293249334507
  0
LINE
  5
14FA
  8
0
 10
21.58263687930177
 20
6.2776716685518368
 30
0.0
 11
24.44930802523244
 21
6.2776753222251642
 31
0.0
  0
LINE
  5
14FB
  8
0
 10
21.37546627100124
 20
6.3939205146999996
 30
0.0
 11
24.656466271001239
 21
6.3939205146999996
 31
0.0
  0
ARC
  5
14FC
  8
0
 10
21.421807045746519
 20
6.0733431803899638
 30
0.0
 40
1.2660492640136201
 50
93.177705175524224
 51
94.023846686544744
  0
LINE
  5
14FF
  8
0
 10
21.349710418643369
 20
7.3459205147000004
 30
0.0
 11
21.33296627100124
 21
7.3362715455999981
 31
0.0
  0
LINE
  5
1500
  8
0
 10
21.33296627100124
 20
7.3362715455999981
 30
0.0
 11
21.33296627100124
 21
7.3315694837000001
 31
0.0
  0
LINE
  5
1501
  8
0
 10
21.33296627100124
 20
7.3315694837000001
 30
0.0
 11
21.366609351101239
 21
7.3121860721999994
 31
0.0
  0
LINE
  5
1502
  8
0
 10
21.366609351101239
 20
7.3121860721999994
 30
0.0
 11
21.366693695001238
 21
7.306235655800001
 31
0.0
  0
LINE
  5
1503
  8
0
 10
21.366693695001238
 20
7.306235655800001
 30
0.0
 11
21.33296627100124
 21
7.2867715455999997
 31
0.0
  0
LINE
  5
1504
  8
0
 10
21.33296627100124
 20
7.2867715455999997
 30
0.0
 11
21.33296627100124
 21
7.2819391192593068
 31
0.0
  0
LINE
  5
1505
  8
0
 10
21.33296627100124
 20
7.2819391192593068
 30
0.0
 11
21.366591670508289
 21
7.2626408086148242
 31
0.0
  0
LINE
  5
1506
  8
0
 10
21.366591670508289
 20
7.2626408086148242
 30
0.0
 11
21.366648012401239
 21
7.2567384409000013
 31
0.0
  0
LINE
  5
1507
  8
0
 10
21.366648012401239
 20
7.2567384409000013
 30
0.0
 11
21.339251899704191
 21
7.2409205146999991
 31
0.0
  0
LINE
  5
1511
  8
0
 10
21.354996682616509
 20
7.1209205146999981
 30
0.0
 11
21.366808969201241
 21
7.1141383787400052
 31
0.0
  0
LINE
  5
1512
  8
0
 10
21.366808969201241
 20
7.1141383787400052
 30
0.0
 11
21.366808969201241
 21
7.1083115816902387
 31
0.0
  0
LINE
  5
1513
  8
0
 10
21.366808969201241
 20
7.1083115816902387
 30
0.0
 11
21.33296627100124
 21
7.0887322170999996
 31
0.0
  0
LINE
  5
1514
  8
0
 10
21.33296627100124
 20
7.0887322170999996
 30
0.0
 11
21.332966268319758
 21
7.0840694863320399
 31
0.0
  0
LINE
  5
1515
  8
0
 10
21.332966268319758
 20
7.0840694863320399
 30
0.0
 11
21.366879591301242
 21
7.064604588299999
 31
0.0
  0
LINE
  5
1516
  8
0
 10
21.366879591301242
 20
7.064604588299999
 30
0.0
 11
21.366806262301239
 21
7.0586689058000012
 31
0.0
  0
ARC
  5
1519
  8
0
 10
21.374379249789321
 20
7.2741876956261269
 30
0.0
 40
0.0387846354613899
 50
86.801055149126483
 51
101.5565175465388
  0
ARC
  5
151A
  8
0
 10
21.462478329858119
 20
5.138948450639103
 30
0.0
 40
1.9541412008284189
 50
93.251951983269052
 51
93.798389234587106
  0
ARC
  5
151E
  8
0
 10
21.461816662461299
 20
5.3434476134528373
 30
0.0
 40
1.947590903818182
 50
93.25104299388083
 51
93.793394099503558
  0
ARC
  5
151F
  8
0
 10
21.374419112324471
 20
7.2201308462652971
 30
0.0
 40
0.0432245965203123
 50
87.177685100749954
 51
100.43312037577419
  0
ARC
  5
1522
  8
0
 10
21.374391979705219
 20
7.0812563487150371
 30
0.0
 40
0.0336515618800685
 50
86.241465325851465
 51
103.1293249334507
  0
ARC
  5
1523
  8
0
 10
21.374383938105218
 20
7.031812642572941
 30
0.0
 40
0.0336515618800685
 50
86.241465325851465
 51
103.1293249334507
  0
LINE
  5
1524
  8
0
 10
21.36679220820124
 20
7.0588059813902388
 30
0.0
 11
21.332949510001239
 21
7.0392266167999997
 31
0.0
  0
LINE
  5
1525
  8
0
 10
21.332949510001239
 20
7.0392266167999997
 30
0.0
 11
21.332949507319761
 21
7.0345638860320401
 31
0.0
  0
LINE
  5
1526
  8
0
 10
21.332949507319761
 20
7.0345638860320401
 30
0.0
 11
21.36686283030124
 21
7.0150989880000001
 31
0.0
  0
LINE
  5
1527
  8
0
 10
21.36686283030124
 20
7.0150989880000001
 30
0.0
 11
21.366789501301241
 21
7.0091633055000013
 31
0.0
  0
ARC
  5
1528
  8
0
 10
21.462461568858121
 20
5.089442850339104
 30
0.0
 40
1.9541412008284189
 50
93.251951983269052
 51
93.798389234587106
  0
ARC
  5
1529
  8
0
 10
21.374367177105221
 20
6.9823070422729412
 30
0.0
 40
0.0336515618800685
 50
86.241465325851465
 51
103.1293249334507
  0
LINE
  5
152A
  8
0
 10
21.366777862001239
 20
7.0093081806902386
 30
0.0
 11
21.332935163801238
 21
6.9897288161000004
 31
0.0
  0
LINE
  5
152B
  8
0
 10
21.332935163801238
 20
6.9897288161000004
 30
0.0
 11
21.33293516111976
 21
6.9850660853320399
 31
0.0
  0
LINE
  5
152C
  8
0
 10
21.33293516111976
 20
6.9850660853320399
 30
0.0
 11
21.357580720773448
 21
6.9709205147000013
 31
0.0
  0
ARC
  5
152E
  8
0
 10
21.46244722265812
 20
5.0399450496391029
 30
0.0
 40
1.9541412008284189
 50
93.251951983269052
 51
93.798389234587106
  0
LINE
  5
1533
  8
0
 10
24.686143249552149
 20
7.120920514699999
 30
0.0
 11
24.698966271101241
 21
7.1135018800339784
 31
0.0
  0
LINE
  5
1534
  8
0
 10
24.698966271101241
 20
7.1135018800339784
 30
0.0
 11
24.69896627378272
 21
7.1088391492660179
 31
0.0
  0
LINE
  5
1535
  8
0
 10
24.69896627378272
 20
7.1088391492660179
 30
0.0
 11
24.66505295080124
 21
7.089374251233977
 31
0.0
  0
LINE
  5
1536
  8
0
 10
24.66505295080124
 20
7.089374251233977
 30
0.0
 11
24.665126279801239
 21
7.0834385687339791
 31
0.0
  0
LINE
  5
153A
  8
0
 10
24.665140333901238
 20
7.0835756443242168
 30
0.0
 11
24.698983032101239
 21
7.0639962797339777
 31
0.0
  0
LINE
  5
153B
  8
0
 10
24.698983032101239
 20
7.0639962797339777
 30
0.0
 11
24.698983034782721
 21
7.0593335489660181
 31
0.0
  0
LINE
  5
153C
  8
0
 10
24.698983034782721
 20
7.0593335489660181
 30
0.0
 11
24.665069711801241
 21
7.0398686509339781
 31
0.0
  0
LINE
  5
153D
  8
0
 10
24.665069711801241
 20
7.0398686509339781
 30
0.0
 11
24.66514304080124
 21
7.0339329684339793
 31
0.0
  0
LINE
  5
1540
  8
0
 10
24.665154680101239
 20
7.0340778436242166
 30
0.0
 11
24.69899737830124
 21
7.0144984790339784
 31
0.0
  0
LINE
  5
1541
  8
0
 10
24.69899737830124
 20
7.0144984790339784
 30
0.0
 11
24.698997380982721
 21
7.0098357482660179
 31
0.0
  0
LINE
  5
1542
  8
0
 10
24.698997380982721
 20
7.0098357482660179
 30
0.0
 11
24.665369195301238
 21
6.9904336089000001
 31
0.0
  0
LINE
  5
1544
  8
0
 10
24.665285256201241
 20
6.9903526088999994
 30
0.0
 11
24.66534158880124
 21
6.984417356499999
 31
0.0
  0
LINE
  5
1545
  8
0
 10
24.66534158880124
 20
6.984417356499999
 30
0.0
 11
24.68877460030124
 21
6.9709205147000004
 31
0.0
  0
LINE
  5
1548
  8
0
 10
24.680812720353821
 20
7.3459205147000004
 30
0.0
 11
24.66505295080124
 21
7.3368750340339783
 31
0.0
  0
LINE
  5
1549
  8
0
 10
24.66505295080124
 20
7.3368750340339783
 30
0.0
 11
24.665126279801239
 21
7.3309393515339787
 31
0.0
  0
LINE
  5
154A
  8
0
 10
24.665126279801239
 20
7.3309393515339787
 30
0.0
 11
24.698983032101239
 21
7.311497062533979
 31
0.0
  0
LINE
  5
154B
  8
0
 10
24.698983032101239
 20
7.311497062533979
 30
0.0
 11
24.698983034782721
 21
7.3068343317660194
 31
0.0
  0
LINE
  5
154C
  8
0
 10
24.698983034782721
 20
7.3068343317660194
 30
0.0
 11
24.665069711801241
 21
7.2873694337339776
 31
0.0
  0
LINE
  5
154D
  8
0
 10
24.665069711801241
 20
7.2873694337339776
 30
0.0
 11
24.66514304080124
 21
7.2814337512339788
 31
0.0
  0
LINE
  5
154E
  8
0
 10
24.665154680101239
 20
7.281578626424217
 30
0.0
 11
24.69899737830124
 21
7.2619992618339779
 31
0.0
  0
LINE
  5
154F
  8
0
 10
24.69899737830124
 20
7.2619992618339779
 30
0.0
 11
24.698997380982721
 21
7.2573365310660192
 31
0.0
  0
LINE
  5
1550
  8
0
 10
24.698997380982721
 20
7.2573365310660192
 30
0.0
 11
24.67054480489859
 21
7.2409205147
 31
0.0
  0
ARC
  5
1594
  8
0
 10
24.515645086558571
 20
9.7222186431466611
 30
0.0
 40
2.71389513629041
 50
273.47837352995248
 51
273.87274506994657
  0
ARC
  5
1595
  8
0
 10
23.638988906353131
 20
65.368171718444074
 30
0.0
 40
58.364138708686212
 50
269.83367184021279
 51
271.0223059877178
  0
ARC
  5
1596
  8
0
 10
23.048864864569879
 20
-94.211023659992776
 30
0.0
 40
101.21617688546461
 50
89.761855258976396
 51
90.960789010004603
  0
ARC
  5
1597
  8
0
 10
24.515630740358571
 20
9.7717164438466622
 30
0.0
 40
2.71389513629041
 50
273.47837352995248
 51
273.87274506994657
  0
ARC
  5
1598
  8
0
 10
23.638974560153141
 20
65.41766951914407
 30
0.0
 40
58.364138708686212
 50
269.83367184021279
 51
271.0223059877178
  0
ARC
  5
1599
  8
0
 10
23.048850518369878
 20
-94.16152585929278
 30
0.0
 40
101.21617688546461
 50
89.761855258976396
 51
90.960789010004603
  0
ARC
  5
159A
  8
0
 10
24.515555153058571
 20
9.8212722243126827
 30
0.0
 40
2.71389513629041
 50
273.47837352995248
 51
273.87274506994657
  0
ARC
  5
159B
  8
0
 10
23.638898972853131
 20
65.467225299610092
 30
0.0
 40
58.364138708686212
 50
269.83367184021279
 51
271.0223059877178
  0
ARC
  5
159C
  8
0
 10
23.048774931069879
 20
-94.111970078826744
 30
0.0
 40
101.21617688546461
 50
89.761855258976396
 51
90.960789010004603
  0
ARC
  5
159D
  8
0
 10
24.48200460045857
 20
9.6979296063201375
 30
0.0
 40
2.71389513629041
 50
273.47837352995248
 51
273.87274506994657
  0
ARC
  5
159E
  8
0
 10
23.605348420253129
 20
65.343882681617544
 30
0.0
 40
58.364138708686212
 50
269.83367184021279
 51
271.0223059877178
  0
ARC
  5
159F
  8
0
 10
23.004688661824051
 20
-82.283482783624535
 30
0.0
 40
89.264514308785408
 50
89.723207153217373
 51
91.045107533008476
  0
ARC
  5
15A0
  8
0
 10
24.48171772940562
 20
9.7475637746683894
 30
0.0
 40
2.71389513629041
 50
273.47837352995248
 51
273.87274506994657
  0
ARC
  5
15A1
  8
0
 10
23.60506154920019
 20
65.393516849965792
 30
0.0
 40
58.364138708686212
 50
269.83367184021279
 51
271.0223059877178
  0
ARC
  5
15A2
  8
0
 10
23.004401790771102
 20
-82.233848615276287
 30
0.0
 40
89.264514308785408
 50
89.723207153217373
 51
91.045107533008476
  0
ARC
  5
15A3
  8
0
 10
24.481700932602131
 20
9.7970722731149902
 30
0.0
 40
2.71389513629041
 50
273.47837352995248
 51
273.87274506994657
  0
ARC
  5
15A4
  8
0
 10
23.60504475239669
 20
65.443025348412391
 30
0.0
 40
58.364138708686212
 50
269.83367184021279
 51
271.0223059877178
  0
ARC
  5
15A5
  8
0
 10
23.004384993967609
 20
-82.184340116829674
 30
0.0
 40
89.264514308785408
 50
89.723207153217373
 51
91.045107533008476
  0
ARC
  5
15A6
  8
0
 10
24.376836714937049
 20
11.672872870877161
 30
0.0
 40
4.3949651486304164
 50
273.51608523379991
 51
273.7603018479636
  0
ARC
  5
15A7
  8
0
 10
23.605061404956281
 20
65.64102930872032
 30
0.0
 40
58.364138708686212
 50
269.83367184021279
 51
271.0223059877178
  0
ARC
  5
15A8
  8
0
 10
23.004401646527189
 20
-81.986336156521745
 30
0.0
 40
89.264514308785408
 50
89.723207153217373
 51
91.045107533008476
  0
ARC
  5
15A9
  8
0
 10
24.78564928115901
 20
5.1870468470868474
 30
0.0
 40
2.1532080039532051
 50
93.210687634042316
 51
93.701232546373291
  0
ARC
  5
15AA
  8
0
 10
23.608797837577448
 20
63.236671894848982
 30
0.0
 40
55.910541683590793
 50
269.82063111025138
 51
271.06362865885433
  0
ARC
  5
15AB
  8
0
 10
23.004533845787819
 20
-84.070024216344478
 30
0.0
 40
91.397436315288076
 50
89.730919460874503
 51
91.020618408067932
  0
ARC
  5
15AC
  8
0
 10
24.792750296236012
 20
5.535328312150372
 30
0.0
 40
1.7292143239351701
 50
93.107932647438204
 51
93.731701973504485
  0
ARC
  5
15AD
  8
0
 10
23.638892289541079
 20
65.615724879235898
 30
0.0
 40
58.364138708686212
 50
269.83367184021279
 51
271.0223059877178
  0
ARC
  5
15AE
  8
0
 10
23.048768247757831
 20
-93.963470499200952
 30
0.0
 40
101.21617688546461
 50
89.761855258976396
 51
90.874375000243589
  0
ARC
  5
15AF
  8
0
 10
24.886610889793189
 20
4.0836758457123441
 30
0.0
 40
3.2332698651281739
 50
93.326764426018457
 51
93.659721867858835
  0
ARC
  5
15B0
  8
0
 10
23.638915733953141
 20
65.665200816544072
 30
0.0
 40
58.364138708686212
 50
269.83367184021279
 51
271.0223059877178
  0
ARC
  5
15B1
  8
0
 10
23.048791692169878
 20
-93.913994561892778
 30
0.0
 40
101.21617688546461
 50
89.761855258976396
 51
90.960789010004603
  0
ARC
  5
15B2
  8
0
 10
22.973643872679311
 20
-83.561174068593587
 30
0.0
 40
90.913090541251336
 50
90.65804576106332
 51
91.022291733530636
  0
LINE
  5
188C
  8
0
 10
25.265966271001211
 20
7.7209205147000004
 30
0.0
 11
25.265966271001211
 21
7.6899205147000034
 31
0.0
  0
ATTDEF
  5
1A2B
  8
DEFPOINTS
 10
23.01178282329909
 20
0.9613642670862375
 30
0.0
 40
0.001
  1
BRASS
  3

  2
MATERIAL
 70
     0
1001
ACDBATTR
1070
     0
1070
     1
  0
ATTDEF
  5
1A2C
  8
DEFPOINTS
 10
23.01178282329909
 20
0.9630309337529098
 30
0.0
 40
0.001
  1
SINK STRAINER
  3

  2
PRODUCT
 70
     0
1001
ACDBATTR
1070
     0
1070
     1
  0
ATTDEF
  5
1A2D
  8
DEFPOINTS
 10
23.01178282329909
 20
0.9646976004195749
 30
0.0
 40
0.001
  1
DUOSTRAINER
  3

  2
TRADENAME
 70
     0
1001
ACDBATTR
1070
     0
1070
     1
  0
ATTDEF
  5
1A2E
  8
DEFPOINTS
 10
23.01178282329909
 20
0.9663642670862401
 30
0.0
 40
0.001
  1
K-8801
  3

  2
MODELNUMBER
 70
     0
1001
ACDBATTR
1070
     0
1070
     1
  0
ARC
  5
1AB9
  8
0
 10
23.004711506624052
 20
-82.530930738628157
 30
0.0
 40
89.264514308785408
 50
90.965100622532105
 51
91.045107533008476
  0
ARC
  5
1ABA
  8
0
 10
21.374402094589328
 20
6.6800098121299056
 30
0.0
 40
0.0387846354614456
 50
86.801055149136317
 51
101.556517546527
  0
ENDSEC
  0
EOF
