  0
SECTION
  2
HEADER
  9
$ACADVER
  1
AC1009
  9
$INSBASE
 10
33.64052815947133
 20
1.673539294799999
 30
0.0
  9
$EXTMIN
 10
32.395528159469322
 20
1.673539294799999
 30
0.0
  9
$EXTMAX
 10
34.885528159469317
 20
4.0135392991999987
 30
0.0
  9
$LIMMIN
 10
0.0
 20
0.0
  9
$LIMMAX
 10
11.692913385800001
 20
8.2677165353999982
  9
$ORTHOMODE
 70
     0
  9
$REGENMODE
 70
     1
  9
$FILLMODE
 70
     1
  9
$QTEXTMODE
 70
     0
  9
$MIRRTEXT
 70
     0
  9
$DRAGMODE
 70
     2
  9
$LTSCALE
 40
0.6431102362
  9
$OSMODE
 70
  3071
  9
$ATTMODE
 70
     1
  9
$TEXTSIZE
 40
0.2
  9
$TRACEWID
 40
0.05
  9
$TEXTSTYLE
  7
STANDARD
  9
$CLAYER
  8
0
  9
$CELTYPE
  6
BYLAYER
  9
$CECOLOR
 62
   256
  9
$DIMSCALE
 40
1.0
  9
$DIMASZ
 40
0.1875
  9
$DIMEXO
 40
0.0625
  9
$DIMDLI
 40
0.4443307087
  9
$DIMRND
 40
0.0
  9
$DIMDLE
 40
0.0
  9
$DIMEXE
 40
0.125
  9
$DIMTP
 40
0.01
  9
$DIMTM
 40
0.01
  9
$DIMTXT
 40
0.5
  9
$DIMCEN
 40
0.1052362205
  9
$DIMTSZ
 40
0.0
  9
$DIMTOL
 70
     1
  9
$DIMLIM
 70
     0
  9
$DIMTIH
 70
     1
  9
$DIMTOH
 70
     1
  9
$DIMSE1
 70
     0
  9
$DIMSE2
 70
     0
  9
$DIMTAD
 70
     0
  9
$DIMZIN
 70
     0
  9
$DIMBLK
  1

  9
$DIMASO
 70
     1
  9
$DIMSHO
 70
     1
  9
$DIMPOST
  1
\X
  9
$DIMAPOST
  1

  9
$DIMALT
 70
     1
  9
$DIMALTD
 70
     2
  9
$DIMALTF
 40
25.399999999999999
  9
$DIMLFAC
 40
1.0
  9
$DIMTOFL
 70
     0
  9
$DIMTVP
 40
0.0
  9
$DIMTIX
 70
     0
  9
$DIMSOXD
 70
     0
  9
$DIMSAH
 70
     0
  9
$DIMBLK1
  1

  9
$DIMBLK2
  1

  9
$DIMSTYLE
  2
STANDARD
  9
$DIMCLRD
 70
     0
  9
$DIMCLRE
 70
     0
  9
$DIMCLRT
 70
     0
  9
$DIMTFAC
 40
1.0
  9
$DIMGAP
 40
0.09
  9
$LUNITS
 70
     2
  9
$LUPREC
 70
     4
  9
$SKETCHINC
 40
0.1
  9
$FILLETRAD
 40
0.0
  9
$AUNITS
 70
     0
  9
$AUPREC
 70
     0
  9
$MENU
  1
.
  9
$ELEVATION
 40
0.0
  9
$PELEVATION
 40
0.0
  9
$THICKNESS
 40
0.0
  9
$LIMCHECK
 70
     0
  9
$BLIPMODE
 70
     0
  9
$CHAMFERA
 40
0.0
  9
$CHAMFERB
 40
0.0
  9
$SKPOLY
 70
     0
  9
$TDCREATE
 40
2458200.6875161109
  9
$TDUPDATE
 40
2458200.7677773382
  9
$TDINDWG
 40
0.0604864236
  9
$TDUSRTIMER
 40
0.0604864236
  9
$USRTIMER
 70
     1
  9
$ANGBASE
 50
0.0
  9
$ANGDIR
 70
     0
  9
$PDMODE
 70
     0
  9
$PDSIZE
 40
0.3125
  9
$PLINEWID
 40
0.0
  9
$COORDS
 70
     1
  9
$SPLFRAME
 70
     0
  9
$SPLINETYPE
 70
     6
  9
$SPLINESEGS
 70
     8
  9
$ATTDIA
 70
     1
  9
$ATTREQ
 70
     1
  9
$HANDLING
 70
     1
  9
$HANDSEED
  5
C72
  9
$SURFTAB1
 70
     6
  9
$SURFTAB2
 70
     6
  9
$SURFTYPE
 70
     6
  9
$SURFU
 70
     6
  9
$SURFV
 70
     6
  9
$UCSNAME
  2

  9
$UCSORG
 10
0.0
 20
0.0
 30
0.0
  9
$UCSXDIR
 10
1.0
 20
0.0
 30
0.0
  9
$UCSYDIR
 10
0.0
 20
1.0
 30
0.0
  9
$PUCSNAME
  2

  9
$PUCSORG
 10
0.0
 20
0.0
 30
0.0
  9
$PUCSXDIR
 10
1.0
 20
0.0
 30
0.0
  9
$PUCSYDIR
 10
0.0
 20
1.0
 30
0.0
  9
$USERI1
 70
     0
  9
$USERI2
 70
     0
  9
$USERI3
 70
     0
  9
$USERI4
 70
     0
  9
$USERI5
 70
     0
  9
$USERR1
 40
0.0
  9
$USERR2
 40
0.0
  9
$USERR3
 40
0.0
  9
$USERR4
 40
0.0
  9
$USERR5
 40
0.0
  9
$WORLDVIEW
 70
     1
  9
$SHADEDGE
 70
     3
  9
$SHADEDIF
 70
    70
  9
$TILEMODE
 70
     1
  9
$MAXACTVP
 70
    64
  9
$PLIMCHECK
 70
     0
  9
$PEXTMIN
 10
1.0000000000000000E+020
 20
1.0000000000000000E+020
 30
1.0000000000000000E+020
  9
$PEXTMAX
 10
-1.0000000000000000E+020
 20
-1.0000000000000000E+020
 30
-1.0000000000000000E+020
  9
$PLIMMIN
 10
0.0
 20
0.0
  9
$PLIMMAX
 10
12.0
 20
9.0
  9
$UNITMODE
 70
     0
  9
$VISRETAIN
 70
     1
  9
$PLINEGEN
 70
     0
  9
$PSLTSCALE
 70
     1
  0
ENDSEC
  0
SECTION
  2
TABLES
  0
TABLE
  2
VPORT
 70
     1
  0
VPORT
  2
*ACTIVE
 70
     0
 10
0.0
 20
0.0
 11
1.0
 21
1.0
 12
0.0
 22
0.0
 13
0.0
 23
0.0
 14
1.0
 24
1.0
 15
0.0
 25
0.0
 16
0.0
 26
0.0
 36
9.5941521450028482
 17
33.640528159469319
 27
2.839816981087905
 37
0.0
 40
3.4136200945250832
 41
2.0983240223463682
 42
50.0
 43
0.0
 44
0.0
 50
0.0
 51
0.0
 71
     0
 72
   100
 73
     1
 74
     1
 75
     0
 76
     0
 77
     0
 78
     0
  0
ENDTAB
  0
TABLE
  2
LTYPE
 70
     2
  0
LTYPE
  2
CONTINUOUS
 70
     0
  3
Solid line
 72
    65
 73
     0
 40
0.0
  0
LTYPE
  2
PHANTOM2
 70
     0
  3
___ _ _ ___ _ _ ___ _ _ ___ _ _
 72
    65
 73
     6
 40
1.25
 49
0.625
 49
-0.125
 49
0.125
 49
-0.125
 49
0.125
 49
-0.125
  0
ENDTAB
  0
TABLE
  2
LAYER
 70
     2
  0
LAYER
  2
0
 70
     0
 62
   255
  6
CONTINUOUS
  0
LAYER
  2
DEFPOINTS
 70
     0
 62
     7
  6
CONTINUOUS
  0
ENDTAB
  0
TABLE
  2
STYLE
 70
     1
  0
STYLE
  2
STANDARD
 70
     0
 40
0.0
 41
0.8
 50
0.0
 71
     0
 42
0.2
  3
txt
  4

  0
ENDTAB
  0
TABLE
  2
VIEW
 70
     0
  0
ENDTAB
  0
TABLE
  2
UCS
 70
     0
  0
ENDTAB
  0
TABLE
  2
APPID
 70
     9
  0
APPID
  2
ACAD
 70
     0
  0
APPID
  2
ACAD_MLEADERVER
 70
     0
  0
APPID
  2
ACAD_EXEMPT_FROM_CAD_STANDARDS
 70
     0
  0
APPID
  2
ACAD_DSTYLE_DIMJAG
 70
     0
  0
APPID
  2
ACAD_DSTYLE_DIMTALN
 70
     0
  0
APPID
  2
ACAD_NAV_VCDISPLAY
 70
     0
  0
APPID
  2
ACAECLAYERSTANDARD
 70
     0
  0
APPID
  2
ACCMTRANSPARENCY
 70
     0
  0
APPID
  2
AcDbAttr
 70
     0
  0
ENDTAB
  0
TABLE
  2
DIMSTYLE
 70
     1
  0
DIMSTYLE
  2
STANDARD
 70
     0
  3

  4

  5

  6

  7

 40
1.0
 41
0.1875
 42
0.0625
 43
0.38
 44
0.125
 45
0.0
 46
0.0
 47
0.01
 48
0.01
140
0.15625
141
0.09
142
0.0
143
25.399999999999999
144
1.0
145
0.0
146
1.0
147
0.09
 71
     1
 72
     0
 73
     1
 74
     1
 75
     0
 76
     0
 77
     0
 78
     4
170
     0
171
     2
172
     0
173
     0
174
     0
175
     0
176
     0
177
     0
178
     0
  0
ENDTAB
  0
ENDSEC
  0
SECTION
  2
BLOCKS
  0
BLOCK
  8
0
  2
$MODEL_SPACE
 70
     0
 10
0.0
 20
0.0
 30
0.0
  3
$MODEL_SPACE
  1

  0
ENDBLK
  5
21
  8
0
  0
BLOCK
 67
     1
  8
0
  2
$PAPER_SPACE
 70
     0
 10
0.0
 20
0.0
 30
0.0
  3
$PAPER_SPACE
  1

  0
ENDBLK
  5
1D
 67
     1
  8
0
  0
ENDSEC
  0
SECTION
  2
ENTITIES
  0
LINE
  5
727
  8
0
 10
33.450468630310723
 20
3.726657404188332
 30
0.0
 11
32.745997929696841
 21
3.2333817092405459
 31
0.0
  0
LINE
  5
728
  8
0
 10
33.520105083071329
 20
3.7143786439999991
 30
0.0
 11
33.239228571371328
 21
3.517706793199999
 31
0.0
  0
LINE
  5
729
  8
0
 10
33.014595632171329
 20
3.3604171157999989
 30
0.0
 11
32.733719120571322
 21
3.1637452650999989
 31
0.0
  0
LINE
  5
72A
  8
0
 10
33.156461264177118
 20
2.5425720925909889
 30
0.0
 11
32.980769133571329
 21
2.793486813399999
 31
0.0
  0
LINE
  5
72B
  8
0
 10
32.733719120571322
 20
3.1637452650999989
 30
0.0
 11
32.96028181287133
 21
2.8401802075999991
 31
0.0
  0
LINE
  5
72C
  8
0
 10
33.17464583897133
 20
2.483477790699999
 30
0.0
 11
33.174498030171321
 21
2.4882686481
 31
0.0
  0
LINE
  5
72D
  8
0
 10
33.285530197571333
 20
2.4545392947999991
 30
0.0
 11
33.285530197571333
 21
2.423539294799999
 31
0.0
  0
LINE
  5
72E
  8
0
 10
32.96028181287133
 20
2.8401802075999991
 30
0.0
 11
33.24115832457133
 21
3.0368520583
 31
0.0
  0
LINE
  5
72F
  8
0
 10
33.465791263771322
 20
3.1941417356999988
 30
0.0
 11
33.746667775385767
 21
3.3908135864175519
 31
0.0
  0
LINE
  5
730
  8
0
 10
32.980769133571329
 20
2.793486813399999
 30
0.0
 11
33.783538116071327
 21
3.3555917507999991
 31
0.0
  0
LINE
  5
731
  8
0
 10
33.183126957371329
 20
2.4545392947999991
 30
0.0
 11
34.097935920071322
 21
2.4545392947999991
 31
0.0
  0
LINE
  5
732
  8
0
 10
33.014595632171329
 20
3.3604171157999989
 30
0.0
 11
33.24115832457133
 21
3.0368520583
 31
0.0
  0
LINE
  5
733
  8
0
 10
33.465791263771322
 20
3.1941417356999988
 30
0.0
 11
33.239228571371328
 21
3.517706793199999
 31
0.0
  0
LINE
  5
734
  8
0
 10
33.995530197571327
 20
2.4545392947999991
 30
0.0
 11
33.995530197571327
 21
2.423539294799999
 31
0.0
  0
LINE
  5
735
  8
0
 10
33.520105083071329
 20
3.7143786439999991
 30
0.0
 11
33.746667775371321
 21
3.3908135864999989
 31
0.0
  0
LINE
  5
736
  8
0
 10
34.091773920371331
 20
2.9153854014
 30
0.0
 11
33.783538116071327
 21
3.3555917507999991
 31
0.0
  0
LINE
  5
737
  8
0
 10
34.106411738971332
 20
2.4834783475999989
 30
0.0
 11
34.117027026913362
 21
2.8308089270762231
 31
0.0
  0
ARC
  5
751
  8
0
 10
33.976988201729988
 20
2.8350540121312009
 30
0.0
 40
0.1401031523766105
 50
358.26368868212188
 51
34.985784054032578
  0
ARC
  5
752
  8
0
 10
33.074499307073168
 20
2.485201456612538
 30
0.0
 40
0.1000457509586511
 50
1.756842909935532
 51
34.990737488631119
  0
ARC
  5
753
  8
0
 10
34.046627805069321
 20
2.4852774270567268
 30
0.0
 40
0.0598109976483477
 50
329.07463457375212
 51
358.27631682840098
  0
ARC
  5
754
  8
0
 10
33.234889395632592
 20
2.4854215606851802
 30
0.0
 40
0.0602749065611392
 50
181.84801827574901
 51
210.82095136399229
  0
ARC
  5
755
  8
0
 10
33.705710173171333
 20
3.362134764599999
 30
0.0
 40
0.05
 50
304.99997463950001
 51
35.000000000000021
  0
ARC
  5
756
  8
0
 10
33.001239415071332
 20
2.8688590293999989
 30
0.0
 40
0.05
 50
215.0
 51
305.00002536049999
  0
ARC
  5
757
  8
0
 10
33.479147480871333
 20
3.6856998220999988
 30
0.0
 40
0.05
 50
35.000000000000021
 51
125.0000402088
  0
ARC
  5
758
  8
0
 10
32.774676722771332
 20
3.1924240869
 30
0.0
 40
0.05
 50
124.9999597911999
 51
215.0
  0
LINE
  5
7B1
  8
0
 10
32.395528159469322
 20
1.825861592299999
 30
0.0
 11
32.395528159469322
 21
1.723539294799999
 31
0.0
  0
LINE
  5
7B2
  8
0
 10
32.820528159469319
 20
3.4304719489999989
 30
0.0
 11
32.820528159469319
 21
3.2855683379109131
 31
0.0
  0
LINE
  5
7B3
  8
0
 10
32.820528159469319
 20
3.039769109196286
 30
0.0
 11
32.820528159469319
 21
2.463539294799999
 31
0.0
  0
LINE
  5
7B4
  8
0
 10
32.943028159469321
 20
2.423539294799999
 30
0.0
 11
32.943028159469321
 21
2.3971986376580849
 31
0.0
  0
LINE
  5
7B5
  8
0
 10
34.338028159469317
 20
2.423539294799999
 30
0.0
 11
34.338028159469317
 21
2.3972034937448989
 31
0.0
  0
LINE
  5
7B6
  8
0
 10
34.46052815946932
 20
3.4304719489999989
 30
0.0
 11
34.46052815946932
 21
2.463539294799999
 31
0.0
  0
LINE
  5
7B7
  8
0
 10
34.627560190551698
 20
1.937510419539926
 30
0.0
 11
34.849310027869322
 21
1.8739246768999991
 31
0.0
  0
LINE
  5
7B8
  8
0
 10
34.885528159469317
 20
1.825861592299999
 30
0.0
 11
34.885528159469317
 21
1.723539294799999
 31
0.0
  0
LINE
  5
7B9
  8
0
 10
32.445528159469319
 20
1.673539294799999
 30
0.0
 11
34.835528159473327
 21
1.673539294799999
 31
0.0
  0
LINE
  5
7BA
  8
0
 10
34.42052815946932
 20
2.423539294799999
 30
0.0
 11
32.860528159469318
 21
2.423539294799999
 31
0.0
  0
LINE
  5
7BB
  8
0
 10
32.65350081403566
 20
1.9375117631567511
 30
0.0
 11
32.431746290969322
 21
1.8739246768999991
 31
0.0
  0
LINE
  5
7BC
  8
0
 10
34.46052815946932
 20
3.4304719489999989
 30
0.0
 11
33.71889869100346
 21
3.4304719490000002
 31
0.0
  0
LINE
  5
7BD
  8
0
 10
33.027471962791459
 20
3.4304719489999989
 30
0.0
 11
32.820528159469319
 21
3.4304719489999989
 31
0.0
  0
ARC
  5
7BE
  8
0
 10
33.640528159469312
 20
2.1935392991999989
 30
0.0
 40
1.8200000000000001
 50
64.079599801000114
 51
115.9204001989
  0
ARC
  5
7BF
  8
0
 10
34.335472241127142
 20
3.6235675296355461
 30
0.0
 40
0.2300540935500272
 50
302.9286031587892
 51
64.064000301834383
  0
ARC
  5
7C0
  8
0
 10
32.945584077811489
 20
3.6235675296355461
 30
0.0
 40
0.2300540935500264
 50
115.9359996973745
 51
237.0713968412108
  0
ARC
  5
7C1
  8
0
 10
32.445528159469319
 20
1.825861592299999
 30
0.0
 40
0.05
 50
106.0000008179999
 51
180.0
  0
ARC
  5
7C2
  8
0
 10
34.83552815946932
 20
1.723539294799999
 30
0.0
 40
0.05
 50
270.00000000459988
 51
0.0
  0
ARC
  5
7C3
  8
0
 10
32.445528159469319
 20
1.723539294799999
 30
0.0
 40
0.05
 50
180.0
 51
269.9999999954
  0
ARC
  5
7C4
  8
0
 10
34.83552815946932
 20
1.825861592299999
 30
0.0
 40
0.05
 50
0.0
 51
73.99999918200011
  0
ARC
  5
7C5
  8
0
 10
34.42052815946932
 20
2.463539294799999
 30
0.0
 40
0.04
 50
270.0
 51
0.0
  0
ARC
  5
7C6
  8
0
 10
32.860528159469318
 20
2.463539294799999
 30
0.0
 40
0.04
 50
180.0
 51
270.0
  0
ARC
  5
7C7
  8
0
 10
32.806166601121333
 20
1.1113549761999999
 30
0.0
 40
2.0
 50
18.296875231199941
 51
40.336387786399897
  0
ARC
  5
7C8
  8
0
 10
34.474889717921329
 20
1.1113549761999999
 30
0.0
 40
2.0
 50
139.66361221360009
 51
161.70312476879991
  0
ARC
  5
7C9
  8
0
 10
34.657579672221331
 20
1.723539294799999
 30
0.0
 40
0.05
 50
270.0
 51
18.296875231199941
  0
ARC
  5
7CA
  8
0
 10
34.292568547321331
 20
2.3735392948
 30
0.0
 40
0.05
 50
40.336387786399897
 51
90.0
  0
ARC
  5
7CB
  8
0
 10
32.98848777162133
 20
2.3735392948
 30
0.0
 40
0.05
 50
90.0
 51
139.66361221360009
  0
ARC
  5
7CC
  8
0
 10
32.623476646721329
 20
1.723539294799999
 30
0.0
 40
0.05
 50
161.70312476879991
 51
270.0
  0
ARC
  5
7CD
  8
0
 10
33.250231035348129
 20
3.2629442653657041
 30
0.0
 40
0.2549999996119238
 50
92.472903966788124
 51
157.52709604757291
  0
ARC
  5
7CE
  8
0
 10
33.23015586044184
 20
3.2916145863523512
 30
0.0
 40
0.2549999998363644
 50
272.47290399894888
 51
337.52709601541312
  0
ATTDEF
  5
AE0
  8
DEFPOINTS
 10
33.637099062484651
 20
1.681072975872693
 30
0.0
 40
0.001
  1
BRASS
  3

  2
MATERIAL
 70
     0
1001
AcDbAttr
1070
     0
1070
     1
  0
ATTDEF
  5
AE1
  8
DEFPOINTS
 10
33.637099062484651
 20
1.6827396425393579
 30
0.0
 40
0.001
  1
DIVERTER VALVE KIT
  3

  2
PRODUCT
 70
     0
1001
AcDbAttr
1070
     0
1070
     1
  0
ATTDEF
  5
AE2
  8
DEFPOINTS
 10
33.637099062484651
 20
1.6844063092060231
 30
0.0
 40
0.001
  1

  3

  2
TRADENAME
 70
     0
1001
AcDbAttr
1070
     0
1070
     1
  0
ATTDEF
  5
AE3
  8
DEFPOINTS
 10
33.637099062484651
 20
1.686072975872688
 30
0.0
 40
0.001
  1
K-8549
  3

  2
MODELNUMBER
 70
     0
1001
AcDbAttr
1070
     0
1070
     1
  0
ENDSEC
  0
EOF
