  0
SECTION
  2
HEADER
  9
$ACADVER
  1
AC1009
  9
$INSBASE
 10
24.101196736921331
 20
1.673539294799999
 30
0.0
  9
$EXTMIN
 10
20.445170980571319
 20
1.6667713820711729
 30
0.0
  9
$EXTMAX
 10
27.754694623360798
 20
4.0097397481459334
 30
0.0
  9
$LIMMIN
 10
0.0
 20
0.0
  9
$LIMMAX
 10
11.692913385800001
 20
8.2677165353999982
  9
$ORTHOMODE
 70
     0
  9
$REGENMODE
 70
     1
  9
$FILLMODE
 70
     1
  9
$QTEXTMODE
 70
     0
  9
$MIRRTEXT
 70
     0
  9
$DRAGMODE
 70
     2
  9
$LTSCALE
 40
0.6431102362
  9
$OSMODE
 70
  3071
  9
$ATTMODE
 70
     1
  9
$TEXTSIZE
 40
0.2
  9
$TRACEWID
 40
0.05
  9
$TEXTSTYLE
  7
STANDARD
  9
$CLAYER
  8
0
  9
$CELTYPE
  6
BYLAYER
  9
$CECOLOR
 62
   256
  9
$DIMSCALE
 40
1.0
  9
$DIMASZ
 40
0.1875
  9
$DIMEXO
 40
0.0625
  9
$DIMDLI
 40
0.4443307087
  9
$DIMRND
 40
0.0
  9
$DIMDLE
 40
0.0
  9
$DIMEXE
 40
0.125
  9
$DIMTP
 40
0.01
  9
$DIMTM
 40
0.01
  9
$DIMTXT
 40
0.5
  9
$DIMCEN
 40
0.1052362205
  9
$DIMTSZ
 40
0.0
  9
$DIMTOL
 70
     1
  9
$DIMLIM
 70
     0
  9
$DIMTIH
 70
     1
  9
$DIMTOH
 70
     1
  9
$DIMSE1
 70
     0
  9
$DIMSE2
 70
     0
  9
$DIMTAD
 70
     0
  9
$DIMZIN
 70
     0
  9
$DIMBLK
  1

  9
$DIMASO
 70
     1
  9
$DIMSHO
 70
     1
  9
$DIMPOST
  1
\X
  9
$DIMAPOST
  1

  9
$DIMALT
 70
     1
  9
$DIMALTD
 70
     2
  9
$DIMALTF
 40
25.399999999999999
  9
$DIMLFAC
 40
1.0
  9
$DIMTOFL
 70
     0
  9
$DIMTVP
 40
0.0
  9
$DIMTIX
 70
     0
  9
$DIMSOXD
 70
     0
  9
$DIMSAH
 70
     0
  9
$DIMBLK1
  1

  9
$DIMBLK2
  1

  9
$DIMSTYLE
  2
STANDARD
  9
$DIMCLRD
 70
     0
  9
$DIMCLRE
 70
     0
  9
$DIMCLRT
 70
     0
  9
$DIMTFAC
 40
1.0
  9
$DIMGAP
 40
0.09
  9
$LUNITS
 70
     2
  9
$LUPREC
 70
     4
  9
$SKETCHINC
 40
0.1
  9
$FILLETRAD
 40
0.0
  9
$AUNITS
 70
     0
  9
$AUPREC
 70
     0
  9
$MENU
  1
.
  9
$ELEVATION
 40
0.0
  9
$PELEVATION
 40
0.0
  9
$THICKNESS
 40
0.0
  9
$LIMCHECK
 70
     0
  9
$BLIPMODE
 70
     0
  9
$CHAMFERA
 40
0.0
  9
$CHAMFERB
 40
0.0
  9
$SKPOLY
 70
     0
  9
$TDCREATE
 40
2458200.6875161109
  9
$TDUPDATE
 40
2458200.7676403821
  9
$TDINDWG
 40
0.0603541898
  9
$TDUSRTIMER
 40
0.0603541898
  9
$USRTIMER
 70
     1
  9
$ANGBASE
 50
0.0
  9
$ANGDIR
 70
     0
  9
$PDMODE
 70
     0
  9
$PDSIZE
 40
0.3125
  9
$PLINEWID
 40
0.0
  9
$COORDS
 70
     1
  9
$SPLFRAME
 70
     0
  9
$SPLINETYPE
 70
     6
  9
$SPLINESEGS
 70
     8
  9
$ATTDIA
 70
     1
  9
$ATTREQ
 70
     1
  9
$HANDLING
 70
     1
  9
$HANDSEED
  5
B6B
  9
$SURFTAB1
 70
     6
  9
$SURFTAB2
 70
     6
  9
$SURFTYPE
 70
     6
  9
$SURFU
 70
     6
  9
$SURFV
 70
     6
  9
$UCSNAME
  2

  9
$UCSORG
 10
0.0
 20
0.0
 30
0.0
  9
$UCSXDIR
 10
1.0
 20
0.0
 30
0.0
  9
$UCSYDIR
 10
0.0
 20
1.0
 30
0.0
  9
$PUCSNAME
  2

  9
$PUCSORG
 10
0.0
 20
0.0
 30
0.0
  9
$PUCSXDIR
 10
1.0
 20
0.0
 30
0.0
  9
$PUCSYDIR
 10
0.0
 20
1.0
 30
0.0
  9
$USERI1
 70
     0
  9
$USERI2
 70
     0
  9
$USERI3
 70
     0
  9
$USERI4
 70
     0
  9
$USERI5
 70
     0
  9
$USERR1
 40
0.0
  9
$USERR2
 40
0.0
  9
$USERR3
 40
0.0
  9
$USERR4
 40
0.0
  9
$USERR5
 40
0.0
  9
$WORLDVIEW
 70
     1
  9
$SHADEDGE
 70
     3
  9
$SHADEDIF
 70
    70
  9
$TILEMODE
 70
     1
  9
$MAXACTVP
 70
    64
  9
$PLIMCHECK
 70
     0
  9
$PEXTMIN
 10
1.0000000000000000E+020
 20
1.0000000000000000E+020
 30
1.0000000000000000E+020
  9
$PEXTMAX
 10
-1.0000000000000000E+020
 20
-1.0000000000000000E+020
 30
-1.0000000000000000E+020
  9
$PLIMMIN
 10
0.0
 20
0.0
  9
$PLIMMAX
 10
12.0
 20
9.0
  9
$UNITMODE
 70
     0
  9
$VISRETAIN
 70
     1
  9
$PLINEGEN
 70
     0
  9
$PSLTSCALE
 70
     1
  0
ENDSEC
  0
SECTION
  2
TABLES
  0
TABLE
  2
VPORT
 70
     1
  0
VPORT
  2
*ACTIVE
 70
     0
 10
0.0
 20
0.0
 11
1.0
 21
1.0
 12
0.0
 22
0.0
 13
0.0
 23
0.0
 14
1.0
 24
1.0
 15
0.0
 25
0.0
 16
-0.0000000000000036
 26
0.0
 36
21.587784054584791
 17
24.10115369767718
 27
2.8364330247234921
 37
0.0
 40
7.6787088856230472
 41
2.0983240223463682
 42
50.0
 43
0.0
 44
0.0
 50
0.0
 51
0.0
 71
     0
 72
   100
 73
     1
 74
     1
 75
     0
 76
     0
 77
     0
 78
     0
  0
ENDTAB
  0
TABLE
  2
LTYPE
 70
     2
  0
LTYPE
  2
CONTINUOUS
 70
     0
  3
Solid line
 72
    65
 73
     0
 40
0.0
  0
LTYPE
  2
PHANTOM2
 70
     0
  3
___ _ _ ___ _ _ ___ _ _ ___ _ _
 72
    65
 73
     6
 40
1.25
 49
0.625
 49
-0.125
 49
0.125
 49
-0.125
 49
0.125
 49
-0.125
  0
ENDTAB
  0
TABLE
  2
LAYER
 70
     2
  0
LAYER
  2
0
 70
     0
 62
   255
  6
CONTINUOUS
  0
LAYER
  2
DEFPOINTS
 70
     0
 62
     7
  6
CONTINUOUS
  0
ENDTAB
  0
TABLE
  2
STYLE
 70
     1
  0
STYLE
  2
STANDARD
 70
     0
 40
0.0
 41
0.8
 50
0.0
 71
     0
 42
0.2
  3
txt
  4

  0
ENDTAB
  0
TABLE
  2
VIEW
 70
     0
  0
ENDTAB
  0
TABLE
  2
UCS
 70
     0
  0
ENDTAB
  0
TABLE
  2
APPID
 70
     9
  0
APPID
  2
ACAD
 70
     0
  0
APPID
  2
ACAD_MLEADERVER
 70
     0
  0
APPID
  2
ACAD_EXEMPT_FROM_CAD_STANDARDS
 70
     0
  0
APPID
  2
ACAD_DSTYLE_DIMJAG
 70
     0
  0
APPID
  2
ACAD_DSTYLE_DIMTALN
 70
     0
  0
APPID
  2
ACAD_NAV_VCDISPLAY
 70
     0
  0
APPID
  2
ACAECLAYERSTANDARD
 70
     0
  0
APPID
  2
ACCMTRANSPARENCY
 70
     0
  0
APPID
  2
AcDbAttr
 70
     0
  0
ENDTAB
  0
TABLE
  2
DIMSTYLE
 70
     1
  0
DIMSTYLE
  2
STANDARD
 70
     0
  3

  4

  5

  6

  7

 40
1.0
 41
0.1875
 42
0.0625
 43
0.38
 44
0.125
 45
0.0
 46
0.0
 47
0.01
 48
0.01
140
0.15625
141
0.09
142
0.0
143
25.399999999999999
144
1.0
145
0.0
146
1.0
147
0.09
 71
     1
 72
     0
 73
     1
 74
     1
 75
     0
 76
     0
 77
     0
 78
     4
170
     0
171
     2
172
     0
173
     0
174
     0
175
     0
176
     0
177
     0
178
     0
  0
ENDTAB
  0
ENDSEC
  0
SECTION
  2
BLOCKS
  0
BLOCK
  8
0
  2
$MODEL_SPACE
 70
     0
 10
0.0
 20
0.0
 30
0.0
  3
$MODEL_SPACE
  1

  0
ENDBLK
  5
21
  8
0
  0
BLOCK
 67
     1
  8
0
  2
$PAPER_SPACE
 70
     0
 10
0.0
 20
0.0
 30
0.0
  3
$PAPER_SPACE
  1

  0
ENDBLK
  5
1D
 67
     1
  8
0
  0
ENDSEC
  0
SECTION
  2
ENTITIES
  0
LINE
  5
713
  8
0
 10
20.445170980571319
 20
1.825861592299999
 30
0.0
 11
20.445170980571319
 21
1.723539294799999
 31
0.0
  0
LINE
  5
714
  8
0
 10
20.870170980571331
 20
3.4304719489999989
 30
0.0
 11
20.870170980571331
 21
2.463539294799999
 31
0.0
  0
LINE
  5
715
  8
0
 10
20.992670980571329
 20
2.423539294799999
 30
0.0
 11
20.992670980571329
 21
2.088352258
 31
0.0
  0
LINE
  5
716
  8
0
 10
22.387670980571329
 20
2.423539294799999
 30
0.0
 11
22.387670980571329
 21
2.088352258
 31
0.0
  0
LINE
  5
717
  8
0
 10
22.510170980571331
 20
3.4304719489999989
 30
0.0
 11
22.510170980571331
 21
2.463539294799999
 31
0.0
  0
LINE
  5
718
  8
0
 10
22.452863608271329
 20
2.0018387083000002
 30
0.0
 11
22.89895284897133
 21
1.8739246768999991
 31
0.0
  0
LINE
  5
719
  8
0
 10
22.935170980571328
 20
1.825861592299999
 30
0.0
 11
22.935170980571328
 21
1.723539294799999
 31
0.0
  0
LINE
  5
71A
  8
0
 10
20.495170980571331
 20
1.673539294799999
 30
0.0
 11
22.885170980575339
 21
1.673539294799999
 31
0.0
  0
LINE
  5
71B
  8
0
 10
25.673119467771329
 20
1.673539294799999
 30
0.0
 11
27.70722249327132
 21
1.673539294799999
 31
0.0
  0
LINE
  5
71C
  8
0
 10
22.470170980571329
 20
2.423539294799999
 30
0.0
 11
20.910170980571319
 21
2.423539294799999
 31
0.0
  0
LINE
  5
71D
  8
0
 10
26.03813059267133
 20
2.423539294799999
 30
0.0
 11
27.342211368371331
 21
2.423539294799999
 31
0.0
  0
LINE
  5
71E
  8
0
 10
26.23277255357133
 20
2.4545392947999991
 30
0.0
 11
27.147561774992241
 21
2.454539294789186
 31
0.0
  0
LINE
  5
71F
  8
0
 10
20.92747835277132
 20
2.0018387083000002
 30
0.0
 11
20.48138911207133
 21
1.8739246768999991
 31
0.0
  0
LINE
  5
720
  8
0
 10
22.510170980571331
 20
3.4304719489999989
 30
0.0
 11
20.870170980571331
 21
3.4304719489999989
 31
0.0
  0
LINE
  5
721
  8
0
 10
26.23017098057133
 20
3.0291229188999989
 30
0.0
 11
26.23017098057133
 21
3.5254359373000002
 31
0.0
  0
LINE
  5
722
  8
0
 10
26.335170980571331
 20
2.4545392947999991
 30
0.0
 11
26.335170980571331
 21
2.423539294799999
 31
0.0
  0
LINE
  5
723
  8
0
 10
27.045170980571331
 20
2.4545392947999991
 30
0.0
 11
27.045170980571331
 21
2.423539294799999
 31
0.0
  0
LINE
  5
724
  8
0
 10
27.150170980571328
 20
3.029122861199999
 30
0.0
 11
27.150170980571328
 21
3.5254359871999998
 31
0.0
  0
ARC
  5
738
  8
0
 10
25.85580942217133
 20
1.1113549761999999
 30
0.0
 40
2.0
 50
18.296875231199959
 51
40.336387786399939
  0
ARC
  5
739
  8
0
 10
27.524532538971329
 20
1.1113549761999999
 30
0.0
 40
2.0
 50
139.6636122136
 51
161.70312476879991
  0
ARC
  5
73A
  8
0
 10
21.69017098057132
 20
2.1935392991999989
 30
0.0
 40
1.8200000000000001
 50
64.079599801000086
 51
115.9204001989
  0
ARC
  5
73B
  8
0
 10
22.385115062229151
 20
3.6235675296355461
 30
0.0
 40
0.2300540935500272
 50
302.9286031587892
 51
64.064000301834355
  0
ARC
  5
73C
  8
0
 10
20.995226898913501
 20
3.6235675296355461
 30
0.0
 40
0.2300540935500264
 50
115.9359996973745
 51
237.0713968412108
  0
ARC
  5
73D
  8
0
 10
20.902670980571319
 20
2.088352258
 30
0.0
 40
0.09
 50
286.00000678389989
 51
0.0
  0
ARC
  5
73E
  8
0
 10
22.477670980571329
 20
2.088352258
 30
0.0
 40
0.09
 50
180.0
 51
253.99999321610011
  0
ARC
  5
73F
  8
0
 10
27.095753742742652
 20
2.4854692038192949
 30
0.0
 40
0.0603384742779009
 50
329.16237961317478
 51
358.13824087399178
  0
ARC
  5
740
  8
0
 10
26.284377987597601
 20
2.4853494436397989
 30
0.0
 40
0.0601031288084971
 50
181.7606501421233
 51
210.83859684475649
  0
ARC
  5
741
  8
0
 10
27.70722249327132
 20
1.723539294799999
 30
0.0
 40
0.05
 50
270.0
 51
18.296875231199959
  0
ARC
  5
742
  8
0
 10
27.342211368371331
 20
2.3735392948
 30
0.0
 40
0.05
 50
40.336387786399939
 51
90.0
  0
ARC
  5
743
  8
0
 10
26.03813059267133
 20
2.3735392948
 30
0.0
 40
0.05
 50
90.0
 51
139.6636122136
  0
ARC
  5
744
  8
0
 10
25.673119467771329
 20
1.723539294799999
 30
0.0
 40
0.05
 50
161.70312476879991
 51
270.0
  0
ARC
  5
745
  8
0
 10
20.495170980571331
 20
1.825861592299999
 30
0.0
 40
0.05
 50
106.0000008179999
 51
180.0
  0
ARC
  5
746
  8
0
 10
22.885170980571321
 20
1.723539294799999
 30
0.0
 40
0.05
 50
270.00000000459988
 51
0.0
  0
ARC
  5
747
  8
0
 10
20.495170980571331
 20
1.723539294799999
 30
0.0
 40
0.05
 50
180.0
 51
269.9999999954
  0
ARC
  5
748
  8
0
 10
22.885170980571321
 20
1.825861592299999
 30
0.0
 40
0.05
 50
0.0
 51
73.999999182000096
  0
ARC
  5
749
  8
0
 10
22.470170980571329
 20
2.463539294799999
 30
0.0
 40
0.04
 50
270.0
 51
0.0
  0
ARC
  5
74A
  8
0
 10
20.910170980571319
 20
2.463539294799999
 30
0.0
 40
0.04
 50
180.0
 51
270.0
  0
LINE
  5
759
  8
0
 10
26.224303233652389
 20
2.4835028167168738
 30
0.0
 11
26.203145570214321
 21
3.0593351327599811
 31
0.0
  0
LINE
  5
75A
  8
0
 10
27.15606036567133
 20
2.483508920899999
 30
0.0
 11
27.177257578121331
 21
3.0609186738999998
 31
0.0
  0
ARC
  5
75B
  8
0
 10
26.390465933267841
 20
3.06941481245725
 30
0.0
 40
0.187591360028397
 50
148.7034445167981
 51
183.08010648995389
  0
ARC
  5
75C
  8
0
 10
26.41443566375272
 20
3.080771402745659
 30
0.0
 40
0.2123747096486912
 50
185.79307647335111
 51
234.0316393758381
  0
ARC
  5
75D
  8
0
 10
26.678043745971522
 20
3.5039719511997278
 30
0.0
 40
0.7105886298367964
 50
236.87207663069839
 51
270.9778837787145
  0
ARC
  5
75E
  8
0
 10
26.700328491139739
 20
3.5205889562356152
 30
0.0
 40
0.7271730888427396
 50
269.1996384045712
 51
301.2910730716921
  0
ARC
  5
75F
  8
0
 10
26.95966275182608
 20
3.0831319122559808
 30
0.0
 40
0.2187257103970514
 50
302.75754368107431
 51
354.17113415567241
  0
ARC
  5
760
  8
0
 10
26.991542642544228
 20
3.0698628194208948
 30
0.0
 40
0.1859301886071765
 50
357.24273048053442
 51
31.442868162573159
  0
ARC
  5
761
  8
0
 10
26.54627689033007
 20
3.2092672582814719
 30
0.0
 40
0.3638336559412703
 50
209.67821090917511
 51
252.87260317753871
  0
ARC
  5
762
  8
0
 10
26.688795245714768
 20
3.5699232199981248
 30
0.0
 40
0.7510654505735249
 50
250.58449970270101
 51
292.77834798352569
  0
ARC
  5
763
  8
0
 10
26.849239010437628
 20
3.1957823227090221
 30
0.0
 40
0.3439991667998998
 50
292.26607555593978
 51
331.02182986922668
  0
ARC
  5
764
  8
0
 10
26.544666971633031
 20
3.3461987726618672
 30
0.0
 40
0.3619857588102049
 50
108.38252378471731
 51
150.3203732811007
  0
ARC
  5
765
  8
0
 10
26.684841357322551
 20
3.0097260404743631
 30
0.0
 40
0.7259933446608176
 50
89.579379530581818
 51
110.50689579148271
  0
ARC
  5
766
  8
0
 10
26.695494440896841
 20
3.0096911960074988
 30
0.0
 40
0.7260281429741946
 50
69.493605370852464
 51
90.420113937893802
  0
ARC
  5
767
  8
0
 10
26.837738929583281
 20
3.3487157452999829
 30
0.0
 40
0.3589482279964636
 50
29.49370553990844
 51
71.803401265868416
  0
ARC
  5
768
  8
0
 10
26.51338151821842
 20
3.4334214013569988
 30
0.0
 40
0.2533127046288409
 50
109.6204494298168
 51
168.40536835609959
  0
ARC
  5
769
  8
0
 10
26.683121591329432
 20
3.0712770908538869
 30
0.0
 40
0.6525505291166329
 50
89.381031674905003
 51
112.9835545077797
  0
ARC
  5
76A
  8
0
 10
26.69536073982783
 20
3.055104030776703
 30
0.0
 40
0.6687056503339695
 50
69.589471603432628
 51
90.444671414112463
  0
ARC
  5
76B
  8
0
 10
26.822677468837259
 20
3.3704803501321452
 30
0.0
 40
0.328860930009322
 50
34.761459161315578
 51
71.216574196423736
  0
ARC
  5
76C
  8
0
 10
26.964795947607868
 20
3.4793118347840521
 30
0.0
 40
0.1502881590781085
 50
319.49316467397392
 51
31.565693341029359
  0
ARC
  5
76D
  8
0
 10
26.803483272427538
 20
3.619393738334542
 30
0.0
 40
0.3639315155141063
 50
287.04638174123369
 51
319.2208903927073
  0
ARC
  5
76E
  8
0
 10
26.68915145375033
 20
3.9455162102881118
 30
0.0
 40
0.7093750355034504
 50
258.56244299047751
 51
288.15360086116129
  0
ARC
  5
76F
  8
0
 10
26.653559773018181
 20
3.7923161485380521
 30
0.0
 40
0.5521778673218261
 50
243.5607480531784
 51
259.02993584795212
  0
ARC
  5
770
  8
0
 10
26.484597344389421
 20
3.5043009871078521
 30
0.0
 40
0.2202663401365833
 50
185.2010282441716
 51
249.56798048723971
  0
ARC
  5
771
  8
0
 10
26.484789823204189
 20
3.4436030104089781
 30
0.0
 40
0.1648452545337072
 50
183.0033002442739
 51
242.119457558546
  0
ARC
  5
772
  8
0
 10
26.51769657435625
 20
3.4092530161616539
 30
0.0
 40
0.1991921879242777
 50
109.4313120426249
 51
172.58314696969839
  0
ARC
  5
773
  8
0
 10
26.692018518895718
 20
3.0461037393779038
 30
0.0
 40
0.6012312928758564
 50
72.285300761295062
 51
113.5881604960507
  0
ARC
  5
774
  8
0
 10
26.80666771078517
 20
3.3500917555129921
 30
0.0
 40
0.2772765209012541
 50
27.762241077891758
 51
75.741598180356078
  0
ARC
  5
775
  8
0
 10
26.8999467622425
 20
3.4353076409025851
 30
0.0
 40
0.158300314518185
 50
310.33424598474272
 51
16.11564016294356
  0
ARC
  5
776
  8
0
 10
26.631258920359709
 20
3.0881528898444248
 30
0.0
 40
0.383437855930971
 50
95.968720147630378
 51
137.18739236036191
  0
ARC
  5
777
  8
0
 10
26.689688431452641
 20
2.849291276230971
 30
0.0
 40
0.6279625786884554
 50
75.7158345784038
 51
99.006143099074336
  0
ARC
  5
778
  8
0
 10
26.77462962816605
 20
3.1261831269537601
 30
0.0
 40
0.3389626139435131
 50
40.719564775573289
 51
78.08250817279162
  0
ARC
  5
779
  8
0
 10
26.690170906277249
 20
2.908532446062368
 30
0.0
 40
0.5199417338377025
 50
52.285255039065241
 51
127.4314384297666
  0
ARC
  5
77A
  8
0
 10
26.69024762230687
 20
3.1052571220736702
 30
0.0
 40
0.2027659165449279
 50
45.790110768744761
 51
134.35938073224821
  0
ARC
  5
77B
  8
0
 10
26.461629286474231
 20
3.3445624897326121
 30
0.0
 40
0.1645045219051551
 50
321.8740477265506
 51
340.65651037346998
  0
ARC
  5
77C
  8
0
 10
26.713528636260691
 20
3.4204370779926019
 30
0.0
 40
0.1623018589700896
 50
233.43836346914679
 51
250.7989481885939
  0
ARC
  5
77D
  8
0
 10
26.690170980628711
 20
3.0437042107365802
 30
0.0
 40
0.2254673705705503
 50
82.348382643756295
 51
97.651617385669311
  0
ARC
  5
77E
  8
0
 10
26.666436594404029
 20
3.4211491593690511
 30
0.0
 40
0.1630982733272617
 50
289.24376270582491
 51
306.5189253831191
  0
ARC
  5
77F
  8
0
 10
26.91636443625794
 20
3.3432802643750761
 30
0.0
 40
0.161864706203365
 50
199.1905606696439
 51
218.2837673070255
  0
LINE
  5
780
  8
0
 10
26.660150154471332
 20
3.2671640173883039
 30
0.0
 11
26.660150154471332
 21
3.2369296570999988
 31
0.0
  0
LINE
  5
781
  8
0
 10
26.720191806631149
 20
3.2671640174091379
 30
0.0
 11
26.72019180667132
 21
3.2369297244999991
 31
0.0
  0
ATTDEF
  5
A9F
  8
DEFPOINTS
 10
24.095399197175901
 20
1.6667713820711729
 30
0.0
 40
0.001
  1
BRASS
  3

  2
MATERIAL
 70
     0
1001
AcDbAttr
1070
     0
1070
     1
  0
ATTDEF
  5
AA0
  8
DEFPOINTS
 10
24.095399197175901
 20
1.6684380487378381
 30
0.0
 40
0.001
  1
DIVERTER VALVE KIT
  3

  2
PRODUCT
 70
     0
1001
AcDbAttr
1070
     0
1070
     1
  0
ATTDEF
  5
AA1
  8
DEFPOINTS
 10
24.095399197175901
 20
1.670104715404503
 30
0.0
 40
0.001
  1

  3

  2
TRADENAME
 70
     0
1001
AcDbAttr
1070
     0
1070
     1
  0
ATTDEF
  5
AA2
  8
DEFPOINTS
 10
24.095399197175901
 20
1.671771382071169
 30
0.0
 40
0.001
  1
K-8549
  3

  2
MODELNUMBER
 70
     0
1001
AcDbAttr
1070
     0
1070
     1
  0
ENDSEC
  0
EOF
