  0
SECTION
  2
HEADER
  9
$ACADVER
  1
AC1009
  9
$INSBASE
 10
24.271591339699999
 20
-5.913470102699999
 30
0.0
  9
$EXTMIN
 10
18.938514062559701
 20
-13.71496196089163
 30
-0.0000000349181948
  9
$EXTMAX
 10
24.2863673167668
 20
22.7175193337678
 30
0.0000000814935746
  9
$LIMMIN
 10
0.0
 20
0.0
  9
$LIMMAX
 10
11.692913385800001
 20
8.2677165353999982
  9
$ORTHOMODE
 70
     1
  9
$REGENMODE
 70
     1
  9
$FILLMODE
 70
     1
  9
$QTEXTMODE
 70
     0
  9
$MIRRTEXT
 70
     0
  9
$DRAGMODE
 70
     2
  9
$LTSCALE
 40
0.6431102362
  9
$OSMODE
 70
    39
  9
$ATTMODE
 70
     1
  9
$TEXTSIZE
 40
0.2
  9
$TRACEWID
 40
0.05
  9
$TEXTSTYLE
  7
STANDARD
  9
$CLAYER
  8
0
  9
$CELTYPE
  6
BYLAYER
  9
$CECOLOR
 62
   256
  9
$DIMSCALE
 40
1.0
  9
$DIMASZ
 40
0.1875
  9
$DIMEXO
 40
0.0625
  9
$DIMDLI
 40
0.4443307087
  9
$DIMRND
 40
0.0
  9
$DIMDLE
 40
0.0
  9
$DIMEXE
 40
0.125
  9
$DIMTP
 40
0.0
  9
$DIMTM
 40
0.0
  9
$DIMTXT
 40
0.15625
  9
$DIMCEN
 40
0.1052362205
  9
$DIMTSZ
 40
0.0
  9
$DIMTOL
 70
     0
  9
$DIMLIM
 70
     0
  9
$DIMTIH
 70
     1
  9
$DIMTOH
 70
     1
  9
$DIMSE1
 70
     0
  9
$DIMSE2
 70
     0
  9
$DIMTAD
 70
     0
  9
$DIMZIN
 70
     0
  9
$DIMBLK
  1

  9
$DIMASO
 70
     1
  9
$DIMSHO
 70
     1
  9
$DIMPOST
  1

  9
$DIMAPOST
  1

  9
$DIMALT
 70
     0
  9
$DIMALTD
 70
     2
  9
$DIMALTF
 40
25.399999999999999
  9
$DIMLFAC
 40
1.0
  9
$DIMTOFL
 70
     0
  9
$DIMTVP
 40
0.0
  9
$DIMTIX
 70
     0
  9
$DIMSOXD
 70
     0
  9
$DIMSAH
 70
     0
  9
$DIMBLK1
  1

  9
$DIMBLK2
  1

  9
$DIMSTYLE
  2
STANDARD
  9
$DIMCLRD
 70
     0
  9
$DIMCLRE
 70
     0
  9
$DIMCLRT
 70
     0
  9
$DIMTFAC
 40
1.0
  9
$DIMGAP
 40
0.09
  9
$LUNITS
 70
     2
  9
$LUPREC
 70
     4
  9
$SKETCHINC
 40
0.1
  9
$FILLETRAD
 40
0.0
  9
$AUNITS
 70
     0
  9
$AUPREC
 70
     0
  9
$MENU
  1
.
  9
$ELEVATION
 40
0.0
  9
$PELEVATION
 40
0.0
  9
$THICKNESS
 40
0.0
  9
$LIMCHECK
 70
     0
  9
$BLIPMODE
 70
     0
  9
$CHAMFERA
 40
0.0
  9
$CHAMFERB
 40
0.0
  9
$SKPOLY
 70
     0
  9
$TDCREATE
 40
2457536.5925396411
  9
$TDUPDATE
 40
2457539.5878020949
  9
$TDINDWG
 40
0.2539051505
  9
$TDUSRTIMER
 40
0.2539051505
  9
$USRTIMER
 70
     1
  9
$ANGBASE
 50
0.0
  9
$ANGDIR
 70
     0
  9
$PDMODE
 70
     0
  9
$PDSIZE
 40
0.3125
  9
$PLINEWID
 40
0.0
  9
$COORDS
 70
     1
  9
$SPLFRAME
 70
     0
  9
$SPLINETYPE
 70
     6
  9
$SPLINESEGS
 70
     8
  9
$ATTDIA
 70
     1
  9
$ATTREQ
 70
     1
  9
$HANDLING
 70
     1
  9
$HANDSEED
  5
D560
  9
$SURFTAB1
 70
     6
  9
$SURFTAB2
 70
     6
  9
$SURFTYPE
 70
     6
  9
$SURFU
 70
     6
  9
$SURFV
 70
     6
  9
$UCSNAME
  2

  9
$UCSORG
 10
0.0
 20
0.0
 30
0.0
  9
$UCSXDIR
 10
1.0
 20
0.0
 30
0.0
  9
$UCSYDIR
 10
0.0
 20
1.0
 30
0.0
  9
$PUCSNAME
  2

  9
$PUCSORG
 10
0.0
 20
0.0
 30
0.0
  9
$PUCSXDIR
 10
1.0
 20
0.0
 30
0.0
  9
$PUCSYDIR
 10
0.0
 20
1.0
 30
0.0
  9
$USERI1
 70
     0
  9
$USERI2
 70
     0
  9
$USERI3
 70
     0
  9
$USERI4
 70
     0
  9
$USERI5
 70
     0
  9
$USERR1
 40
0.0
  9
$USERR2
 40
0.0
  9
$USERR3
 40
0.0
  9
$USERR4
 40
0.0
  9
$USERR5
 40
0.0
  9
$WORLDVIEW
 70
     1
  9
$SHADEDGE
 70
     3
  9
$SHADEDIF
 70
    70
  9
$TILEMODE
 70
     1
  9
$MAXACTVP
 70
    48
  9
$PLIMCHECK
 70
     0
  9
$PEXTMIN
 10
1.0000000000000000E+020
 20
1.0000000000000000E+020
 30
1.0000000000000000E+020
  9
$PEXTMAX
 10
-1.0000000000000000E+020
 20
-1.0000000000000000E+020
 30
-1.0000000000000000E+020
  9
$PLIMMIN
 10
0.0
 20
0.0
  9
$PLIMMAX
 10
12.0
 20
9.0
  9
$UNITMODE
 70
     0
  9
$VISRETAIN
 70
     1
  9
$PLINEGEN
 70
     0
  9
$PSLTSCALE
 70
     1
  0
ENDSEC
  0
SECTION
  2
TABLES
  0
TABLE
  2
VPORT
 70
     1
  0
VPORT
  2
*ACTIVE
 70
     0
 10
0.0
 20
0.0
 11
1.0
 21
1.0
 12
21.612440689663249
 22
4.5012786864380843
 13
0.0
 23
0.0
 14
1.0
 24
1.0
 15
0.0
 25
0.0
 16
0.0
 26
0.0
 36
1.0
 17
0.0
 27
0.0
 37
0.0
 40
36.664289235028413
 41
1.798301486199575
 42
50.0
 43
0.0
 44
0.0
 50
0.0
 51
0.0
 71
     0
 72
   100
 73
     1
 74
     1
 75
     0
 76
     0
 77
     0
 78
     0
  0
ENDTAB
  0
TABLE
  2
LTYPE
 70
     2
  0
LTYPE
  2
CONTINUOUS
 70
     0
  3
Solid line
 72
    65
 73
     0
 40
0.0
  0
ENDTAB
  0
TABLE
  2
LAYER
 70
     3
  0
LAYER
  2
0
 70
     0
 62
     7
  6
CONTINUOUS
  0
LAYER
  2
DEFPOINTS
 70
     0
 62
     7
  6
CONTINUOUS
  0
ENDTAB
  0
TABLE
  2
STYLE
 70
     1
  0
STYLE
  2
STANDARD
 70
     0
 40
0.0
 41
0.8
 50
0.0
 71
     0
 42
0.2
  3
txt
  4

  0
ENDTAB
  0
TABLE
  2
VIEW
 70
    15
  0
ENDTAB
  0
TABLE
  2
UCS
 70
     0
  0
ENDTAB
  0
TABLE
  2
APPID
 70
     6
  0
APPID
  2
ACAD
 70
     0
  0
APPID
  2
ACAD_MLEADERVER
 70
     0
  0
APPID
  2
ACAD_EXEMPT_FROM_CAD_STANDARDS
 70
     0
  0
APPID
  2
ACAD_NAV_VCDISPLAY
 70
     0
  0
APPID
  2
ACAD_DSTYLE_DIMRADIAL_EXTENSION
 70
     0
  0
APPID
  2
ACDBATTR
 70
     0
  0
ENDTAB
  0
TABLE
  2
DIMSTYLE
 70
     2
  0
DIMSTYLE
  2
STANDARD
 70
     0
  3

  4

  5

  6

  7

 40
1.0
 41
0.1875
 42
0.0625
 43
0.38
 44
0.125
 45
0.0
 46
0.0
 47
1.5
 48
1.5
140
0.15625
141
0.09
142
0.0
143
25.399999999999999
144
1.0
145
0.0
146
1.0
147
0.09
 71
     0
 72
     0
 73
     1
 74
     1
 75
     0
 76
     0
 77
     0
 78
     4
170
     0
171
     2
172
     0
173
     0
174
     0
175
     0
176
     0
177
     0
178
     0
  0
ENDTAB
  0
ENDSEC
  0
SECTION
  2
BLOCKS
  0
BLOCK
  8
0
  2
$MODEL_SPACE
 70
     0
 10
0.0
 20
0.0
 30
0.0
  3
$MODEL_SPACE
  1

  0
ENDBLK
  5
21
  8
0
  0
BLOCK
 67
     1
  8
0
  2
$PAPER_SPACE
 70
     0
 10
0.0
 20
0.0
 30
0.0
  3
$PAPER_SPACE
  1

  0
ENDBLK
  5
1D
 67
     1
  8
0
  0
ENDSEC
  0
SECTION
  2
ENTITIES
  0
LINE
  5
1F15
  8
0
 10
22.140591339699998
 20
-5.8184701026999992
 30
0.0
 11
21.2025913397
 21
-5.8184701026999992
 31
0.0
  0
LINE
  5
1F18
  8
0
 10
21.202841339700001
 20
-5.7984701026999987
 30
0.0
 11
22.140341339700001
 21
-5.7984701026999987
 31
0.0
  0
LINE
  5
1F19
  8
0
 10
22.161530514100001
 20
-5.1984701026999991
 30
0.0
 11
22.546722307900001
 21
-5.1984701026999991
 31
0.0
  0
LINE
  5
1F1A
  8
0
 10
23.0475921685
 20
-5.1984701026999991
 30
0.0
 11
24.021591339699999
 21
-5.1984701027
 31
0.0
  0
LINE
  5
1FCF
  8
0
 10
22.1615398637
 20
-4.3984701027000002
 30
0.0
 11
22.546567091356639
 21
-4.3984701027000002
 31
0.0
  0
LINE
  5
1FD0
  8
0
 10
23.0474194311
 20
-4.3984701027000002
 30
0.0
 11
24.021591339699999
 21
-4.3984701026999993
 31
0.0
  0
LINE
  5
2152
  8
0
 10
21.090354619199999
 20
-1.9984701026999989
 30
0.0
 11
22.252833169300001
 21
-1.9984701026999989
 31
0.0
  0
LINE
  5
2154
  8
0
 10
21.466318811800001
 20
-1.8328592685
 30
0.0
 11
21.053064358099999
 21
-1.8328592685
 31
0.0
  0
LINE
  5
2155
  8
0
 10
19.043926132300001
 20
-1.7984701027000001
 30
0.0
 11
20.331591339700001
 21
-1.7984701027000001
 31
0.0
  0
LINE
  5
2156
  8
0
 10
20.4415913397
 20
-1.7984701027000001
 30
0.0
 11
21.2226823391
 21
-1.7984701027000001
 31
0.0
  0
LINE
  5
2157
  8
0
 10
20.4065913397
 20
-1.7684701027
 30
0.0
 11
20.386591339700001
 21
-1.7684701027
 31
0.0
  0
LINE
  5
215B
  8
0
 10
20.386591339700001
 20
-1.6634701027000001
 30
0.0
 11
20.366591339700001
 21
-1.6634701027000001
 31
0.0
  0
LINE
  5
2164
  8
0
 10
20.386591339700001
 20
-0.9734701026999999
 30
0.0
 11
20.366591339700001
 21
-0.9734701026999999
 31
0.0
  0
LINE
  5
220E
  8
0
 10
20.386591339700001
 20
-0.8684701026999999
 30
0.0
 11
20.4065913397
 21
-0.8684701026999999
 31
0.0
  0
LINE
  5
220F
  8
0
 10
21.230170295299999
 20
-0.8384701027
 30
0.0
 11
20.4415913397
 21
-0.8384701027
 31
0.0
  0
LINE
  5
2210
  8
0
 10
19.051020043000001
 20
-0.8384701027
 30
0.0
 11
20.331591339700001
 21
-0.8384701027
 31
0.0
  0
LINE
  5
2211
  8
0
 10
21.068075713900001
 20
-0.8040809368999999
 30
0.0
 11
21.4713005204
 21
-0.8040809368999999
 31
0.0
  0
LINE
  5
2214
  8
0
 10
19.8915913397
 20
-0.4684701027000001
 30
0.0
 11
18.991591339700001
 21
-0.4684701027000001
 31
0.0
  0
LINE
  5
2217
  8
0
 10
18.971591339700002
 20
-0.3784701027
 30
0.0
 11
19.911591339699999
 21
-0.3784701027
 31
0.0
  0
LINE
  5
2219
  8
0
 10
22.230834447700001
 20
-0.2384701027
 30
0.0
 11
21.112342905199998
 21
-0.2384701027
 31
0.0
  0
LINE
  5
2334
  8
0
 10
18.9388855931
 20
5.103630150599999
 30
0.0
 11
18.944297087900001
 21
5.0474296282999989
 31
0.0
  0
LINE
  5
2371
  8
0
 10
18.939376422199999
 20
5.3036730925000004
 30
0.0
 11
18.9438062585
 21
5.2473866862999987
 31
0.0
  0
LINE
  5
239A
  8
0
 10
18.9398679261
 20
5.5037074617999986
 30
0.0
 11
18.943314754399999
 21
5.447352317
 31
0.0
  0
LINE
  5
23CC
  8
0
 10
18.940359954800002
 20
5.7037332478999989
 30
0.0
 11
18.942822725300001
 21
5.6473265308
 31
0.0
  0
LINE
  5
23DC
  8
0
 10
19.014712787400001
 20
-1.0370045626999991
 30
0.0
 11
18.9928994331
 21
-0.4844054854000001
 31
0.0
  0
LINE
  5
2479
  8
0
 10
19.084492775600001
 20
4.3715298973000003
 30
0.0
 11
19.0844404439
 21
4.3775265263999987
 31
0.0
  0
LINE
  5
248E
  8
0
 10
18.971591339700002
 20
8.1835298972999997
 30
0.0
 11
18.971591339700002
 21
8.1175298973000007
 31
0.0
  0
LINE
  5
248F
  8
0
 10
18.971591339700002
 20
8.0935298972999998
 30
0.0
 11
18.971591339700002
 21
7.6119650336868654
 31
0.0
  0
LINE
  5
249A
  8
0
 10
18.971591339700002
 20
4.9390348446457653
 30
0.0
 11
18.971591339700002
 21
4.4375298973000001
 31
0.0
  0
LINE
  5
249B
  8
0
 10
18.971591339700002
 20
4.3715298973000003
 30
0.0
 11
18.971591339700002
 21
-0.3784701027
 31
0.0
  0
LINE
  5
249C
  8
0
 10
18.971591339700002
 20
-0.3984701027000001
 30
0.0
 11
18.971591339700002
 21
-0.4484701027000001
 31
0.0
  0
LINE
  5
249F
  8
0
 10
18.9815913397
 20
4.3775298972999996
 30
0.0
 11
18.9815913397
 21
4.4175298972999997
 31
0.0
  0
LINE
  5
24A0
  8
0
 10
19.0590913397
 20
4.4255298972999997
 30
0.0
 11
19.0590913397
 21
4.4225298972999996
 31
0.0
  0
LINE
  5
251F
  8
0
 10
19.016018516799999
 20
-0.8731886076999998
 30
0.0
 11
19.008924545500001
 21
-1.7631935752000001
 31
0.0
  0
LINE
  5
2894
  8
0
 10
21.2025913397
 20
-5.8784701026999988
 30
0.0
 11
21.2025913397
 21
-5.8184701026999992
 31
0.0
  0
LINE
  5
2899
  8
0
 10
21.0553548408
 20
-1.964080937499999
 30
0.0
 11
21.053064358099999
 21
-1.8328592685
 31
0.0
  0
LINE
  5
289C
  8
0
 10
19.824091339700001
 20
4.4255298972999997
 30
0.0
 11
19.824091339700001
 21
4.4225298972999996
 31
0.0
  0
LINE
  5
289D
  8
0
 10
19.901591339700001
 20
4.3775298972999996
 30
0.0
 11
19.901591339700001
 21
4.4175298972999997
 31
0.0
  0
LINE
  5
289E
  8
0
 10
19.9031034478
 20
4.1365298972999991
 30
0.0
 11
19.9031034478
 21
4.0765298973000004
 31
0.0
  0
LINE
  5
289F
  8
0
 10
19.911591339699999
 20
8.0935298972999998
 30
0.0
 11
19.911591339699999
 21
4.4375298973000001
 31
0.0
  0
LINE
  5
28A0
  8
0
 10
19.911591339699999
 20
4.3715298973000003
 30
0.0
 11
19.911591339699999
 21
4.1865298972999989
 31
0.0
  0
LINE
  5
28A1
  8
0
 10
19.911591339699999
 20
4.0265298972999997
 30
0.0
 11
19.911591339699999
 21
-0.3784701027
 31
0.0
  0
LINE
  5
28A2
  8
0
 10
19.911591339699999
 20
-0.3984701027000001
 30
0.0
 11
19.911591339699999
 21
-0.4484701027000001
 31
0.0
  0
LINE
  5
28A3
  8
0
 10
19.911591339699999
 20
8.1175298973000007
 30
0.0
 11
19.911591339699999
 21
8.1835298972999997
 31
0.0
  0
LINE
  5
28A5
  8
0
 10
19.9415907528
 20
4.1865298972999989
 30
0.0
 11
19.9415907528
 21
4.0265298972999997
 31
0.0
  0
LINE
  5
28AA
  8
0
 10
20.366591339700001
 20
-1.7634701026999999
 30
0.0
 11
20.366591339700001
 21
-0.8734701026999999
 31
0.0
  0
LINE
  5
28AB
  8
0
 10
20.386591339700001
 20
-0.8684701026999999
 30
0.0
 11
20.386591339700001
 21
-1.7684701027
 31
0.0
  0
LINE
  5
28B3
  8
0
 10
19.7986899038
 20
4.3715298973000003
 30
0.0
 11
19.798742235599999
 21
4.3775265263999987
 31
0.0
  0
LINE
  5
28C6
  8
0
 10
19.876306862300002
 20
-0.8384701027
 30
0.0
 11
19.890283246399999
 21
-0.4844054854000001
 31
0.0
  0
LINE
  5
298D
  8
0
 10
19.909277797200001
 20
4.0265298972999997
 30
0.0
 11
19.9415913397
 21
4.0265298972999997
 31
0.0
  0
LINE
  5
2990
  8
0
 10
19.909277797200001
 20
4.1865298972999989
 30
0.0
 11
19.9415913397
 21
4.1865298972999989
 31
0.0
  0
LINE
  5
2A1C
  8
0
 10
22.2658344568
 20
-0.2728592676
 30
0.0
 11
22.291580677500001
 21
-1.7478592659000001
 31
0.0
  0
LINE
  5
2A24
  8
0
 10
21.202841339700001
 20
-5.7984701026999987
 30
0.0
 11
21.199141339699999
 21
-1.9984701026999989
 31
0.0
  0
LINE
  5
2A25
  8
0
 10
21.199141339699999
 20
-0.2384701027
 30
0.0
 11
21.202841339700001
 21
18.951529897299999
 31
0.0
  0
LINE
  5
2A2A
  8
0
 10
22.140341339700001
 20
-5.7984701026999987
 30
0.0
 11
22.140341339700001
 21
-5.1836644987999998
 31
0.0
  0
LINE
  5
2A2B
  8
0
 10
22.140341339700001
 20
-4.413274512122161
 30
0.0
 11
22.144041339699999
 21
-1.9984701026999989
 31
0.0
  0
LINE
  5
2A2C
  8
0
 10
22.144041339699999
 20
-0.2384701027
 30
0.0
 11
22.140341339700001
 21
17.566335501200001
 31
0.0
  0
LINE
  5
2A31
  8
0
 10
21.466318811800001
 20
-1.8328592685
 30
0.0
 11
21.4713005266
 21
-0.804081054
 31
0.0
  0
LINE
  5
2A37
  8
0
 10
21.077348222600001
 20
-0.2728592688
 30
0.0
 11
21.068075713900001
 21
-0.8040809368999999
 31
0.0
  0
LINE
  5
2AEA
  8
0
 10
19.911591339699999
 20
4.3715298973000003
 30
0.0
 11
18.971591339700002
 21
4.3715298973000003
 31
0.0
  0
LINE
  5
2AEB
  8
0
 10
18.9815913397
 20
4.3775298972999996
 30
0.0
 11
19.901591339700001
 21
4.3775298972999996
 31
0.0
  0
LINE
  5
2AEC
  8
0
 10
19.901591339700001
 20
4.4175298972999997
 30
0.0
 11
18.9815913397
 21
4.4175298972999997
 31
0.0
  0
LINE
  5
2AEE
  8
0
 10
18.983591339699998
 20
4.4255298972999997
 30
0.0
 11
19.899591339699999
 21
4.4255298972999997
 31
0.0
  0
LINE
  5
2AF0
  8
0
 10
18.9745312955
 20
4.9385016972000004
 30
0.0
 11
18.988593616100001
 21
4.9381315740999998
 31
0.0
  0
LINE
  5
2AF1
  8
0
 10
18.9729430509
 20
5.0377292513
 30
0.0
 11
18.953902051299998
 21
5.038394177699999
 31
0.0
  0
LINE
  5
2AF3
  8
0
 10
18.9738830752
 20
5.1382871669999988
 30
0.0
 11
18.989608095600001
 21
5.1375984765
 31
0.0
  0
LINE
  5
2AF4
  8
0
 10
18.972973579600001
 20
5.2371514215000001
 30
0.0
 11
18.953252068699999
 21
5.2381849820999991
 31
0.0
  0
LINE
  5
2AF6
  8
0
 10
18.973231228300001
 20
5.3380839835999989
 30
0.0
 11
18.989746547599999
 21
5.3370716253000001
 31
0.0
  0
LINE
  5
2AF7
  8
0
 10
18.973075100199999
 20
5.4365553011000003
 30
0.0
 11
18.952598534100002
 21
5.4379871620999998
 31
0.0
  0
LINE
  5
2AF9
  8
0
 10
18.972575938999999
 20
5.5378922090999989
 30
0.0
 11
18.989594067399999
 21
5.5365505365000001
 31
0.0
  0
LINE
  5
2AFA
  8
0
 10
18.973258912966191
 20
5.6359357588562249
 30
0.0
 11
18.9519416465
 21
5.637800778099999
 31
0.0
  0
LINE
  5
2AFC
  8
0
 10
18.971917417899999
 20
5.737711900499999
 30
0.0
 11
18.989994743699999
 21
5.7359687798000003
 31
0.0
  0
LINE
  5
2AFF
  8
0
 10
18.971255862
 20
5.9375431126000002
 30
0.0
 11
18.990088776299999
 21
5.9353947855999989
 31
0.0
  0
LINE
  5
2B46
  8
0
 10
22.382050530899999
 20
20.178632783000001
 30
0.0
 11
22.3730062502
 21
20.3634961508
 31
0.0
  0
LINE
  5
2B47
  8
0
 10
22.374076459200001
 20
20.424985704000001
 30
0.0
 11
22.348209385899999
 21
21.080277902599999
 31
0.0
  0
LINE
  5
2C01
  8
0
 10
22.4245331668
 20
20.178632783000001
 30
0.0
 11
22.4245331668
 21
19.918824806700002
 31
0.0
  0
LINE
  5
2CBF
  8
0
 10
23.169269418199999
 20
20.178632783000001
 30
0.0
 11
23.169269418199999
 21
19.918824806700002
 31
0.0
  0
LINE
  5
2D7F
  8
0
 10
22.287827838599998
 20
-1.9640809379999999
 30
0.0
 11
22.291580677500001
 21
-1.749080938899999
 31
0.0
  0
LINE
  5
2D89
  8
0
 10
22.140591339707289
 20
-5.8784701027659327
 30
0.0
 11
22.140591339699998
 21
-5.8184701026999992
 31
0.0
  0
LINE
  5
2D8B
  8
0
 10
23.219726125800001
 20
20.424985704000001
 30
0.0
 11
23.245593199199998
 21
21.080277902599999
 31
0.0
  0
LINE
  5
2D92
  8
0
 10
23.2117520541
 20
20.178632783000001
 30
0.0
 11
23.220796334799999
 21
20.3634961508
 31
0.0
  0
LINE
  5
2E2E
  8
0
 10
18.966557026299999
 20
5.0143718020999994
 30
0.0
 11
18.991661230399998
 21
5.0204023511999996
 31
0.0
  0
LINE
  5
2E30
  8
0
 10
18.973515326600001
 20
5.1205485158999986
 30
0.0
 11
18.9465900396
 21
5.1143323236000002
 31
0.0
  0
LINE
  5
2E35
  8
0
 10
18.9672341367
 20
5.2142848812000002
 30
0.0
 11
18.990995834100001
 21
5.2195560792000002
 31
0.0
  0
LINE
  5
2E39
  8
0
 10
18.973501498400001
 20
5.3198156011000002
 30
0.0
 11
18.947266473900001
 21
5.3142391744999991
 31
0.0
  0
LINE
  5
2E46
  8
0
 10
18.967909645799999
 20
5.414186160199999
 30
0.0
 11
18.990926032600001
 21
5.4188721330999989
 31
0.0
  0
LINE
  5
2E50
  8
0
 10
18.973435525599999
 20
5.5190898329999989
 30
0.0
 11
18.947941179600001
 21
5.5141342340999993
 31
0.0
  0
LINE
  5
2E58
  8
0
 10
18.968583333200002
 20
5.6140756654999988
 30
0.0
 11
18.991064439999999
 21
5.6182454384999989
 31
0.0
  0
LINE
  5
2E5A
  8
0
 10
18.973356259618701
 20
5.7183802711283196
 30
0.0
 11
18.9486139511
 21
5.7140175344999999
 31
0.0
  0
LINE
  5
2E5B
  8
0
 10
18.969255004899999
 20
5.8139534323999991
 30
0.0
 11
18.990774648999999
 21
5.8175575834000002
 31
0.0
  0
LINE
  5
2E5E
  8
0
 10
18.969924452699999
 20
6.0138194966999992
 30
0.0
 11
18.990693219200001
 21
6.0169262893999997
 31
0.0
  0
LINE
  5
2E61
  8
0
 10
18.9704249565
 20
6.2137113891999993
 30
0.0
 11
18.9903616914
 21
6.2164274146
 31
0.0
  0
LINE
  5
2E64
  8
0
 10
18.9707578246
 20
6.4136356819999998
 30
0.0
 11
18.990425082800002
 21
6.4161403846000002
 31
0.0
  0
LINE
  5
2E6A
  8
0
 10
18.9707578246
 20
6.1374241125999989
 30
0.0
 11
18.9904253019
 21
6.1349193820999997
 31
0.0
  0
LINE
  5
2E6D
  8
0
 10
18.9704249565
 20
6.3373484053999993
 30
0.0
 11
18.990361944099998
 21
6.3346323455999993
 31
0.0
  0
LINE
  5
2E70
  8
0
 10
18.969924452699999
 20
6.5372402978999986
 30
0.0
 11
18.990693294
 21
6.5341334939999989
 31
0.0
  0
LINE
  5
2E73
  8
0
 10
18.969255004899999
 20
6.7371063621999996
 30
0.0
 11
18.990774680099999
 21
6.7335022058999998
 31
0.0
  0
LINE
  5
2E76
  8
0
 10
18.968583333200002
 20
6.936984129099999
 30
0.0
 11
18.991064317300001
 21
6.932814378799999
 31
0.0
  0
LINE
  5
2E79
  8
0
 10
18.967909645799999
 20
7.1368736343999997
 30
0.0
 11
18.9909259836
 21
7.1321876713999988
 31
0.0
  0
LINE
  5
2E83
  8
0
 10
18.9672341367
 20
7.3367749134000002
 30
0.0
 11
18.9909957484
 21
7.3315037344
 31
0.0
  0
LINE
  5
2E85
  8
0
 10
18.986184145500001
 20
7.436737504299999
 30
0.0
 11
19.029154597588409
 21
7.4267925906605532
 31
0.0
  0
LINE
  5
2E86
  8
0
 10
18.966557026299999
 20
7.5366879925000001
 30
0.0
 11
18.991661622399999
 21
7.5306573491999993
 31
0.0
  0
LINE
  5
2EAF
  8
0
 10
23.721591339700002
 20
20.750696977200001
 30
0.0
 11
23.721591339700002
 21
22.502362817400002
 31
0.0
  0
LINE
  5
2EBB
  8
0
 10
24.171591339699891
 20
20.51743162412598
 30
0.0
 11
24.171591339699891
 21
22.565628170574008
 31
0.0
  0
LINE
  5
2EBE
  8
0
 10
24.271591339699999
 20
-5.8784701026999988
 30
0.0
 11
24.271591339699999
 21
-3.7184791913000002
 31
0.0
  0
LINE
  5
2FA8
  8
0
 10
18.971255862
 20
6.6135166820000002
 30
0.0
 11
18.990088375199999
 21
6.6156649633000004
 31
0.0
  0
LINE
  5
2FAB
  8
0
 10
18.971905189499999
 20
6.8133489759000012
 30
0.0
 11
18.989994290199999
 21
6.8150909711000001
 31
0.0
  0
LINE
  5
2FAE
  8
0
 10
18.972575938999999
 20
7.0131675854999989
 30
0.0
 11
18.989594321999999
 21
7.0145092780999994
 31
0.0
  0
LINE
  5
2FB1
  8
0
 10
18.973231228300001
 20
7.2129758109999997
 30
0.0
 11
18.989746895
 21
7.2139881904999994
 31
0.0
  0
LINE
  5
2FB4
  8
0
 10
18.9738830752
 20
7.412772627599999
 30
0.0
 11
18.9896083611
 21
7.4134613296999996
 31
0.0
  0
LINE
  5
2FB5
  8
0
 10
18.993495637199999
 20
7.5126702486000001
 30
0.0
 11
19.022469517267091
 21
7.5136976779548128
 31
0.0
  0
LINE
  5
2FB7
  8
0
 10
18.9745312955
 20
7.6125580974
 30
0.0
 11
18.988177536698661
 21
7.6129172691749556
 31
0.0
  0
LINE
  5
2FB9
  8
0
 10
19.899591339699999
 20
8.1055298973000003
 30
0.0
 11
18.983591339699998
 21
8.1055298973000003
 31
0.0
  0
LINE
  5
2FBE
  8
0
 10
19.899591420499998
 20
8.1955298973000001
 30
0.0
 11
18.983591259000001
 21
8.1955298973000001
 31
0.0
  0
LINE
  5
3128
  8
0
 10
20.763890978999999
 20
0.0021114006
 30
0.0
 11
20.800440263500001
 21
0.0183672406
 31
0.0
  0
LINE
  5
3618
  8
0
 10
22.424534964799999
 20
19.918824806700002
 30
0.0
 11
23.169267620199999
 21
19.918824806700002
 31
0.0
  0
LINE
  5
3619
  8
0
 10
22.382053313499998
 20
20.178632783000001
 30
0.0
 11
23.211747018600001
 21
20.178632783000001
 31
0.0
  0
LINE
  5
361A
  8
0
 10
23.220793335500002
 20
20.3634961508
 30
0.0
 11
22.373009249500001
 21
20.3634961508
 31
0.0
  0
LINE
  5
361B
  8
0
 10
22.374078500900001
 20
20.424985704000001
 30
0.0
 11
23.219724084100001
 21
20.424985704000001
 31
0.0
  0
LINE
  5
361E
  8
0
 10
23.2306021534
 20
21.095954791899999
 30
0.0
 11
22.363185579700001
 21
21.095954791899999
 31
0.0
  0
LINE
  5
3658
  8
0
 10
23.721591339700002
 20
22.3640298973
 30
0.0
 11
22.791591339699998
 21
22.364029897300011
 31
0.0
  0
ARC
  5
3D7C
  8
0
 10
18.671591339700001
 20
-0.9284701027
 30
0.0
 40
2.3500000000000001
 50
2.196570879899999
 51
23.485917431899999
  0
ARC
  5
3D7F
  8
0
 10
18.671591339700001
 20
-0.9284701027
 30
0.0
 40
2.27
 50
2.273999428999999
 51
23.477408415300001
  0
ARC
  5
3D9E
  8
0
 10
19.064091339699999
 20
4.4225298972999996
 30
0.0
 40
0.005
 50
180.0
 51
270.0
  0
ARC
  5
3DAF
  8
0
 10
19.819091339700002
 20
4.4225298972999996
 30
0.0
 40
0.005
 50
270.0
 51
360.0
  0
ARC
  5
3DB3
  8
0
 10
22.120591339699999
 20
-5.8784701026999961
 30
0.0
 40
0.0200000000000032
 50
269.99775212128952
 51
359.99999999999488
  0
ARC
  5
3DBE
  8
0
 10
22.397151677749441
 20
20.390225993085291
 30
0.0
 40
0.0360186244931195
 50
105.1930564990441
 51
227.91161116605301
  0
ARC
  5
3DCE
  8
0
 10
23.2007451546
 20
20.394473255699999
 30
0.0
 40
0.0309771049
 50
304.01272658570002
 51
80.063632928599986
  0
ARC
  5
3DCF
  8
0
 10
23.230620074099999
 20
21.0809658702
 30
0.0
 40
0.0149889217
 50
357.36929088269989
 51
90.0
  0
ARC
  5
41AF
  8
0
 10
18.983591339076941
 20
8.1835298979233304
 30
0.0
 40
0.0119999993769403
 50
90.000382339247736
 51
179.99998340277071
  0
ARC
  5
41B0
  8
0
 10
18.983635427872649
 20
8.1175739854726494
 30
0.0
 40
0.0120441688662007
 50
180.209734012257
 51
269.79026598773447
  0
ARC
  5
41B1
  8
0
 10
18.98419667105324
 20
8.0929247264536706
 30
0.0
 40
0.0126196972274422
 50
92.74937226726216
 51
177.2513573035593
  0
ARC
  5
41B2
  8
0
 10
19.8991396971713
 20
8.1830782576197691
 30
0.0
 40
0.0124598308452381
 50
2.0773164273242801
 51
87.922322246656435
  0
ARC
  5
41B3
  8
0
 10
19.899139666910159
 20
8.1179815490523595
 30
0.0
 40
0.0124598613754903
 50
272.0800150830438
 51
357.92265197899872
  0
ARC
  5
41B4
  8
0
 10
19.89959118481227
 20
8.093529895113269
 30
0.0
 40
0.0120000021877309
 50
0.0000104408685697
 51
89.999260465702434
  0
ARC
  5
41B5
  8
0
 10
20.049227700431569
 20
4.1438666793739038
 30
0.0
 40
0.1463083236809702
 50
163.046348430319
 51
182.8743615845577
  0
ARC
  5
41B6
  8
0
 10
20.049324954105959
 20
4.0692051247894181
 30
0.0
 40
0.1464048537402894
 50
177.13224104203991
 51
196.94704894308461
  0
ARC
  5
41B7
  8
0
 10
19.8915913397
 20
-0.398470102699998
 30
0.0
 40
0.019999999999998
 50
359.99999999999409
 51
90.000000000010147
  0
ARC
  5
41B8
  8
0
 10
19.8915913397
 20
-0.4484701027000028
 30
0.0
 40
0.019999999999996
 50
269.99999999998983
 51
0.0000000000077538
  0
ARC
  5
41B9
  8
0
 10
19.874816841323501
 20
-0.4839023805180584
 30
0.0
 40
0.0154745856329846
 50
358.13688924032277
 51
85.762229719300237
  0
ARC
  5
41BA
  8
0
 10
19.008492866946462
 20
-0.4839497746234431
 30
0.0
 40
0.015600091391907
 50
97.12364343815679
 51
181.67396577746979
  0
ARC
  5
41BB
  8
0
 10
18.991591339700001
 20
-0.4484701027000032
 30
0.0
 40
0.0199999999999996
 50
179.9999999999911
 51
270.0
  0
ARC
  5
41BC
  8
0
 10
18.991591339700001
 20
-0.3984701026999988
 30
0.0
 40
0.0199999999999996
 50
90.0
 51
180.00000000000369
  0
ARC
  5
41BD
  8
0
 10
19.043928019508702
 20
-1.763465571973801
 30
0.0
 40
0.0350045307770683
 50
179.5547883755946
 51
269.9969109971982
  0
LINE
  5
41BE
  8
0
 10
19.190799866077349
 20
-1.798470102699999
 30
0.0
 11
19.191368195300001
 21
-8.3894800020000009
 31
0.0
  0
LINE
  5
41BF
  8
0
 10
19.692364502899999
 20
-8.2373232999999981
 30
0.0
 11
19.691776554400001
 21
-1.7984701027000001
 31
0.0
  0
ARC
  5
41C0
  8
0
 10
32.415645278931848
 20
-8.4188295577456618
 30
0.0
 40
12.72457536530561
 50
179.18269215902919
 51
195.43309933165091
  0
ARC
  5
41C1
  8
0
 10
23.8449213248036
 20
-10.80155758830133
 30
0.0
 40
3.8288545964089322
 50
195.19322295520951
 51
213.31027692077089
  0
ARC
  5
41C2
  8
0
 10
21.40479571228278
 20
-12.412248071652559
 30
0.0
 40
0.9050926987658574
 50
212.92931864183589
 51
244.3937695688559
  0
ARC
  5
41C3
  8
0
 10
21.121484218892121
 20
-12.9750864247875
 30
0.0
 40
0.2753625910516535
 50
246.94072198473179
 51
297.34807458725652
  0
ARC
  5
41C4
  8
0
 10
20.760245510615771
 20
-12.30390822891162
 30
0.0
 40
1.037551491444282
 50
298.03990879873771
 51
336.37012132519942
  0
ARC
  5
41C5
  8
0
 10
16.56614012147395
 20
-10.015852465270459
 30
0.0
 40
5.8119539925811274
 50
332.27445853291613
 51
351.48232802800248
  0
ARC
  5
41D1
  8
0
 10
33.787726727346318
 20
-8.2956389971603457
 30
0.0
 40
14.59666018410481
 50
180.3683534790157
 51
192.77770278971869
  0
ARC
  5
41D2
  8
0
 10
25.056403453574191
 20
-10.280574334263569
 30
0.0
 40
5.6425595754556701
 50
192.73016647101451
 51
209.0676179339998
  0
ARC
  5
41D3
  8
0
 10
21.361515953620401
 20
-12.42734328600795
 30
0.0
 40
1.3724719915402319
 50
205.67385164792731
 51
249.3236179390064
  0
ARC
  5
41D4
  8
0
 10
21.116836859883509
 20
-12.85609981836885
 30
0.0
 40
0.8883279927011665
 50
254.33054804470169
 51
315.34595838652211
  0
ARC
  5
41D5
  8
0
 10
19.90696968879012
 20
-11.643877193612861
 30
0.0
 40
2.6009905475291681
 50
315.08146639433699
 51
333.76614584293941
  0
ARC
  5
41D6
  8
0
 10
16.823815470740652
 20
-10.18650699508405
 30
0.0
 40
6.0110389030339171
 50
334.29619326688697
 51
346.84587761916248
  0
ARC
  5
41D7
  8
0
 10
8.2662364942573383
 20
-8.2599360486965772
 30
0.0
 40
14.78268403621839
 50
347.12276452807072
 51
0.6381745886601565
  0
ARC
  5
41D8
  8
0
 10
231471.36882638029
 20
8.3275368094527042
 30
0.0
 40
231448.3214054695
 50
179.99713053921661
 51
180.00406552289681
  0
LINE
  5
41D9
  8
0
 10
22.546918381499999
 20
19.918824806700002
 30
0.0
 11
22.546528979200001
 21
-7.0367011210000001
 31
0.0
  0
ARC
  5
41DA
  8
0
 10
3.8389785533437419
 20
-7.8308550897640368
 30
0.0
 40
18.724399148225249
 50
350.63829881241429
 51
2.4308028859507749
  0
ARC
  5
41DB
  8
0
 10
21.222591339699999
 20
-5.878470102700005
 30
0.0
 40
0.019999999999996
 50
179.99999999998221
 51
270.0022478787003
  0
ARC
  5
41DF
  8
0
 10
21.090349510902019
 20
-1.9634701022840659
 30
0.0
 40
0.0350000007887135
 50
181.0000015993912
 51
270.0083623974117
  0
ARC
  5
41E0
  8
0
 10
22.252833169308349
 20
-1.963470102720412
 30
0.0
 40
0.0349999999795872
 50
270.0000372187331
 51
358.99999827327008
  0
ARC
  5
41E1
  8
0
 10
20.331591339700001
 20
-1.763470102700001
 30
0.0
 40
0.0349999999999988
 50
270.0
 51
0.0000000000018193
  0
ARC
  5
41E2
  8
0
 10
20.331591339700012
 20
-0.8734701026999976
 30
0.0
 40
0.0349999999999977
 50
359.99999999999642
 51
90.000000000017423
  0
ARC
  5
41E3
  8
0
 10
20.441591339700029
 20
-1.7634701026999871
 30
0.0
 40
0.0350000000000321
 50
180.0000000000214
 51
270.0000600786671
  0
LINE
  5
41E4
  8
0
 10
20.4065913397
 20
-1.7684701027
 30
0.0
 11
20.4065913397
 21
-0.8684701026999999
 31
0.0
  0
ARC
  5
41E5
  8
0
 10
20.441591339700061
 20
-0.8734701027000635
 30
0.0
 40
0.0350000000000874
 50
89.999929771846297
 51
180.00007097976339
  0
ARC
  5
41E6
  8
0
 10
21.13133100032865
 20
0.7171501731402371
 30
0.0
 40
1.558757096427549
 50
273.63551638045499
 51
282.59765225519379
  0
ARC
  5
41E7
  8
0
 10
21.03308104460001
 20
-0.803470102700002
 30
0.0
 40
0.034999999999998
 50
269.99999999998852
 51
359.00000000000301
  0
ARC
  5
41E8
  8
0
 10
21.11234289204554
 20
-0.2734701028113115
 30
0.0
 40
0.0350000001113124
 50
89.999930373748512
 51
179.00000035354611
  0
ARC
  5
41E9
  8
0
 10
22.23083978751454
 20
-0.2734701026697312
 30
0.0
 40
0.0349999999697313
 50
0.9999999493404398
 51
90.000069724592251
  0
ARC
  5
41EA
  8
0
 10
20.772676137900952
 20
-0.0164185861317554
 30
0.0
 40
0.0205070579360838
 50
115.3658627898037
 51
202.09025200507841
  0
ARC
  5
41EB
  8
0
 10
20.808320877065739
 20
-0.000552621631473
 30
0.0
 40
0.020490187512281
 50
24.866984519703429
 51
112.61193185164871
  0
ARC
  5
41EC
  8
0
 10
21.018069688800001
 20
-1.8334701027000011
 30
0.0
 40
0.0349999999999982
 50
0.9999999585704014
 51
90.000000000005798
  0
ARC
  5
41ED
  8
0
 10
21.123672472676549
 20
-3.3801636246503248
 30
0.0
 40
1.584789350127163
 50
77.513510757832464
 51
86.418120214058831
  0
ARC
  5
41EE
  8
0
 10
19.05102004423464
 20
-0.8734701027711858
 30
0.0
 40
0.0350000000711846
 50
90.000002021131607
 51
179.53917609324051
  0
ARC
  5
422D
  8
0
 10
22.781301239106782
 20
21.547330330641991
 30
0.0
 40
0.8167643897413807
 50
89.278133400381563
 51
211.9037977686861
  0
ARC
  5
4232
  8
0
 10
18.995401602070189
 20
7.6139865780341927
 30
0.0
 40
0.0202136606116754
 50
135.99632390071969
 51
183.99962534871881
  0
LINE
  5
4233
  8
0
 10
18.980862012420431
 20
7.6280290994652091
 30
0.0
 11
18.984292031399999
 21
7.625323215199999
 31
0.0
  0
ARC
  5
4234
  8
0
 10
18.810896664001412
 20
7.5642048658728998
 30
0.0
 40
0.1838515870471691
 50
349.48629923692948
 51
19.41652024038914
  0
ARC
  5
4235
  8
0
 10
18.975164211203619
 20
7.601837029174356
 30
0.0
 40
0.010739733990504
 50
93.378521476386325
 51
169.15026975028641
  0
ARC
  5
4236
  8
0
 10
19.383790682314491
 20
7.530524289476979
 30
0.0
 40
0.4255407769780169
 50
170.07656197801791
 51
177.5467931590531
  0
ARC
  5
4237
  8
0
 10
18.969388058522782
 20
7.5471740234267841
 30
0.0
 40
0.0108614726521318
 50
171.7162013434538
 51
254.89142258809051
  0
ARC
  5
4238
  8
0
 10
18.983591446505759
 20
4.437529898303973
 30
0.0
 40
0.0120000010057595
 50
180.00000479362129
 51
269.99901018798931
  0
ARC
  5
4239
  8
0
 10
19.899591232820811
 20
4.4375298984773952
 30
0.0
 40
0.0120000011791883
 50
270.00099064006008
 51
359.99999437835328
  0
ARC
  5
423A
  8
0
 10
18.974878768735191
 20
4.9487903127587023
 30
0.0
 40
0.0102944814227787
 50
196.9006725915371
 51
268.06570809213918
  0
ARC
  5
423B
  8
0
 10
19.353295065291011
 20
5.0183071699335668
 30
0.0
 40
0.3949788020956278
 50
182.3196097029481
 51
190.57826493046881
  0
ARC
  5
423C
  8
0
 10
18.96938805852292
 20
5.0038857711730147
 30
0.0
 40
0.0108614726523637
 50
105.1085774123584
 51
188.28379866156681
  0
ARC
  5
423D
  8
0
 10
18.954251049900002
 20
5.0483880858000001
 30
0.0
 40
0.0100000000000012
 50
185.5000000000056
 51
267.99997964060731
  0
ARC
  5
423E
  8
0
 10
18.94883955352951
 20
5.1045886237815088
 30
0.0
 40
0.0099999999535958
 50
103.00001997246051
 51
185.50009014453229
  0
ARC
  5
423F
  8
0
 10
18.241406732253601
 20
5.0811058387839081
 30
0.0
 40
0.7331187120887487
 50
354.87217460399739
 51
4.505274991581409
  0
ARC
  5
4240
  8
0
 10
18.969646507604249
 20
5.2040871385152689
 30
0.0
 40
0.0104791931580478
 50
103.30918756509681
 51
181.39032308280591
  0
ARC
  5
4241
  8
0
 10
19.363571024400621
 20
5.2103356003359753
 30
0.0
 40
0.4044529030842029
 50
180.92123106514819
 51
188.88824879292491
  0
ARC
  5
4242
  8
0
 10
18.97476062626609
 20
5.1491114767941228
 30
0.0
 40
0.0108598240543145
 50
186.69980300669511
 51
265.36503905237322
  0
ARC
  5
4243
  8
0
 10
18.94934559437247
 20
5.3044576991765968
 30
0.0
 40
0.0100000000720682
 50
102.00000037190939
 51
184.50009031106791
  0
ARC
  5
4244
  8
0
 10
18.95377543187367
 20
5.2481712773345466
 30
0.0
 40
0.0100000000761552
 50
184.50000016411499
 51
266.99997930356722
  0
ARC
  5
4245
  8
0
 10
18.269605794209092
 20
5.280285425740411
 30
0.0
 40
0.7049915758991276
 50
354.70706222278528
 51
4.716569188021035
  0
ARC
  5
4246
  8
0
 10
18.9699817578691
 20
5.4041388512609378
 30
0.0
 40
0.0102395044664001
 50
101.4478762362488
 51
174.81787685353879
  0
ARC
  5
4247
  8
0
 10
19.35062644215078
 20
5.4017137579117387
 30
0.0
 40
0.3908566921597895
 50
179.5089248160954
 51
187.97931479840679
  0
ARC
  5
4248
  8
0
 10
18.974551441525971
 20
5.3491293394015829
 30
0.0
 40
0.0111239762560684
 50
188.64768041261021
 51
263.18396992879508
  0
ARC
  5
4249
  8
0
 10
18.299488883559881
 20
5.4787654574656957
 30
0.0
 40
0.6751266148313712
 50
354.5748774618329
 51
5.0202462250197
  0
ARC
  5
424A
  8
0
 10
18.953296102505561
 20
5.4479628024722127
 30
0.0
 40
0.0100000001258071
 50
183.50000039713359
 51
265.99999938910008
  0
ARC
  5
424B
  8
0
 10
18.949849272989031
 20
5.5043179630602106
 30
0.0
 40
0.009999999875391
 50
100.9999995353683
 51
183.50009111250651
  0
ARC
  5
424C
  8
0
 10
18.97075246783578
 20
5.6036341640902041
 30
0.0
 40
0.0106644313846978
 50
101.7357938256952
 51
182.49763072018709
  0
ARC
  5
424D
  8
0
 10
19.425201938754611
 20
5.5986961691339552
 30
0.0
 40
0.4651252822406298
 50
179.44895954978639
 51
186.17580850943401
  0
ARC
  5
424E
  8
0
 10
18.974017453632591
 20
5.5490476327966691
 30
0.0
 40
0.0112481750647934
 50
181.9841858419866
 51
262.63698576173908
  0
ARC
  5
424F
  8
0
 10
18.299615142183612
 20
5.6779534797533664
 30
0.0
 40
0.6749529011594508
 50
354.61694971660069
 51
5.0794572216560789
  0
ARC
  5
4250
  8
0
 10
18.950350436464522
 20
5.7041694574666879
 30
0.0
 40
0.0100000001337628
 50
100.00002073888329
 51
182.50008996667111
  0
ARC
  5
4251
  8
0
 10
18.952813207486351
 20
5.6477627246715532
 30
0.0
 40
0.0099999999704716
 50
182.49999999534211
 51
264.99997963137793
  0
LINE
  5
4284
  8
0
 10
18.9398679261
 20
5.9038016321999987
 30
0.0
 11
18.943314754399999
 21
5.8474464874000001
 31
0.0
  0
LINE
  5
4285
  8
0
 10
18.973297726488578
 20
5.836633903953242
 30
0.0
 11
18.952598534100002
 21
5.8380813324999998
 31
0.0
  0
LINE
  5
4286
  8
0
 10
18.973435525599999
 20
5.919184003399999
 30
0.0
 11
18.947941179600001
 21
5.9142284044999993
 31
0.0
  0
ARC
  5
4287
  8
0
 10
18.299488883559881
 20
5.8788596278656957
 30
0.0
 40
0.6751266148313712
 50
354.51551531589303
 51
4.9786725188111367
  0
ARC
  5
4288
  8
0
 10
18.953296102505561
 20
5.8480569728722127
 30
0.0
 40
0.0100000001258071
 50
183.50000039713359
 51
265.99999938910008
  0
ARC
  5
4289
  8
0
 10
18.949849272989031
 20
5.9044121334602107
 30
0.0
 40
0.009999999875391
 50
100.9999995353683
 51
183.50009111250651
  0
LINE
  5
428A
  8
0
 10
18.9399228214
 20
6.1028487923999979
 30
0.0
 11
18.943369649699999
 21
6.0464936476000002
 31
0.0
  0
LINE
  5
428B
  8
0
 10
18.973129995499999
 20
6.0356966316999987
 30
0.0
 11
18.952653429400002
 21
6.0371284926999991
 31
0.0
  0
LINE
  5
428C
  8
0
 10
18.973490420899999
 20
6.1182311635999991
 30
0.0
 11
18.947996074900001
 21
6.1132755646999977
 31
0.0
  0
ARC
  5
428D
  8
0
 10
18.299543778859881
 20
6.077906788065695
 30
0.0
 40
0.6751266148313712
 50
354.5748774618329
 51
5.0202462250197266
  0
ARC
  5
428E
  8
0
 10
18.953350997805561
 20
6.047104133072212
 30
0.0
 40
0.0100000001258071
 50
183.50000039713359
 51
265.99999938910008
  0
ARC
  5
428F
  8
0
 10
18.949904168289031
 20
6.1034592936602099
 30
0.0
 40
0.009999999875391
 50
100.9999995353683
 51
183.50009111250651
  0
LINE
  5
4290
  8
0
 10
18.939913346299999
 20
6.3027487341999979
 30
0.0
 11
18.943360174599999
 21
6.2463935894000002
 31
0.0
  0
LINE
  5
4291
  8
0
 10
18.973120520399998
 20
6.2355965734999987
 30
0.0
 11
18.952643954300001
 21
6.2370284344999991
 31
0.0
  0
LINE
  5
4292
  8
0
 10
18.973480945799999
 20
6.3181311053999991
 30
0.0
 11
18.9479865998
 21
6.3131755064999977
 31
0.0
  0
ARC
  5
4293
  8
0
 10
18.299534303759881
 20
6.277806729865695
 30
0.0
 40
0.6751266148313712
 50
354.5748774618329
 51
5.0202462250197266
  0
ARC
  5
4294
  8
0
 10
18.953341522705561
 20
6.247004074872212
 30
0.0
 40
0.0100000001258071
 50
183.50000039713359
 51
265.99999938910008
  0
ARC
  5
4295
  8
0
 10
18.94989469318902
 20
6.3033592354602099
 30
0.0
 40
0.009999999875391
 50
100.9999995353683
 51
183.50009111250651
  0
LINE
  5
4296
  8
0
 10
18.939034411000002
 20
6.5024074168999988
 30
0.0
 11
18.94248123929999
 21
6.4460522721000011
 31
0.0
  0
LINE
  5
4297
  8
0
 10
18.972241585100001
 20
6.4352552561999996
 30
0.0
 11
18.951765019
 21
6.4366871172
 31
0.0
  0
LINE
  5
4298
  8
0
 10
18.972602010500001
 20
6.5177897880999991
 30
0.0
 11
18.947107664499999
 21
6.5128341891999986
 31
0.0
  0
ARC
  5
4299
  8
0
 10
18.29865536845988
 20
6.4774654125656959
 30
0.0
 40
0.6751266148313712
 50
354.5748774618329
 51
5.0202462250197266
  0
ARC
  5
429A
  8
0
 10
18.952462587405559
 20
6.4466627575722129
 30
0.0
 40
0.0100000001258071
 50
183.50000039713359
 51
265.99999938910008
  0
ARC
  5
429B
  8
0
 10
18.949015757889018
 20
6.5030179181602108
 30
0.0
 40
0.009999999875391
 50
100.9999995353683
 51
183.50009111250651
  0
LINE
  5
429C
  8
0
 10
18.939867925550001
 20
6.7037074696999976
 30
0.0
 11
18.94331475385
 21
6.6473523248999991
 31
0.0
  0
LINE
  5
429D
  8
0
 10
18.973075099649989
 20
6.6365553089999993
 30
0.0
 11
18.952598533549999
 21
6.6379871699999988
 31
0.0
  0
LINE
  5
429E
  8
0
 10
18.97343552505
 20
6.7190898408999979
 30
0.0
 11
18.947941179050002
 21
6.7141342419999983
 31
0.0
  0
ARC
  5
429F
  8
0
 10
18.299488883009879
 20
6.6787654653656947
 30
0.0
 40
0.6751266148313712
 50
354.45585220108802
 51
4.9163437757584729
  0
ARC
  5
42A0
  8
0
 10
18.953296101955559
 20
6.6479628103722117
 30
0.0
 40
0.0100000001258071
 50
183.50000039713359
 51
265.99999938910008
  0
ARC
  5
42A1
  8
0
 10
18.949849272439021
 20
6.7043179709602096
 30
0.0
 40
0.009999999875391
 50
100.9999995353683
 51
183.50009111250651
  0
LINE
  5
42A2
  8
0
 10
18.939867925550001
 20
6.9037074696499978
 30
0.0
 11
18.94331475385
 21
6.8473523248500001
 31
0.0
  0
LINE
  5
42A3
  8
0
 10
18.97307509965
 20
6.8365553089499986
 30
0.0
 11
18.952598533549999
 21
6.837987169949999
 31
0.0
  0
LINE
  5
42A4
  8
0
 10
18.97343552505
 20
6.919089840849999
 30
0.0
 11
18.947941179050002
 21
6.9141342419499976
 31
0.0
  0
ARC
  5
42A5
  8
0
 10
18.240969278136561
 20
6.876303656915411
 30
0.0
 40
0.7336420096903245
 50
355.07732793446758
 51
4.8118376792746549
  0
ARC
  5
42A6
  8
0
 10
18.953296101955559
 20
6.8479628103222119
 30
0.0
 40
0.0100000001258071
 50
183.50000039713359
 51
265.99999938910008
  0
ARC
  5
42A7
  8
0
 10
18.949849272439032
 20
6.9043179709102098
 30
0.0
 40
0.009999999875391
 50
100.9999995353683
 51
183.50009111250651
  0
LINE
  5
42A8
  8
0
 10
18.939867925599991
 20
7.103707469699998
 30
0.0
 11
18.943314753900001
 21
7.0473523248999994
 31
0.0
  0
LINE
  5
42A9
  8
0
 10
18.973075099700001
 20
7.0365553089999979
 30
0.0
 11
18.9525985336
 21
7.0379871699999992
 31
0.0
  0
LINE
  5
42AA
  8
0
 10
18.973410454012559
 20
7.1190849675742278
 30
0.0
 11
18.947941179099999
 21
7.1141342419999969
 31
0.0
  0
ARC
  5
42AB
  8
0
 10
18.29948888305988
 20
7.0787654653656951
 30
0.0
 40
0.6751266148313712
 50
354.4053843383673
 51
4.8634206132019902
  0
ARC
  5
42AC
  8
0
 10
18.953296102005559
 20
7.0479628103722121
 30
0.0
 40
0.0100000001258071
 50
183.50000039713359
 51
265.99999938910008
  0
ARC
  5
42AD
  8
0
 10
18.949849272489018
 20
7.10431797096021
 30
0.0
 40
0.009999999875391
 50
100.9999995353683
 51
183.50009111250651
  0
LINE
  5
42AE
  8
0
 10
18.939867925550001
 20
7.3037074696499991
 30
0.0
 11
18.94331475385
 21
7.2473523248500014
 31
0.0
  0
LINE
  5
42AF
  8
0
 10
18.973075099649989
 20
7.2365553089499999
 30
0.0
 11
18.952598533549999
 21
7.2379871699500011
 31
0.0
  0
LINE
  5
42B0
  8
0
 10
18.973328165369288
 20
7.3190689722418929
 30
0.0
 11
18.947941179050002
 21
7.3141342419499988
 31
0.0
  0
ARC
  5
42B1
  8
0
 10
18.19007758001273
 20
7.2741627400343658
 30
0.0
 40
0.7845368373457512
 50
355.5174427897353
 51
4.4968248363875798
  0
ARC
  5
42B2
  8
0
 10
18.953296101955559
 20
7.247962810322214
 30
0.0
 40
0.0100000001258071
 50
183.50000039713359
 51
265.99999938910008
  0
ARC
  5
42B3
  8
0
 10
18.949849272439021
 20
7.3043179709102111
 30
0.0
 40
0.009999999875391
 50
100.9999995353683
 51
183.50009111250651
  0
LINE
  5
42B4
  8
0
 10
18.939867925600002
 20
7.5037074696999984
 30
0.0
 11
18.943314753900001
 21
7.4473523248999989
 31
0.0
  0
LINE
  5
42B5
  8
0
 10
18.973075099700001
 20
7.4365553089999992
 30
0.0
 11
18.9525985336
 21
7.4379871699999986
 31
0.0
  0
LINE
  5
42B6
  8
0
 10
18.973435525100001
 20
7.5190898408999978
 30
0.0
 11
18.947941179099999
 21
7.5141342419999981
 31
0.0
  0
ARC
  5
42B7
  8
0
 10
18.17708419037201
 20
7.4736161329095943
 30
0.0
 40
0.7975318830247672
 50
355.59543886674891
 51
4.4377872632827478
  0
ARC
  5
42B8
  8
0
 10
18.953296102005559
 20
7.4479628103722124
 30
0.0
 40
0.0100000001258071
 50
183.50000039713359
 51
265.99999938910008
  0
ARC
  5
42B9
  8
0
 10
18.949849272489029
 20
7.5043179709602104
 30
0.0
 40
0.009999999875391
 50
100.9999995353683
 51
183.50009111250651
  0
ARC
  5
42BA
  8
0
 10
19.01636804632334
 20
7.5075509425526681
 30
0.0
 40
0.0209042214878713
 50
111.2798079617524
 51
165.56081759114599
  0
LINE
  5
42BB
  8
0
 10
19.008781959899999
 20
7.5270298972000003
 30
0.0
 11
19.015803824700001
 21
7.5242793465999993
 31
0.0
  0
ARC
  5
42BC
  8
0
 10
18.930065269750479
 20
7.462879915698978
 30
0.0
 40
0.105456104232046
 50
331.7657230152426
 51
35.607357411334057
  0
ARC
  5
42BD
  8
0
 10
19.005325529205791
 20
7.4211740112462898
 30
0.0
 40
0.0194535427338247
 50
280.23283523044398
 51
335.1246382894625
  0
LINE
  5
42BE
  8
0
 10
19.00878142649999
 20
7.4020298972999958
 30
0.0
 11
19.0023818592
 21
7.4048334728
 31
0.0
  0
ARC
  5
42BF
  8
0
 10
19.05531762851253
 20
7.440407009783736
 30
0.0
 40
0.06377830513774
 50
184.45448085748831
 51
213.9016227018684
  0
ARC
  5
42C0
  8
0
 10
18.994301771319961
 20
7.5012847348559948
 30
0.0
 40
0.01141401662143
 50
94.049982530845796
 51
169.61409679689459
  0
ARC
  5
42C1
  8
0
 10
19.217560617453941
 20
7.4521148308427971
 30
0.0
 40
0.2400164195871049
 50
167.67634838582151
 51
180.42345659550949
  0
ARC
  5
42C2
  8
0
 10
18.989885781377531
 20
7.4486280419866251
 30
0.0
 40
0.0124533929264538
 50
172.09413867154259
 51
252.7081430867504
  0
LINE
  5
42DE
  8
0
 10
18.986184145500001
 20
7.2387375043000022
 30
0.0
 11
19.029154597588409
 21
7.2287925906605546
 31
0.0
  0
LINE
  5
42DF
  8
0
 10
18.993495637199999
 20
7.3146702486000024
 30
0.0
 11
19.022469517267091
 21
7.3156976779548151
 31
0.0
  0
ARC
  5
42E0
  8
0
 10
19.01636804632334
 20
7.3095509425526712
 30
0.0
 40
0.0209042214878713
 50
111.2798079617524
 51
165.56081759114591
  0
LINE
  5
42E1
  8
0
 10
19.008781959899999
 20
7.3290298972000016
 30
0.0
 11
19.015803824700001
 21
7.3262793466000007
 31
0.0
  0
ARC
  5
42E2
  8
0
 10
18.930065269750479
 20
7.2648799156989812
 30
0.0
 40
0.105456104232046
 50
331.7657230152426
 51
35.607357411334078
  0
ARC
  5
42E3
  8
0
 10
19.005325529205791
 20
7.2231740112462921
 30
0.0
 40
0.0194535427338247
 50
280.23283523044398
 51
335.1246382894625
  0
LINE
  5
42E4
  8
0
 10
19.00878142649999
 20
7.2040298972999981
 30
0.0
 11
19.0023818592
 21
7.2068334728000023
 31
0.0
  0
ARC
  5
42E5
  8
0
 10
19.05531762851253
 20
7.2424070097837392
 30
0.0
 40
0.06377830513774
 50
184.45448085748831
 51
213.9016227018684
  0
ARC
  5
42E6
  8
0
 10
18.994301771319961
 20
7.3032847348559971
 30
0.0
 40
0.01141401662143
 50
94.049982530845753
 51
169.61409679689459
  0
ARC
  5
42E7
  8
0
 10
19.217560617453941
 20
7.2541148308427994
 30
0.0
 40
0.2400164195871049
 50
167.67634838582151
 51
180.42345659550949
  0
ARC
  5
42E8
  8
0
 10
18.989885781377531
 20
7.2506280419866274
 30
0.0
 40
0.0124533929264538
 50
172.09413867154259
 51
252.70814308675031
  0
LINE
  5
42E9
  8
0
 10
18.986184145500001
 20
7.0407375043000018
 30
0.0
 11
19.029154597588409
 21
7.0307925906605551
 31
0.0
  0
LINE
  5
42EA
  8
0
 10
18.993495637199999
 20
7.116670248600002
 30
0.0
 11
19.022469517267091
 21
7.1176976779548156
 31
0.0
  0
ARC
  5
42EB
  8
0
 10
19.01636804632334
 20
7.1115509425526708
 30
0.0
 40
0.0209042214878713
 50
111.2798079617524
 51
165.56081759114591
  0
LINE
  5
42EC
  8
0
 10
19.008781959899999
 20
7.131029897200003
 30
0.0
 11
19.015803824700001
 21
7.1282793466000021
 31
0.0
  0
ARC
  5
42ED
  8
0
 10
18.930065269750479
 20
7.0668799156989808
 30
0.0
 40
0.105456104232046
 50
331.7657230152426
 51
35.607357411334078
  0
ARC
  5
42EE
  8
0
 10
19.005325529205791
 20
7.0251740112462926
 30
0.0
 40
0.0194535427338247
 50
280.23283523044398
 51
335.1246382894625
  0
LINE
  5
42EF
  8
0
 10
19.00878142649999
 20
7.0060298972999986
 30
0.0
 11
19.0023818592
 21
7.0088334728000019
 31
0.0
  0
ARC
  5
42F0
  8
0
 10
19.05531762851253
 20
7.0444070097837388
 30
0.0
 40
0.06377830513774
 50
184.45448085748831
 51
213.9016227018684
  0
ARC
  5
42F1
  8
0
 10
18.994301771319961
 20
7.1052847348559984
 30
0.0
 40
0.01141401662143
 50
94.049982530845753
 51
169.61409679689459
  0
ARC
  5
42F2
  8
0
 10
19.217560617453941
 20
7.056114830842799
 30
0.0
 40
0.2400164195871049
 50
167.67634838582151
 51
180.42345659550949
  0
ARC
  5
42F3
  8
0
 10
18.989885781377531
 20
7.052628041986627
 30
0.0
 40
0.0124533929264538
 50
172.09413867154259
 51
252.70814308675031
  0
LINE
  5
42F4
  8
0
 10
18.986184145500001
 20
6.8437375043000017
 30
0.0
 11
19.029154597588409
 21
6.833792590660555
 31
0.0
  0
LINE
  5
42F5
  8
0
 10
18.993495637199999
 20
6.9196702486000019
 30
0.0
 11
19.022469517267091
 21
6.9206976779548164
 31
0.0
  0
ARC
  5
42F6
  8
0
 10
19.01636804632334
 20
6.9145509425526708
 30
0.0
 40
0.0209042214878713
 50
111.2798079617524
 51
165.56081759114591
  0
LINE
  5
42F7
  8
0
 10
19.008781959899999
 20
6.9340298972000021
 30
0.0
 11
19.015803824700001
 21
6.931279346600002
 31
0.0
  0
ARC
  5
42F8
  8
0
 10
18.930065269750479
 20
6.8698799156989807
 30
0.0
 40
0.105456104232046
 50
331.7657230152426
 51
35.607357411334078
  0
ARC
  5
42F9
  8
0
 10
19.005325529205791
 20
6.8281740112462934
 30
0.0
 40
0.0194535427338247
 50
280.23283523044398
 51
335.1246382894625
  0
LINE
  5
42FA
  8
0
 10
19.00878142649999
 20
6.8090298972999994
 30
0.0
 11
19.0023818592
 21
6.8118334728000018
 31
0.0
  0
ARC
  5
42FB
  8
0
 10
19.05531762851253
 20
6.8474070097837387
 30
0.0
 40
0.06377830513774
 50
184.45448085748831
 51
213.9016227018684
  0
ARC
  5
42FC
  8
0
 10
18.994301771319961
 20
6.9082847348559984
 30
0.0
 40
0.01141401662143
 50
94.049982530845753
 51
169.61409679689459
  0
ARC
  5
42FD
  8
0
 10
19.217560617453941
 20
6.8591148308427989
 30
0.0
 40
0.2400164195871049
 50
167.67634838582151
 51
180.42345659550949
  0
ARC
  5
42FE
  8
0
 10
18.989885781377531
 20
6.8556280419866269
 30
0.0
 40
0.0124533929264538
 50
172.09413867154259
 51
252.70814308675031
  0
LINE
  5
42FF
  8
0
 10
18.982984361850001
 20
6.6471392920500021
 30
0.0
 11
19.025954813938409
 21
6.6371943784105554
 31
0.0
  0
LINE
  5
4300
  8
0
 10
18.990295853549998
 20
6.7230720363500023
 30
0.0
 11
19.01926973361709
 21
6.724099465704815
 31
0.0
  0
ARC
  5
4301
  8
0
 10
19.013168262673339
 20
6.7179527303026711
 30
0.0
 40
0.0209042214878713
 50
111.2798079617524
 51
165.56081759114591
  0
LINE
  5
4302
  8
0
 10
19.005582176250002
 20
6.7374316849500024
 30
0.0
 11
19.01260404105
 21
6.7346811343500006
 31
0.0
  0
ARC
  5
4303
  8
0
 10
18.926865486100478
 20
6.6732817034489811
 30
0.0
 40
0.105456104232046
 50
331.7657230152426
 51
35.607357411334078
  0
ARC
  5
4304
  8
0
 10
19.002125745555791
 20
6.631575798996292
 30
0.0
 40
0.0194535427338247
 50
280.23283523044398
 51
335.1246382894625
  0
LINE
  5
4305
  8
0
 10
19.00558164284999
 20
6.612431685049998
 30
0.0
 11
18.999182075549999
 21
6.6152352605500022
 31
0.0
  0
ARC
  5
4306
  8
0
 10
19.052117844862529
 20
6.6508087975337391
 30
0.0
 40
0.06377830513774
 50
184.45448085748831
 51
213.9016227018684
  0
ARC
  5
4307
  8
0
 10
18.99110198766996
 20
6.711686522605997
 30
0.0
 40
0.01141401662143
 50
94.049982530845753
 51
169.61409679689459
  0
ARC
  5
4308
  8
0
 10
19.214360833803941
 20
6.6625166185927993
 30
0.0
 40
0.2400164195871049
 50
167.67634838582151
 51
180.42345659550949
  0
ARC
  5
4309
  8
0
 10
18.98668599772753
 20
6.6590298297366273
 30
0.0
 40
0.0124533929264538
 50
172.09413867154259
 51
252.70814308675031
  0
LINE
  5
430A
  8
0
 10
18.986184145500001
 20
6.4477375043000018
 30
0.0
 11
19.029154597588409
 21
6.4377925906605551
 31
0.0
  0
LINE
  5
430B
  8
0
 10
18.993495637199999
 20
6.523670248600002
 30
0.0
 11
19.022469517267091
 21
6.5246976779548156
 31
0.0
  0
ARC
  5
430C
  8
0
 10
19.01636804632334
 20
6.5185509425526709
 30
0.0
 40
0.0209042214878713
 50
111.2798079617524
 51
165.56081759114591
  0
LINE
  5
430D
  8
0
 10
19.008781959899999
 20
6.538029897200003
 30
0.0
 11
19.015803824700001
 21
6.5352793466000021
 31
0.0
  0
ARC
  5
430E
  8
0
 10
18.930065269750479
 20
6.4738799156989808
 30
0.0
 40
0.105456104232046
 50
331.7657230152426
 51
35.607357411334078
  0
ARC
  5
430F
  8
0
 10
19.005325529205791
 20
6.4321740112462926
 30
0.0
 40
0.0194535427338247
 50
280.23283523044398
 51
335.1246382894625
  0
LINE
  5
4310
  8
0
 10
19.00878142649999
 20
6.4130298972999986
 30
0.0
 11
19.0023818592
 21
6.4158334728000019
 31
0.0
  0
ARC
  5
4311
  8
0
 10
19.05531762851253
 20
6.4514070097837388
 30
0.0
 40
0.06377830513774
 50
184.45448085748831
 51
213.9016227018684
  0
ARC
  5
4312
  8
0
 10
18.994301771319961
 20
6.5122847348559976
 30
0.0
 40
0.01141401662143
 50
94.049982530845753
 51
169.61409679689459
  0
ARC
  5
4313
  8
0
 10
19.217560617453941
 20
6.463114830842799
 30
0.0
 40
0.2400164195871049
 50
167.67634838582151
 51
180.42345659550949
  0
ARC
  5
4314
  8
0
 10
18.989885781377531
 20
6.459628041986627
 30
0.0
 40
0.0124533929264538
 50
172.09413867154259
 51
252.70814308675031
  0
LINE
  5
4315
  8
0
 10
18.986544757000001
 20
6.2496559605000019
 30
0.0
 11
19.029515209088409
 21
6.2397110468605561
 31
0.0
  0
LINE
  5
4316
  8
0
 10
18.993856248699998
 20
6.325588704800003
 30
0.0
 11
19.02283012876709
 21
6.3266161341548157
 31
0.0
  0
ARC
  5
4317
  8
0
 10
19.016728657823339
 20
6.320469398752671
 30
0.0
 40
0.0209042214878713
 50
111.2798079617524
 51
165.56081759114591
  0
LINE
  5
4318
  8
0
 10
19.009142571400002
 20
6.3399483534000032
 30
0.0
 11
19.0161644362
 21
6.3371978028000022
 31
0.0
  0
ARC
  5
4319
  8
0
 10
18.930425881250478
 20
6.2757983718989809
 30
0.0
 40
0.105456104232046
 50
331.7657230152426
 51
35.607357411334078
  0
ARC
  5
431A
  8
0
 10
19.005686140705791
 20
6.2340924674462928
 30
0.0
 40
0.0194535427338247
 50
280.23283523044398
 51
335.1246382894625
  0
LINE
  5
431B
  8
0
 10
19.00914203799999
 20
6.2149483534999987
 30
0.0
 11
19.002742470699999
 21
6.2177519290000021
 31
0.0
  0
ARC
  5
431C
  8
0
 10
19.055678240012529
 20
6.253325465983739
 30
0.0
 40
0.06377830513774
 50
184.45448085748831
 51
213.9016227018684
  0
ARC
  5
431D
  8
0
 10
18.994662382819961
 20
6.3142031910559977
 30
0.0
 40
0.01141401662143
 50
94.049982530845753
 51
169.61409679689459
  0
ARC
  5
431E
  8
0
 10
19.217921228953941
 20
6.2650332870428
 30
0.0
 40
0.2400164195871049
 50
167.67634838582151
 51
180.42345659550949
  0
ARC
  5
431F
  8
0
 10
18.99024639287753
 20
6.261546498186628
 30
0.0
 40
0.0124533929264538
 50
172.09413867154259
 51
252.70814308675031
  0
LINE
  5
4320
  8
0
 10
18.9861847492
 20
6.0477375042000023
 30
0.0
 11
19.029155201288411
 21
6.0377925905605547
 31
0.0
  0
LINE
  5
4321
  8
0
 10
18.993496240900001
 20
6.1236702485000016
 30
0.0
 11
19.022470120967078
 21
6.1246976778548161
 31
0.0
  0
ARC
  5
4322
  8
0
 10
19.016368650023342
 20
6.1185509424526714
 30
0.0
 40
0.0209042214878713
 50
111.2798079617524
 51
165.56081759114591
  0
LINE
  5
4323
  8
0
 10
19.008782563600001
 20
6.1380298971000018
 30
0.0
 11
19.015804428399999
 21
6.1352793465000008
 31
0.0
  0
ARC
  5
4324
  8
0
 10
18.930065873450481
 20
6.0738799155989813
 30
0.0
 40
0.105456104232046
 50
331.7657230152426
 51
35.607357411334078
  0
ARC
  5
4325
  8
0
 10
19.00532613290579
 20
6.0321740111462931
 30
0.0
 40
0.0194535427338247
 50
280.23283523044398
 51
335.1246382894625
  0
LINE
  5
4326
  8
0
 10
19.008782030199988
 20
6.0130298971999991
 30
0.0
 11
19.002382462899991
 21
6.0158334727000016
 31
0.0
  0
ARC
  5
4327
  8
0
 10
19.055318232212521
 20
6.0514070096837393
 30
0.0
 40
0.06377830513774
 50
184.45448085748831
 51
213.9016227018684
  0
ARC
  5
4328
  8
0
 10
18.994302375019959
 20
6.1122847347559981
 30
0.0
 40
0.01141401662143
 50
94.049982530845753
 51
169.61409679689459
  0
ARC
  5
4329
  8
0
 10
19.217561221153929
 20
6.0631148307427987
 30
0.0
 40
0.2400164195871049
 50
167.67634838582151
 51
180.42345659550949
  0
ARC
  5
432A
  8
0
 10
18.989886385077529
 20
6.0596280418866266
 30
0.0
 40
0.0124533929264538
 50
172.09413867154259
 51
252.70814308675031
  0
LINE
  5
432B
  8
0
 10
18.986184145500001
 20
5.8497375043000019
 30
0.0
 11
19.029154597588409
 21
5.8397925906605561
 31
0.0
  0
LINE
  5
432C
  8
0
 10
18.993495637199999
 20
5.925670248600003
 30
0.0
 11
19.022469517267091
 21
5.9266976779548157
 31
0.0
  0
ARC
  5
432D
  8
0
 10
19.01636804632334
 20
5.920550942552671
 30
0.0
 40
0.0209042214878713
 50
111.2798079617524
 51
165.56081759114591
  0
LINE
  5
432E
  8
0
 10
19.008781959899999
 20
5.9400298972000032
 30
0.0
 11
19.015803824700001
 21
5.9372793466000022
 31
0.0
  0
ARC
  5
432F
  8
0
 10
18.930065269750479
 20
5.8758799156989809
 30
0.0
 40
0.105456104232046
 50
331.7657230152426
 51
35.607357411334078
  0
ARC
  5
4330
  8
0
 10
19.005325529205791
 20
5.8341740112462928
 30
0.0
 40
0.0194535427338247
 50
280.23283523044398
 51
335.1246382894625
  0
LINE
  5
4331
  8
0
 10
19.00878142649999
 20
5.8150298972999988
 30
0.0
 11
19.0023818592
 21
5.8178334728000021
 31
0.0
  0
ARC
  5
4332
  8
0
 10
19.05531762851253
 20
5.853407009783739
 30
0.0
 40
0.06377830513774
 50
184.45448085748831
 51
213.9016227018684
  0
ARC
  5
4333
  8
0
 10
18.994301771319961
 20
5.9142847348559977
 30
0.0
 40
0.01141401662143
 50
94.049982530845753
 51
169.61409679689459
  0
ARC
  5
4334
  8
0
 10
19.217560617453941
 20
5.8651148308428001
 30
0.0
 40
0.2400164195871049
 50
167.67634838582151
 51
180.42345659550949
  0
ARC
  5
4335
  8
0
 10
18.989885781377531
 20
5.861628041986628
 30
0.0
 40
0.0124533929264538
 50
172.09413867154259
 51
252.70814308675031
  0
LINE
  5
4336
  8
0
 10
18.986184797284299
 20
5.6517377604378787
 30
0.0
 11
19.02915524937271
 21
5.641792846798432
 31
0.0
  0
LINE
  5
4337
  8
0
 10
18.9934962889843
 20
5.7276705047378789
 30
0.0
 11
19.022470169051392
 21
5.7286979340926933
 31
0.0
  0
ARC
  5
4338
  8
0
 10
19.016368698107641
 20
5.7225511986905477
 30
0.0
 40
0.0209042214878713
 50
111.2798079617524
 51
165.56081759114591
  0
LINE
  5
4339
  8
0
 10
19.0087826116843
 20
5.742030153337879
 30
0.0
 11
19.015804476484298
 21
5.7392796027378781
 31
0.0
  0
ARC
  5
433A
  8
0
 10
18.930065921534791
 20
5.6778801718368577
 30
0.0
 40
0.105456104232046
 50
331.7657230152426
 51
35.607357411334078
  0
ARC
  5
433B
  8
0
 10
19.005326180990089
 20
5.6361742673841704
 30
0.0
 40
0.0194535427338247
 50
280.23283523044398
 51
335.1246382894625
  0
LINE
  5
433C
  8
0
 10
19.008782078284291
 20
5.6170301534378764
 30
0.0
 11
19.002382510984301
 21
5.6198337289378788
 31
0.0
  0
ARC
  5
433D
  8
0
 10
19.055318280296831
 20
5.6554072659216157
 30
0.0
 40
0.06377830513774
 50
184.45448085748831
 51
213.9016227018684
  0
ARC
  5
433E
  8
0
 10
18.994302423104259
 20
5.7162849909938753
 30
0.0
 40
0.01141401662143
 50
94.049982530845753
 51
169.61409679689459
  0
ARC
  5
433F
  8
0
 10
19.217561269238239
 20
5.6671150869806759
 30
0.0
 40
0.2400164195871049
 50
167.67634838582151
 51
180.42345659550949
  0
ARC
  5
4340
  8
0
 10
18.989886433161828
 20
5.6636282981245039
 30
0.0
 40
0.0124533929264538
 50
172.09413867154259
 51
252.70814308675031
  0
LINE
  5
4341
  8
0
 10
18.9861847492
 20
5.4547375042000024
 30
0.0
 11
19.029155201288411
 21
5.4447925905605548
 31
0.0
  0
LINE
  5
4342
  8
0
 10
18.993496240900001
 20
5.5306702485000017
 30
0.0
 11
19.022470120967078
 21
5.5316976778548161
 31
0.0
  0
ARC
  5
4343
  8
0
 10
19.016368650023342
 20
5.5255509424526714
 30
0.0
 40
0.0209042214878713
 50
111.2798079617524
 51
165.56081759114591
  0
LINE
  5
4344
  8
0
 10
19.008782563600001
 20
5.5450298971000018
 30
0.0
 11
19.015804428399999
 21
5.5422793465000009
 31
0.0
  0
ARC
  5
4345
  8
0
 10
18.930065873450481
 20
5.4808799155989814
 30
0.0
 40
0.105456104232046
 50
331.7657230152426
 51
35.607357411334078
  0
ARC
  5
4346
  8
0
 10
19.00532613290579
 20
5.4391740111462932
 30
0.0
 40
0.0194535427338247
 50
280.23283523044398
 51
335.1246382894625
  0
LINE
  5
4347
  8
0
 10
19.008782030199988
 20
5.4200298971999992
 30
0.0
 11
19.002382462899991
 21
5.4228334727000016
 31
0.0
  0
ARC
  5
4348
  8
0
 10
19.055318232212521
 20
5.4584070096837394
 30
0.0
 40
0.06377830513774
 50
184.45448085748831
 51
213.9016227018684
  0
ARC
  5
4349
  8
0
 10
18.994302375019959
 20
5.5192847347559981
 30
0.0
 40
0.01141401662143
 50
94.049982530845753
 51
169.61409679689459
  0
ARC
  5
434A
  8
0
 10
19.217561221153929
 20
5.4701148307427987
 30
0.0
 40
0.2400164195871049
 50
167.67634838582151
 51
180.42345659550949
  0
ARC
  5
434B
  8
0
 10
18.989886385077529
 20
5.4666280418866267
 30
0.0
 40
0.0124533929264538
 50
172.09413867154259
 51
252.70814308675031
  0
LINE
  5
434C
  8
0
 10
18.986184797284299
 20
5.2567377604378844
 30
0.0
 11
19.02915524937271
 21
5.2467928467984368
 31
0.0
  0
LINE
  5
434D
  8
0
 10
18.9934962889843
 20
5.3326705047378837
 30
0.0
 11
19.022470169051392
 21
5.3336979340926982
 31
0.0
  0
ARC
  5
434E
  8
0
 10
19.016368698107641
 20
5.3275511986905526
 30
0.0
 40
0.0209042214878713
 50
111.2798079617524
 51
165.56081759114591
  0
LINE
  5
434F
  8
0
 10
19.0087826116843
 20
5.3470301533378839
 30
0.0
 11
19.015804476484298
 21
5.3442796027378829
 31
0.0
  0
ARC
  5
4350
  8
0
 10
18.930065921534791
 20
5.2828801718368634
 30
0.0
 40
0.105456104232046
 50
331.7657230152426
 51
35.607357411334078
  0
ARC
  5
4351
  8
0
 10
19.005326180990089
 20
5.2411742673841752
 30
0.0
 40
0.0194535427338247
 50
280.23283523044398
 51
335.1246382894625
  0
LINE
  5
4352
  8
0
 10
19.008782078284291
 20
5.2220301534378812
 30
0.0
 11
19.002382510984301
 21
5.2248337289378837
 31
0.0
  0
ARC
  5
4353
  8
0
 10
19.055318280296831
 20
5.2604072659216206
 30
0.0
 40
0.06377830513774
 50
184.45448085748831
 51
213.9016227018684
  0
ARC
  5
4354
  8
0
 10
18.994302423104259
 20
5.3212849909938802
 30
0.0
 40
0.01141401662143
 50
94.049982530845753
 51
169.61409679689459
  0
ARC
  5
4355
  8
0
 10
19.217561269238239
 20
5.2721150869806808
 30
0.0
 40
0.2400164195871049
 50
167.67634838582151
 51
180.42345659550949
  0
ARC
  5
4356
  8
0
 10
18.989886433161828
 20
5.2686282981245087
 30
0.0
 40
0.0124533929264538
 50
172.09413867154259
 51
252.70814308675031
  0
LINE
  5
4357
  8
0
 10
18.986184145500001
 20
5.0587375043000016
 30
0.0
 11
19.029154597588409
 21
5.0487925906605549
 31
0.0
  0
LINE
  5
4358
  8
0
 10
18.993495637199999
 20
5.1346702486000018
 30
0.0
 11
19.022469517267091
 21
5.1356976779548162
 31
0.0
  0
ARC
  5
4359
  8
0
 10
19.01636804632334
 20
5.1295509425526706
 30
0.0
 40
0.0209042214878713
 50
111.2798079617524
 51
165.56081759114591
  0
LINE
  5
435A
  8
0
 10
19.008781959899999
 20
5.1490298972000019
 30
0.0
 11
19.015803824700001
 21
5.146279346600001
 31
0.0
  0
ARC
  5
435B
  8
0
 10
18.930065269750479
 20
5.0848799156989806
 30
0.0
 40
0.105456104232046
 50
331.7657230152426
 51
35.607357411334078
  0
ARC
  5
435C
  8
0
 10
19.005325529205791
 20
5.0431740112462933
 30
0.0
 40
0.0194535427338247
 50
280.23283523044398
 51
335.1246382894625
  0
LINE
  5
435D
  8
0
 10
19.00878142649999
 20
5.0240298972999993
 30
0.0
 11
19.0023818592
 21
5.0268334728000017
 31
0.0
  0
ARC
  5
435E
  8
0
 10
19.05531762851253
 20
5.0624070097837386
 30
0.0
 40
0.06377830513774
 50
184.45448085748831
 51
213.9016227018684
  0
ARC
  5
435F
  8
0
 10
18.994301771319961
 20
5.1232847348559982
 30
0.0
 40
0.01141401662143
 50
94.049982530845753
 51
169.61409679689459
  0
ARC
  5
4360
  8
0
 10
19.217560617453941
 20
5.0741148308427988
 30
0.0
 40
0.2400164195871049
 50
167.67634838582151
 51
180.42345659550949
  0
ARC
  5
4361
  8
0
 10
18.989885781377531
 20
5.0706280419866268
 30
0.0
 40
0.0124533929264538
 50
172.09413867154259
 51
252.70814308675031
  0
ARC
  5
4362
  8
0
 10
18.974760626266079
 20
7.4019483178058776
 30
0.0
 40
0.0108598240543083
 50
94.63496094760923
 51
173.3001969933166
  0
ARC
  5
4363
  8
0
 10
19.372014365546921
 20
7.3382134982849827
 30
0.0
 40
0.4130707995485153
 50
170.9613002098954
 51
178.185001592736
  0
ARC
  5
4364
  8
0
 10
18.971194398114761
 20
7.3484461697927008
 30
0.0
 40
0.0123248487316242
 50
167.78927756896141
 51
251.2570269428179
  0
ARC
  5
4365
  8
0
 10
18.800011982052339
 20
7.3692612806866311
 30
0.0
 40
0.1946803310812968
 50
348.81681913384568
 51
13.12281417150057
  0
ARC
  5
4366
  8
0
 10
18.97069102185198
 20
7.1476448853916388
 30
0.0
 40
0.0111245629427597
 50
176.11832235579419
 51
255.5212360938821
  0
ARC
  5
4367
  8
0
 10
19.384202071760711
 20
7.1456693240710276
 30
0.0
 40
0.4246188602773815
 50
172.15827881667681
 51
179.63180781967861
  0
ARC
  5
4368
  8
0
 10
18.974050963540801
 20
7.2024471939278483
 30
0.0
 40
0.0105604802597721
 50
94.451943694798686
 51
173.71640596413559
  0
ARC
  5
4369
  8
0
 10
18.816511550681572
 20
7.1705823851805901
 30
0.0
 40
0.1785904489510869
 50
347.585206160665
 51
14.0664244901439
  0
ARC
  5
436A
  8
0
 10
18.969872799575739
 20
6.9470040839610983
 30
0.0
 40
0.0097133417628166
 50
179.850000007782
 51
263.53611677142391
  0
ARC
  5
436B
  8
0
 10
19.395134826753051
 20
6.9536963296019332
 30
0.0
 40
0.4350264234098328
 50
173.60180989897071
 51
180.87809697079879
  0
ARC
  5
436C
  8
0
 10
18.974047394747849
 20
7.0020341202434881
 30
0.0
 40
0.0112302818664187
 50
97.528869368159334
 51
179.28324615281289
  0
ARC
  5
436D
  8
0
 10
18.800609666560259
 20
6.9702480658125072
 30
0.0
 40
0.1940985700919664
 50
348.8803113134893
 51
13.18139481863348
  0
ARC
  5
436E
  8
0
 10
18.971266715379102
 20
6.7475226500949734
 30
0.0
 40
0.0106087714916804
 50
183.00661368337231
 51
259.0689775268014
  0
ARC
  5
436F
  8
0
 10
19.380714427857519
 20
6.7620450609710172
 30
0.0
 40
0.4203124474856786
 50
174.64471972629221
 51
182.05594702016111
  0
ARC
  5
4370
  8
0
 10
18.97341438304078
 20
6.8022321194406912
 30
0.0
 40
0.0112188307180582
 50
97.731052511003895
 51
184.902550826294
  0
ARC
  5
4371
  8
0
 10
18.799237790734871
 20
6.7724697939937659
 30
0.0
 40
0.1954599877961782
 50
348.48907490768329
 51
12.594864320863451
  0
ARC
  5
4372
  8
0
 10
18.97271599883177
 20
6.6029169778580901
 30
0.0
 40
0.0106998003504903
 50
97.843281356483047
 51
178.27533981372571
  0
ARC
  5
4373
  8
0
 10
19.41412739785418
 20
6.5667059594060566
 30
0.0
 40
0.4535800008587276
 50
175.38017751729831
 51
181.95568152725539
  0
ARC
  5
4374
  8
0
 10
18.972711238523029
 20
6.549037202207173
 30
0.0
 40
0.0120994284268259
 50
169.5735115498469
 51
256.9446540794479
  0
ARC
  5
4380
  8
0
 10
18.799392830625159
 20
6.5734821281812001
 30
0.0
 40
0.195305356555711
 50
348.37692722580442
 51
12.47326371344246
  0
ARC
  5
4381
  8
0
 10
18.97201148842321
 20
6.3477745432239407
 30
0.0
 40
0.0105461572870682
 50
182.17189249039879
 51
261.34774875051892
  0
ARC
  5
4382
  8
0
 10
19.385240893649652
 20
6.3740157285535766
 30
0.0
 40
0.4246045710148258
 50
176.09096565789511
 51
183.59725772264721
  0
ARC
  5
4383
  8
0
 10
18.972426612446309
 20
6.4029628942297743
 30
0.0
 40
0.0108024650735103
 50
98.88676290992052
 51
180.0040656387873
  0
ARC
  5
4384
  8
0
 10
18.816247229981489
 20
6.3755212643823027
 30
0.0
 40
0.1788514393201533
 50
346.78419302040629
 51
13.1270407112637
  0
ARC
  5
4397
  8
0
 10
22.3631825109
 20
21.0809658702
 30
0.0
 40
0.0149889216999963
 50
89.999999999986414
 51
182.6307494806031
  0
ARC
  5
43CC
  8
0
 10
18.78643783713386
 20
4.9868618962236999
 30
0.0
 40
0.2079461547220461
 50
346.44721634575239
 51
9.2820092035253587
  0
ARC
  5
43CD
  8
0
 10
18.54200541458037
 20
5.1861680121044547
 30
0.0
 40
0.4502301187668274
 50
353.80704384525723
 51
4.2528320175771919
  0
ARC
  5
43CE
  8
0
 10
18.570791776982439
 20
5.3840213093730371
 30
0.0
 40
0.4215772439989706
 50
353.60589176429181
 51
4.7419221688371751
  0
ARC
  5
43CF
  8
0
 10
18.830046013251359
 20
5.5802828197138252
 30
0.0
 40
0.1654330504394769
 50
344.671646492881
 51
13.26611835922234
  0
ARC
  5
43D0
  8
0
 10
18.972928076192101
 20
6.1485058038370806
 30
0.0
 40
0.0112922040650633
 50
179.10665257351539
 51
258.91936728329858
  0
ARC
  5
43D1
  8
0
 10
19.368977523420799
 20
6.1775095372030551
 30
0.0
 40
0.4083590790744543
 50
176.56728808050011
 51
184.0481015570528
  0
ARC
  5
43D2
  8
0
 10
18.972161870702809
 20
6.2029914036235763
 30
0.0
 40
0.0108597864484783
 50
99.203413402085516
 51
185.4468690073993
  0
ARC
  5
43D3
  8
0
 10
18.807856749114318
 20
6.1755309430710223
 30
0.0
 40
0.1870309475748834
 50
347.45899962969202
 51
12.63042986651679
  0
ARC
  5
43D4
  8
0
 10
18.971745434868549
 20
6.0032561175543586
 30
0.0
 40
0.0107191863046006
 50
99.780878957409229
 51
181.43635868826681
  0
ARC
  5
43D5
  8
0
 10
19.389766775731701
 20
5.9831002614221029
 30
0.0
 40
0.4291981486282078
 50
177.34421354183951
 51
184.7149504052245
  0
ARC
  5
43D6
  8
0
 10
18.97271599882443
 20
5.9481428167390566
 30
0.0
 40
0.0106998003430692
 50
181.72466017231119
 51
262.15671950540769
  0
ARC
  5
43E2
  8
0
 10
18.97106257133737
 20
5.8037148407769541
 30
0.0
 40
0.0103969252593734
 50
100.01208342016859
 51
177.91232565750809
  0
ARC
  5
43E3
  8
0
 10
19.391289597567152
 20
5.7889841147484837
 30
0.0
 40
0.4308820492982837
 50
177.9904325514936
 51
184.2017741726979
  0
ARC
  5
43E4
  8
0
 10
19.130007770100491
 20
5.7691778485527907
 30
0.0
 40
0.168852404706823
 50
183.99507337743171
 51
187.32494895784589
  0
ARC
  5
43E5
  8
0
 10
18.973135706753311
 20
5.7482617801862581
 30
0.0
 40
0.010619990099761
 50
183.3037519833446
 51
263.41272233877572
  0
ARC
  5
43E6
  8
0
 10
18.815726265333659
 20
5.7784327371030777
 30
0.0
 40
0.1793674725861851
 50
346.30562296333801
 51
12.5990325975029
  0
ARC
  5
43E7
  8
0
 10
18.4064289682461
 20
5.980489805159138
 30
0.0
 40
0.5853992930697448
 50
355.58196167972818
 51
3.5685165757741091
  0
ATTDEF
  5
44B6
  8
DEFPOINTS
 10
24.273498987450349
 20
-5.9220502306650751
 30
0.0
 40
0.001
  1
PREMIUM MATERIALS
  3

  2
MATERIAL
 70
     0
1001
ACDBATTR
1070
     0
1070
     1
  0
ATTDEF
  5
44B7
  8
DEFPOINTS
 10
24.273498987450349
 20
-5.9203835639984099
 30
0.0
 40
0.001
  1
HANDSHOWER KIT
  3

  2
PRODUCT
 70
     0
1001
ACDBATTR
1070
     0
1070
     1
  0
ATTDEF
  5
44B8
  8
DEFPOINTS
 10
24.273498987450349
 20
-5.9187168973317448
 30
0.0
 40
0.001
  1

  3

  2
TRADENAME
 70
     0
1001
ACDBATTR
1070
     0
1070
     1
  0
ATTDEF
  5
44B9
  8
DEFPOINTS
 10
24.273498987450349
 20
-5.9170502306650796
 30
0.0
 40
0.001
  1
K-8487
  3

  2
MODELNUMBER
 70
     0
1001
ACDBATTR
1070
     0
1070
     1
  0
LINE
  5
6455
  8
0
 10
24.236591339699999
 20
-5.913470102699999
 30
0.0
 11
24.056591339699999
 21
-5.913470102699999
 31
0.0
  0
LINE
  5
6456
  8
0
 10
21.2225929968
 20
-5.8984701026999993
 30
0.0
 11
22.1205896827
 21
-5.8984701026999993
 31
0.0
  0
LINE
  5
65BE
  8
0
 10
24.236591339699999
 20
-3.683470102699999
 30
0.0
 11
24.056591339699999
 21
-3.683470102699999
 31
0.0
  0
LINE
  5
6F4B
  8
0
 10
21.2025913397
 20
18.971529897299991
 30
0.0
 11
21.2025913397
 21
19.03152989729999
 31
0.0
  0
LINE
  5
6F53
  8
0
 10
22.140591339699998
 20
18.971529897299991
 30
0.0
 11
22.140591339699998
 21
19.03152989729999
 31
0.0
  0
LINE
  5
71DD
  8
0
 10
23.541591339699998
 20
20.856029897399999
 30
0.0
 11
23.541591339699998
 21
20.7390380497
 31
0.0
  0
LINE
  5
73AF
  8
0
 10
23.721591339700002
 20
20.580696977199999
 30
0.0
 11
23.721591339700002
 21
22.502362817400002
 31
0.0
  0
LINE
  5
73B3
  8
0
 10
24.021591339699999
 20
19.031520795300001
 30
0.0
 11
24.021591339699999
 21
16.871538999399998
 31
0.0
  0
LINE
  5
73B4
  8
0
 10
24.021591339699999
 20
-5.8784701026999988
 30
0.0
 11
24.021591339699999
 21
-3.7184701027
 31
0.0
  0
LINE
  5
73BC
  8
0
 10
24.271591339699999
 20
16.8715298973
 30
0.0
 11
24.271591339699999
 21
19.031521669099991
 31
0.0
  0
LINE
  5
7A75
  8
0
 10
24.236591339699999
 20
16.8365298973
 30
0.0
 11
24.056591339699999
 21
16.8365298973
 31
0.0
  0
LINE
  5
7AEA
  8
0
 10
22.161530514100001
 20
17.5515298973
 30
0.0
 11
22.547049673099998
 21
17.5515298973
 31
0.0
  0
LINE
  5
7AEB
  8
0
 10
23.047604714316549
 20
17.5515298973
 30
0.0
 11
24.021591339699999
 21
17.5515298973
 31
0.0
  0
LINE
  5
7B4B
  8
0
 10
22.1615398637
 20
18.351529897300001
 30
0.0
 11
22.54689574019654
 21
18.351529897300001
 31
0.0
  0
LINE
  5
7B4C
  8
0
 10
23.047637979616411
 20
18.351529897300001
 30
0.0
 11
24.021591339699999
 21
18.351529897300001
 31
0.0
  0
LINE
  5
7B4D
  8
0
 10
22.1402787034
 20
18.951529897299999
 30
0.0
 11
21.202841339700001
 21
18.951529897299999
 31
0.0
  0
LINE
  5
7B50
  8
0
 10
22.1205896827
 20
19.0515298973
 30
0.0
 11
21.2225929968
 21
19.0515298973
 31
0.0
  0
LINE
  5
7B51
  8
0
 10
24.236591339699999
 20
19.06652989729999
 30
0.0
 11
24.056591339699999
 21
19.06652989729999
 31
0.0
  0
LINE
  5
7B85
  8
0
 10
23.721591339700002
 20
20.7190298973
 30
0.0
 11
23.561591339700001
 21
20.7190298973
 31
0.0
  0
LINE
  5
7B88
  8
0
 10
22.105030344700001
 20
21.106029897300001
 30
0.0
 11
23.291591339699998
 21
21.106029897300001
 31
0.0
  0
ARC
  5
7BB9
  8
0
 10
21.222591339699999
 20
-5.8184701026999992
 30
0.0
 40
0.02
 50
89.996501881200047
 51
180.0
  0
ARC
  5
7BBF
  8
0
 10
21.222591339699999
 20
18.971529897299991
 30
0.0
 40
0.02
 50
180.0
 51
270.00349811880022
  0
ARC
  5
7BC0
  8
0
 10
21.222591339699999
 20
19.03152989729999
 30
0.0
 40
0.02
 50
89.997752121300053
 51
180.0
  0
ARC
  5
7BC1
  8
0
 10
24.056591339699999
 20
-3.7184701027
 30
0.0
 40
0.035
 50
90.0
 51
180.0
  0
ARC
  5
7BC2
  8
0
 10
24.056591339699999
 20
-5.8784701026999988
 30
0.0
 40
0.035
 50
180.0
 51
270.0
  0
ARC
  5
7BC3
  8
0
 10
24.236591339699999
 20
-5.8784701026999988
 30
0.0
 40
0.035
 50
270.0
 51
359.99998587580001
  0
ARC
  5
7BC4
  8
0
 10
24.236591339699999
 20
-3.7184701027
 30
0.0
 40
0.035
 50
0.0000141242000032
 51
90.0
  0
ARC
  5
7BC8
  8
0
 10
22.120591339699999
 20
-5.8184701026999992
 30
0.0
 40
0.02
 50
0.0
 51
90.003498118799953
  0
ARC
  5
7BC9
  8
0
 10
22.120591339699999
 20
19.03152989729999
 30
0.0
 40
0.02
 50
0.0
 51
90.002247878699961
  0
ARC
  5
7BCA
  8
0
 10
22.120591339699999
 20
18.971529897299991
 30
0.0
 40
0.02
 50
269.99650188120012
 51
0.0
  0
ARC
  5
7BCD
  8
0
 10
22.105030566100002
 20
21.126029873699999
 30
0.0
 40
0.0199999925
 50
211.18165229240009
 51
269.99964892539998
  0
ARC
  5
7BCF
  8
0
 10
24.056591339699999
 20
19.03152989729999
 30
0.0
 40
0.035
 50
90.0
 51
180.0
  0
ARC
  5
7BD0
  8
0
 10
24.056591339699999
 20
16.8715298973
 30
0.0
 40
0.035
 50
180.0
 51
270.0
  0
ARC
  5
7BD1
  8
0
 10
24.236591339699999
 20
16.8715298973
 30
0.0
 40
0.035
 50
270.0
 51
359.99998587580001
  0
ARC
  5
7BD2
  8
0
 10
24.236591339699999
 20
19.03152989729999
 30
0.0
 40
0.035
 50
0.0000141242000032
 51
90.0
  0
ARC
  5
7BD3
  8
0
 10
23.6082624997
 20
20.294590627000002
 30
0.0
 40
0.29
 50
18.575875402000069
 51
63.390808612900067
  0
ARC
  5
7BD4
  8
0
 10
23.291591339699998
 20
20.856029897300001
 30
0.0
 40
0.25
 50
0.0000000073000091
 51
90.000000001400053
  0
ARC
  5
7BD6
  8
0
 10
23.561591339700001
 20
20.7390298973
 30
0.0
 40
0.02
 50
180.0
 51
270.0
  0
ARC
  5
7BD9
  8
0
 10
24.217315985199999
 20
20.0941519201
 30
0.0
 40
0.4
 50
100.14290227399989
 51
135.31532183149989
  0
ARC
  5
7BDA
  8
0
 10
23.751591339699999
 20
20.580696977199999
 30
0.0
 40
0.03
 50
180.0
 51
243.39073840600011
  0
ARC
  5
7BDB
  8
0
 10
23.911591339699999
 20
20.396529897299999
 30
0.0
 40
0.03
 50
198.57587540159989
 51
315.31532183099989
  0
ARC
  5
7BDC
  8
0
 10
24.1415913397
 20
20.517431707099998
 30
0.0
 40
0.03
 50
280.14287541990001
 51
359.99984153129992
  0
ARC
  5
7BE0
  8
0
 10
24.1415913397
 20
22.5656280876
 30
0.0
 40
0.03
 50
0.0001584687000377
 51
79.857124580099978
  0
ARC
  5
7BF0
  8
0
 10
22.174640200302321
 20
-4.4337406450086014
 30
0.0
 40
0.0399408867445729
 50
126.2312676152612
 51
149.17546901288989
  0
ARC
  5
7BF1
  8
0
 10
22.161803760042989
 20
-4.4189858290997179
 30
0.0
 40
0.020517303422442
 50
90.710393937580221
 51
121.6645522310759
  0
ARC
  5
7BF2
  8
0
 10
22.178384213779101
 20
-5.1599477250294781
 30
0.0
 40
0.0448301865519274
 50
211.94033108833139
 51
232.20621584808819
  0
ARC
  5
7BF3
  8
0
 10
22.162429715942
 20
-5.175629921047018
 30
0.0
 40
0.0228578752707657
 50
239.74073172487081
 51
267.74546988798443
  0
ARC
  5
7BF4
  8
0
 10
23.75159133970244
 20
22.502362817399408
 30
0.0
 40
0.0300000000024383
 50
116.6092616113
 51
179.99999999887359
  0
ARC
  5
7BF5
  8
0
 10
23.608262499486639
 20
22.788469167874918
 30
0.0
 40
0.2900000003413635
 50
296.60919798363568
 51
341.42412456443861
  0
ARC
  5
7BF6
  8
0
 10
23.911591339714612
 20
22.686529897350521
 30
0.0
 40
0.029999999954092
 50
44.684678120024792
 51
161.424124650555
  0
ARC
  5
7BF7
  8
0
 10
24.217315985300321
 20
22.988907874876951
 30
0.0
 40
0.4000000002918222
 50
224.68467819601611
 51
259.85709959669617
  0
ARC
  5
7C11
  8
0
 10
22.180636429922551
 20
17.59178775399992
 30
0.0
 40
0.0476603762955606
 50
212.27841114425479
 51
229.16484410465401
  0
ARC
  5
7C12
  8
0
 10
22.161469737716249
 20
17.57077163239234
 30
0.0
 40
0.0192418795824983
 50
231.42630347310859
 51
270.2220410572973
  0
ARC
  5
7C13
  8
0
 10
22.171423826281231
 20
18.31918568454315
 30
0.0
 40
0.0356898539236529
 50
124.84271251534
 51
150.5640241128242
  0
ARC
  5
7C14
  8
0
 10
22.161746775365749
 20
18.331134658541341
 30
0.0
 40
0.0203848435516919
 50
90.578548989980135
 51
121.70600364615581
  0
LINE
  5
7C15
  8
0
 10
22.140341339700012
 20
18.336725487877839
 30
0.0
 11
22.140341339700001
 21
18.951529897299999
 31
0.0
  0
LINE
  5
7C36
  8
0
 10
22.3565913397
 20
21.106029897300001
 30
0.0
 11
22.3565913397
 21
21.094427825330701
 31
0.0
  0
LINE
  5
7C37
  8
0
 10
23.226591339700001
 20
21.095954791899999
 30
0.0
 11
23.226591339700001
 21
21.106029897300001
 31
0.0
  0
ENDSEC
  0
EOF
