  0
SECTION
  2
HEADER
  9
$ACADVER
  1
AC1009
  9
$INSBASE
 10
-0.3232830386018259
 20
-5.913470102699999
 30
0.0
  9
$EXTMIN
 10
-1.4390837875090829
 20
-13.74596833847305
 30
-0.0007630092969823
  9
$EXTMAX
 10
10.850748804818121
 20
22.717585125948968
 30
0.0000000814935746
  9
$LIMMIN
 10
0.0
 20
0.0
  9
$LIMMAX
 10
11.692913385800001
 20
8.2677165353999982
  9
$ORTHOMODE
 70
     0
  9
$REGENMODE
 70
     1
  9
$FILLMODE
 70
     1
  9
$QTEXTMODE
 70
     0
  9
$MIRRTEXT
 70
     0
  9
$DRAGMODE
 70
     2
  9
$LTSCALE
 40
0.6431102362
  9
$OSMODE
 70
    39
  9
$ATTMODE
 70
     1
  9
$TEXTSIZE
 40
0.2
  9
$TRACEWID
 40
0.05
  9
$TEXTSTYLE
  7
STANDARD
  9
$CLAYER
  8
0
  9
$CELTYPE
  6
BYLAYER
  9
$CECOLOR
 62
   256
  9
$DIMSCALE
 40
1.0
  9
$DIMASZ
 40
0.1875
  9
$DIMEXO
 40
0.0625
  9
$DIMDLI
 40
0.4443307087
  9
$DIMRND
 40
0.0
  9
$DIMDLE
 40
0.0
  9
$DIMEXE
 40
0.125
  9
$DIMTP
 40
0.0
  9
$DIMTM
 40
0.0
  9
$DIMTXT
 40
0.15625
  9
$DIMCEN
 40
0.1052362205
  9
$DIMTSZ
 40
0.0
  9
$DIMTOL
 70
     0
  9
$DIMLIM
 70
     0
  9
$DIMTIH
 70
     1
  9
$DIMTOH
 70
     1
  9
$DIMSE1
 70
     0
  9
$DIMSE2
 70
     0
  9
$DIMTAD
 70
     0
  9
$DIMZIN
 70
     0
  9
$DIMBLK
  1

  9
$DIMASO
 70
     1
  9
$DIMSHO
 70
     1
  9
$DIMPOST
  1

  9
$DIMAPOST
  1

  9
$DIMALT
 70
     0
  9
$DIMALTD
 70
     2
  9
$DIMALTF
 40
25.399999999999999
  9
$DIMLFAC
 40
1.0
  9
$DIMTOFL
 70
     0
  9
$DIMTVP
 40
0.0
  9
$DIMTIX
 70
     0
  9
$DIMSOXD
 70
     0
  9
$DIMSAH
 70
     0
  9
$DIMBLK1
  1

  9
$DIMBLK2
  1

  9
$DIMSTYLE
  2
STANDARD
  9
$DIMCLRD
 70
     0
  9
$DIMCLRE
 70
     0
  9
$DIMCLRT
 70
     0
  9
$DIMTFAC
 40
1.0
  9
$DIMGAP
 40
0.09
  9
$LUNITS
 70
     2
  9
$LUPREC
 70
     4
  9
$SKETCHINC
 40
0.1
  9
$FILLETRAD
 40
0.0
  9
$AUNITS
 70
     0
  9
$AUPREC
 70
     0
  9
$MENU
  1
.
  9
$ELEVATION
 40
0.0
  9
$PELEVATION
 40
0.0
  9
$THICKNESS
 40
0.0
  9
$LIMCHECK
 70
     0
  9
$BLIPMODE
 70
     0
  9
$CHAMFERA
 40
0.0
  9
$CHAMFERB
 40
0.0
  9
$SKPOLY
 70
     0
  9
$TDCREATE
 40
2457536.5925396411
  9
$TDUPDATE
 40
2457539.587553299
  9
$TDINDWG
 40
0.25496625
  9
$TDUSRTIMER
 40
0.25496625
  9
$USRTIMER
 70
     1
  9
$ANGBASE
 50
0.0
  9
$ANGDIR
 70
     0
  9
$PDMODE
 70
     0
  9
$PDSIZE
 40
0.3125
  9
$PLINEWID
 40
0.0
  9
$COORDS
 70
     1
  9
$SPLFRAME
 70
     0
  9
$SPLINETYPE
 70
     6
  9
$SPLINESEGS
 70
     8
  9
$ATTDIA
 70
     1
  9
$ATTREQ
 70
     1
  9
$HANDLING
 70
     1
  9
$HANDSEED
  5
BD73
  9
$SURFTAB1
 70
     6
  9
$SURFTAB2
 70
     6
  9
$SURFTYPE
 70
     6
  9
$SURFU
 70
     6
  9
$SURFV
 70
     6
  9
$UCSNAME
  2

  9
$UCSORG
 10
0.0
 20
0.0
 30
0.0
  9
$UCSXDIR
 10
1.0
 20
0.0
 30
0.0
  9
$UCSYDIR
 10
0.0
 20
1.0
 30
0.0
  9
$PUCSNAME
  2

  9
$PUCSORG
 10
0.0
 20
0.0
 30
0.0
  9
$PUCSXDIR
 10
1.0
 20
0.0
 30
0.0
  9
$PUCSYDIR
 10
0.0
 20
1.0
 30
0.0
  9
$USERI1
 70
     0
  9
$USERI2
 70
     0
  9
$USERI3
 70
     0
  9
$USERI4
 70
     0
  9
$USERI5
 70
     0
  9
$USERR1
 40
0.0
  9
$USERR2
 40
0.0
  9
$USERR3
 40
0.0
  9
$USERR4
 40
0.0
  9
$USERR5
 40
0.0
  9
$WORLDVIEW
 70
     1
  9
$SHADEDGE
 70
     3
  9
$SHADEDIF
 70
    70
  9
$TILEMODE
 70
     1
  9
$MAXACTVP
 70
    48
  9
$PLIMCHECK
 70
     0
  9
$PEXTMIN
 10
1.0000000000000000E+020
 20
1.0000000000000000E+020
 30
1.0000000000000000E+020
  9
$PEXTMAX
 10
-1.0000000000000000E+020
 20
-1.0000000000000000E+020
 30
-1.0000000000000000E+020
  9
$PLIMMIN
 10
0.0
 20
0.0
  9
$PLIMMAX
 10
12.0
 20
9.0
  9
$UNITMODE
 70
     0
  9
$VISRETAIN
 70
     1
  9
$PLINEGEN
 70
     0
  9
$PSLTSCALE
 70
     1
  0
ENDSEC
  0
SECTION
  2
TABLES
  0
TABLE
  2
VPORT
 70
     1
  0
VPORT
  2
*ACTIVE
 70
     0
 10
0.0
 20
0.0
 11
1.0
 21
1.0
 12
4.7058325086545159
 22
4.4858083937379627
 13
0.0
 23
0.0
 14
1.0
 24
1.0
 15
0.0
 25
0.0
 16
0.0
 26
0.0
 36
1.0
 17
0.0
 27
0.0
 37
0.0
 40
36.698016913452982
 41
1.798301486199575
 42
50.0
 43
0.0
 44
0.0
 50
0.0
 51
0.0
 71
     0
 72
   100
 73
     1
 74
     1
 75
     0
 76
     0
 77
     0
 78
     0
  0
ENDTAB
  0
TABLE
  2
LTYPE
 70
     2
  0
LTYPE
  2
CONTINUOUS
 70
     0
  3
Solid line
 72
    65
 73
     0
 40
0.0
  0
ENDTAB
  0
TABLE
  2
LAYER
 70
     3
  0
LAYER
  2
0
 70
     0
 62
     7
  6
CONTINUOUS
  0
LAYER
  2
DEFPOINTS
 70
     0
 62
     7
  6
CONTINUOUS
  0
ENDTAB
  0
TABLE
  2
STYLE
 70
     1
  0
STYLE
  2
STANDARD
 70
     0
 40
0.0
 41
0.8
 50
0.0
 71
     0
 42
0.2
  3
txt
  4

  0
ENDTAB
  0
TABLE
  2
VIEW
 70
    15
  0
ENDTAB
  0
TABLE
  2
UCS
 70
     0
  0
ENDTAB
  0
TABLE
  2
APPID
 70
     6
  0
APPID
  2
ACAD
 70
     0
  0
APPID
  2
ACAD_MLEADERVER
 70
     0
  0
APPID
  2
ACAD_EXEMPT_FROM_CAD_STANDARDS
 70
     0
  0
APPID
  2
ACAD_NAV_VCDISPLAY
 70
     0
  0
APPID
  2
ACDBATTR
 70
     0
  0
APPID
  2
ACAD_DSTYLE_DIMRADIAL_EXTENSION
 70
     0
  0
ENDTAB
  0
TABLE
  2
DIMSTYLE
 70
     2
  0
DIMSTYLE
  2
STANDARD
 70
     0
  3

  4

  5

  6

  7

 40
1.0
 41
0.1875
 42
0.0625
 43
0.38
 44
0.125
 45
0.0
 46
0.0
 47
1.5
 48
1.5
140
0.15625
141
0.09
142
0.0
143
25.399999999999999
144
1.0
145
0.0
146
1.0
147
0.09
 71
     0
 72
     0
 73
     1
 74
     1
 75
     0
 76
     0
 77
     0
 78
     4
170
     0
171
     2
172
     0
173
     0
174
     0
175
     0
176
     0
177
     0
178
     0
  0
ENDTAB
  0
ENDSEC
  0
SECTION
  2
BLOCKS
  0
BLOCK
  8
0
  2
$MODEL_SPACE
 70
     0
 10
0.0
 20
0.0
 30
0.0
  3
$MODEL_SPACE
  1

  0
ENDBLK
  5
21
  8
0
  0
BLOCK
 67
     1
  8
0
  2
$PAPER_SPACE
 70
     0
 10
0.0
 20
0.0
 30
0.0
  3
$PAPER_SPACE
  1

  0
ENDBLK
  5
1D
 67
     1
  8
0
  0
ENDSEC
  0
SECTION
  2
ENTITIES
  0
LINE
  5
593
  8
0
 10
0.145716961399998
 20
-5.8184701026999992
 30
0.0
 11
-0.0726610879901299
 21
-5.8191681154999992
 31
0.0
  0
LINE
  5
594
  8
0
 10
-0.5737705443101754
 20
-5.8191681155000001
 30
0.0
 11
-0.7922830386000009
 21
-5.8184701026999992
 31
0.0
  0
LINE
  5
595
  8
0
 10
-0.7920330385999997
 20
-5.7984701026999987
 30
0.0
 11
-0.5737687757735452
 21
-5.7984701026999979
 31
0.0
  0
LINE
  5
596
  8
0
 10
-0.0726607574704564
 20
-5.7984701026999987
 30
0.0
 11
0.1454669614000004
 21
-5.7984701026999987
 31
0.0
  0
LINE
  5
7FD
  8
0
 10
-0.9044459116
 20
-1.9984701026999989
 30
0.0
 11
-0.5734088317000001
 21
-1.9984701026999989
 31
0.0
  0
LINE
  5
7FE
  8
0
 10
-0.0726000765359563
 20
-1.9984701026999989
 30
0.0
 11
0.2580355858
 21
-1.9984701026999989
 31
0.0
  0
LINE
  5
803
  8
0
 10
-0.8525886412
 20
-1.7984701027000001
 30
0.0
 11
-0.5738572789000001
 21
-1.7984701027000001
 31
0.0
  0
LINE
  5
804
  8
0
 10
0.2061736954
 20
-1.7984701027000001
 30
0.0
 11
-0.0730259447
 21
-1.7984701027000001
 31
0.0
  0
LINE
  5
80D
  8
0
 10
-0.6355412505000001
 20
-1.6458585812999991
 30
0.0
 11
-0.0108689385
 21
-1.6458585812999991
 31
0.0
  0
LINE
  5
870
  8
0
 10
-0.7579597515000001
 20
-0.8374787081999999
 30
0.0
 11
-0.7718970011000002
 21
-0.4844054854000001
 31
0.0
  0
LINE
  5
872
  8
0
 10
-0.7922830386072988
 20
-5.8784701027659327
 30
0.0
 11
-0.7922830386000009
 21
-5.8184701026999992
 31
0.0
  0
LINE
  5
879
  8
0
 10
-0.9394415933999999
 20
-1.9640809379999999
 30
0.0
 11
-0.9431944322999999
 21
-1.749080938899999
 31
0.0
  0
LINE
  5
895
  8
0
 10
-0.9431944322999999
 20
-1.7478592659000001
 30
0.0
 11
-0.9431944322999999
 21
-1.749080938899999
 31
0.0
  0
LINE
  5
896
  8
0
 10
-0.8782050945
 20
8.0935298972999998
 30
0.0
 11
-0.8782050945
 21
4.4375298973000001
 31
0.0
  0
LINE
  5
897
  8
0
 10
-0.8782050945
 20
4.3715298973000003
 30
0.0
 11
-0.8782050945
 21
-0.3784701027
 31
0.0
  0
LINE
  5
898
  8
0
 10
-0.8732050945000001
 20
8.1835298972999997
 30
0.0
 11
-0.8732050945000001
 21
8.1175298973000007
 31
0.0
  0
LINE
  5
899
  8
0
 10
-0.8682050945000001
 20
4.4175298972999997
 30
0.0
 11
-0.8682050945000001
 21
4.3775298972999996
 31
0.0
  0
LINE
  5
89A
  8
0
 10
-0.7920330385999997
 20
18.951529897299999
 30
0.0
 11
-0.7956550945000001
 21
8.1955298973000001
 31
0.0
  0
LINE
  5
89B
  8
0
 10
-0.7956550945000001
 20
4.4255298972999997
 30
0.0
 11
-0.7956550945000001
 21
4.4175298972999997
 31
0.0
  0
LINE
  5
89C
  8
0
 10
-0.7956550945000001
 20
4.3775298972999996
 30
0.0
 11
-0.7956550945000001
 21
4.3715298973000003
 31
0.0
  0
LINE
  5
89D
  8
0
 10
-0.7920330385999997
 20
-5.7984701026999987
 30
0.0
 11
-0.7920330385999997
 21
-1.9984701026999989
 31
0.0
  0
LINE
  5
89E
  8
0
 10
-0.7932050945000001
 20
-0.3984701027000001
 30
0.0
 11
-0.7932050945000001
 21
-0.4484701027000001
 31
0.0
  0
LINE
  5
8A0
  8
0
 10
-0.6753144525
 20
4.3715298973000003
 30
0.0
 11
-0.6753144525
 21
4.3775298972999996
 31
0.0
  0
LINE
  5
8CF
  8
0
 10
-0.9174482115000001
 20
-0.2728592676
 30
0.0
 11
-0.9431944322999999
 21
-1.7478592659000001
 31
0.0
  0
LINE
  5
8D0
  8
0
 10
-0.872048435
 20
-0.8728592684999998
 30
0.0
 11
-0.8875834428
 21
-1.7628592682999999
 31
0.0
  0
LINE
  5
8D1
  8
0
 10
-0.6376084492000002
 20
-1.7640808168
 30
0.0
 11
-0.6220734415
 21
-0.8740808216999999
 31
0.0
  0
LINE
  5
8D2
  8
0
 10
-0.6798020891
 20
-0.8728592484
 30
0.0
 11
-0.6956967928
 21
-1.7628592418
 31
0.0
  0
LINE
  5
97A
  8
0
 10
0.1906434456
 20
-0.8384701027
 30
0.0
 11
0.0106543019
 21
-0.8384701027
 31
0.0
  0
LINE
  5
97B
  8
0
 10
-0.6570644909000001
 20
-0.8384701027
 30
0.0
 11
-0.8370536346999999
 21
-0.8384701027
 31
0.0
  0
LINE
  5
980
  8
0
 10
0.1267949055
 20
-0.4684701027000001
 30
0.0
 11
-0.7731991919
 21
-0.4684701027000001
 31
0.0
  0
LINE
  5
983
  8
0
 10
-0.8782830386
 20
-0.3784701027
 30
0.0
 11
0.2318728496
 21
-0.3784701027
 31
0.0
  0
LINE
  5
9DA
  8
0
 10
0.0492866039
 20
-1.7628592418
 30
0.0
 11
0.0333919001
 21
-0.8728592468999998
 31
0.0
  0
LINE
  5
9DB
  8
0
 10
-0.0243403674
 20
-0.8740809369
 30
0.0
 11
-0.0088053596
 21
-1.764080936899999
 31
0.0
  0
LINE
  5
9DC
  8
0
 10
0.225638246
 20
-0.8728592684999998
 30
0.0
 11
0.2411732538
 21
-1.7628592682999999
 31
0.0
  0
LINE
  5
9DD
  8
0
 10
0.2710380226
 20
-0.2728592676
 30
0.0
 11
0.2967842432999999
 21
-1.7478592659000001
 31
0.0
  0
LINE
  5
A4A
  8
0
 10
0.1467949055
 20
-0.3984701027000001
 30
0.0
 11
0.1467949055
 21
-0.4484701027000001
 31
0.0
  0
LINE
  5
A4B
  8
0
 10
0.1454669614000004
 20
18.951529897299999
 30
0.0
 11
0.1492449055
 21
8.1955298973000001
 31
0.0
  0
LINE
  5
A4E
  8
0
 10
0.1454669614000004
 20
-5.7984701026999987
 30
0.0
 11
0.1454669614000004
 21
-1.9984701026999989
 31
0.0
  0
LINE
  5
A4F
  8
0
 10
0.2217949055
 20
4.3775298972999996
 30
0.0
 11
0.2217949055
 21
4.4175298972999997
 31
0.0
  0
LINE
  5
A50
  8
0
 10
0.2267949055
 20
8.1835298972999997
 30
0.0
 11
0.2267949055
 21
8.1175298973000007
 31
0.0
  0
LINE
  5
A51
  8
0
 10
0.2317949055
 20
-0.3784701027
 30
0.0
 11
0.2317949055
 21
4.3715298973000003
 31
0.0
  0
LINE
  5
A52
  8
0
 10
0.2317949055
 20
4.4375298973000001
 30
0.0
 11
0.2317949055
 21
8.0935298972999998
 31
0.0
  0
LINE
  5
A94
  8
0
 10
0.2930314044
 20
-1.964080937499999
 30
0.0
 11
0.2967842432999999
 21
-1.749080938899999
 31
0.0
  0
LINE
  5
A96
  8
0
 10
0.145716961399998
 20
-5.8784701026999988
 30
0.0
 11
0.145716961399998
 21
-5.8184701026999992
 31
0.0
  0
LINE
  5
A97
  8
0
 10
0.1115539899
 20
-0.8373665495999999
 30
0.0
 11
0.1254868122
 21
-0.4844054854000001
 31
0.0
  0
LINE
  5
F63
  8
0
 10
0.2318728496
 20
4.3715298973000003
 30
0.0
 11
-0.8782830386
 21
4.3715298973000003
 31
0.0
  0
LINE
  5
F64
  8
0
 10
-0.8682530103999999
 20
4.3775298972999996
 30
0.0
 11
0.2218428214
 21
4.3775298972999996
 31
0.0
  0
LINE
  5
F65
  8
0
 10
0.2218428214
 20
4.4175298972999997
 30
0.0
 11
-0.8682530103999999
 21
4.4175298972999997
 31
0.0
  0
LINE
  5
F67
  8
0
 10
-0.8662125448000001
 20
4.4255298972999997
 30
0.0
 11
0.2198023558
 21
4.4255298972999997
 31
0.0
  0
LINE
  5
1256
  8
0
 10
-0.8612050945000001
 20
8.1055298973000003
 30
0.0
 11
-0.7952050945
 21
8.1055298973000003
 31
0.0
  0
LINE
  5
1259
  8
0
 10
0.2198023652
 20
8.1055298973000003
 30
0.0
 11
-0.8662125540999999
 21
8.1055298973000003
 31
0.0
  0
LINE
  5
125C
  8
0
 10
0.2147949055
 20
8.1955298973000001
 30
0.0
 11
-0.8612050945000001
 21
8.1955298973000001
 31
0.0
  0
LINE
  5
134B
  8
0
 10
9.2777947491999981
 20
20.178632783000001
 30
0.0
 11
9.2687504686000004
 21
20.3634961508
 31
0.0
  0
LINE
  5
140A
  8
0
 10
9.3202773851000007
 20
20.178632783000001
 30
0.0
 11
9.3202773851000007
 21
19.918824806700002
 31
0.0
  0
LINE
  5
14C7
  8
0
 10
10.0650136366
 20
20.178632783000001
 30
0.0
 11
10.0650136366
 21
19.918824806700002
 31
0.0
  0
LINE
  5
152D
  8
0
 10
10.1154703441
 20
20.424985704000001
 30
0.0
 11
10.141337417500001
 21
21.080277902599999
 31
0.0
  0
LINE
  5
152F
  8
0
 10
10.107496272500001
 20
20.178632783000001
 30
0.0
 11
10.1165405531
 21
20.3634961508
 31
0.0
  0
LINE
  5
1B03
  8
0
 10
9.3202781126000005
 20
19.918824806700002
 30
0.0
 11
10.0650129091
 21
19.918824806700002
 31
0.0
  0
LINE
  5
1B04
  8
0
 10
9.2777960940999993
 20
20.178632783000001
 30
0.0
 11
10.107492452300001
 21
20.178632783000001
 31
0.0
  0
LINE
  5
1B05
  8
0
 10
10.1165419729
 20
20.3634961508
 30
0.0
 11
9.2687490488000002
 21
20.3634961508
 31
0.0
  0
LINE
  5
1B4B
  8
0
 10
9.2698215036999994
 20
20.424985704000001
 30
0.0
 11
10.115469517999999
 21
20.424985704000001
 31
0.0
  0
ARC
  5
3CEC
  8
0
 10
-0.7722830386000049
 20
-5.8784701027000041
 30
0.0
 40
0.0199999999999959
 50
179.99999999998721
 51
270.00224787871048
  0
ARC
  5
3D11
  8
0
 10
-0.3232050945
 20
-4.7984701026999987
 30
0.0
 40
1.1149999999999991
 50
115.1192828018
 51
245.2097913495144
  0
ARC
  5
3D12
  8
0
 10
-0.3232050945
 20
-4.7984701026999987
 30
0.0
 40
1.1149999999999991
 50
294.74965560769999
 51
64.880717198200003
  0
ARC
  5
3D20
  8
0
 10
0.1257169614051603
 20
-5.87847010271246
 30
0.0
 40
0.0199999999875387
 50
269.9977521065108
 51
0.0000002245853273
  0
ARC
  5
3D26
  8
0
 10
0.2580367351
 20
-1.9634701027000001
 30
0.0
 40
0.035
 50
269.99995014789999
 51
358.99999901799998
  0
ARC
  5
3D6D
  8
0
 10
9.2888016487999998
 20
20.394473255699999
 30
0.0
 40
0.0309771049
 50
99.936367071399999
 51
235.98727341430001
  0
ARC
  5
3D71
  8
0
 10
10.096489372900001
 20
20.394473255699999
 30
0.0
 40
0.0309771049
 50
304.01272658570002
 51
80.063632928599986
  0
ARC
  5
3D7B
  8
0
 10
10.1263642924
 20
21.0809658702
 30
0.0
 40
0.0149889217
 50
357.36929088269989
 51
90.0
  0
ARC
  5
3FBF
  8
0
 10
0.2356745236457711
 20
-0.2736285645383947
 30
0.0
 40
0.0353718655968109
 50
1.2462134078209439
 51
96.296921336518366
  0
ARC
  5
3FC0
  8
0
 10
-0.8820847125616205
 20
-0.2736285645316002
 30
0.0
 40
0.0353718655808278
 50
83.703078797760227
 51
178.7537865987814
  0
ARC
  5
3FC1
  8
0
 10
-0.7732050945
 20
-0.3984701027
 30
0.0
 40
0.02
 50
90.000000000000313
 51
180.00000000000011
  0
ARC
  5
3FC2
  8
0
 10
-0.7732050944999998
 20
-0.4484701026999999
 30
0.0
 40
0.0200000000000004
 50
180.00000000000051
 51
269.99999999999898
  0
ARC
  5
3FC4
  8
0
 10
-0.7564833643526694
 20
-0.483882442598159
 30
0.0
 40
0.015422508601107
 50
92.080734965595624
 51
181.94351603723661
  0
ARC
  5
3FC5
  8
0
 10
0.1267896983553742
 20
-0.3984722595699253
 30
0.0
 40
0.0200052072608977
 50
0.006177368837097
 51
89.580658086099504
  0
ARC
  5
3FC6
  8
0
 10
0.1267949055
 20
-0.4484701027000001
 30
0.0
 40
0.02
 50
270.00000000000011
 51
0.0
  0
ARC
  5
3FC7
  8
0
 10
0.1105136869840877
 20
-0.4837175178434002
 30
0.0
 40
0.0149889218137982
 50
357.36929107266059
 51
89.994446932756915
  0
ARC
  5
3FC8
  8
0
 10
-0.85258877339958
 20
-1.7634701026998321
 30
0.0
 40
0.0350000000004172
 50
178.99999976918639
 51
270.00021641365669
  0
ARC
  5
3FC9
  8
0
 10
-0.6548219579084681
 20
-1.7652334561758301
 30
0.0
 40
0.0409281786494083
 50
177.10267194734209
 51
224.2130172410146
  0
ARC
  5
3FCA
  8
0
 10
-0.6699451191086575
 20
-1.7753671518500129
 30
0.0
 40
0.0232549364435131
 50
232.32746491449879
 51
301.70898300996032
  0
ARC
  5
3FCB
  8
0
 10
-0.6726231410830185
 20
-1.7634361204618909
 30
0.0
 40
0.0350408097022112
 50
295.16618039322458
 51
357.94673055425011
  0
ARC
  5
3FCC
  8
0
 10
-0.6354119271359791
 20
-0.8722042380119184
 30
0.0
 40
0.0443942460657036
 50
147.41228392158629
 51
180.8454213697776
  0
ARC
  5
3FCE
  8
0
 10
-0.6553657382221876
 20
-0.8587357036710381
 30
0.0
 40
0.0203366748379033
 50
94.791584975345089
 51
149.1064087131524
  0
ARC
  5
3FCF
  8
0
 10
-0.6570619525489184
 20
-0.8734640494197208
 30
0.0
 40
0.0349939468117846
 50
358.99010309860029
 51
90.004156096951164
  0
ARC
  5
3FD0
  8
0
 10
-0.8370537655999997
 20
-0.8734701026999999
 30
0.0
 40
0.0350000000000003
 50
90.000001613800336
 51
179.00000004143109
  0
ARC
  5
3FD1
  8
0
 10
0.0106535202203162
 20
-0.8734647498422642
 30
0.0
 40
0.034995690751815
 50
115.99555223120321
 51
181.00869767859911
  0
ARC
  5
3FD2
  8
0
 10
0.0078677660009949
 20
-0.8614023299880603
 30
0.0
 40
0.0231009054088299
 50
52.544038991290613
 51
122.915018011941
  0
ARC
  5
3FD3
  8
0
 10
-0.007413444034615
 20
-0.8714668369209196
 30
0.0
 40
0.0408283465553768
 50
358.04557535957571
 51
44.079528425759193
  0
ARC
  5
3FD4
  8
0
 10
0.1909179023577872
 20
-0.8726295777230708
 30
0.0
 40
0.0341605765165189
 50
53.389191897431523
 51
90.460115814506295
  0
ARC
  5
3FD5
  8
0
 10
0.1906435767
 20
-0.8734701026999999
 30
0.0
 40
0.035
 50
0.9999999735999944
 51
53.849309136337908
  0
ARC
  5
3FD6
  8
0
 10
0.0261893096999999
 20
-1.763470102699999
 30
0.0
 40
0.0349999999999999
 50
181.0000000127003
 51
270.00000000000023
  0
ARC
  5
3FD7
  8
0
 10
0.0246789623502913
 20
-1.777921314212096
 30
0.0
 40
0.0206042194085909
 50
274.20371249420231
 51
330.08466863060119
  0
ARC
  5
3FD8
  8
0
 10
0.0023109311070625
 20
-1.763915035289715
 30
0.0
 40
0.0469875359456319
 50
328.88379207847788
 51
1.2875244728785611
  0
ARC
  5
3FD9
  8
0
 10
0.2061785845247827
 20
-1.763470102751304
 30
0.0
 40
0.034999999948696
 50
269.99998456803019
 51
1.0000003714879351
  0
LINE
  5
3FDA
  8
0
 10
-0.5734139569
 20
-1.6458585812999991
 30
0.0
 11
-0.5739706995000001
 21
-8.1616780812999998
 31
0.0
  0
LINE
  5
3FDB
  8
0
 10
-0.0726961181
 20
-8.0128458925999997
 30
0.0
 11
-0.0725944458
 21
-1.6458585812999991
 31
0.0
  0
ARC
  5
3FDE
  8
0
 10
5.1954878885958493
 20
-8.2192437044780409
 30
0.0
 40
5.7697457656923516
 50
179.42834188719311
 51
210.58867794064611
  0
ARC
  5
3FDF
  8
0
 10
4.7260157620737777
 20
-8.5505496622938981
 30
0.0
 40
5.1972183111542618
 50
210.0782300887123
 51
271.69828195311248
  0
ARC
  5
3FE0
  8
0
 10
4.5297597717350939
 20
-8.3513773643870106
 30
0.0
 40
5.4047596516601359
 50
273.68986629771172
 51
355.48246014994697
  0
ARC
  5
3FEC
  8
0
 10
-19.465344656487879
 20
-7.4588983368245589
 30
0.0
 40
29.41262614484376
 50
357.4313237417835
 51
0.7966604458419498
  0
LINE
  5
3FED
  8
0
 10
9.9444383496000004
 20
-7.0499481305999989
 30
0.0
 11
9.9444422876796423
 21
19.918824806700002
 31
0.0
  0
LINE
  5
3FEE
  8
0
 10
9.4436685586000007
 20
19.918824806700002
 30
0.0
 11
9.4429029202999981
 21
-8.0196257818000003
 31
0.0
  0
ARC
  5
3FEF
  8
0
 10
4.209012202327143
 20
-8.2176510973854953
 30
0.0
 40
5.2376355422361289
 50
321.3095905584949
 51
2.1667639097662379
  0
ARC
  5
3FF0
  8
0
 10
4.6948005630153036
 20
-8.675089113034236
 30
0.0
 40
4.5728222033294443
 50
235.2107735759175
 51
321.97836565326747
  0
ARC
  5
3FF1
  8
0
 10
5.061378865776935
 20
-8.2405470414441933
 30
0.0
 40
5.1391218854251646
 50
177.46054140721409
 51
234.6184992576338
  0
ARC
  5
4004
  8
0
 10
-0.4332690150144252
 20
7.5655298975203902
 30
0.0
 40
0.0625011614098804
 50
89.650631059956552
 51
270.34927259146031
  0
ARC
  5
4005
  8
0
 10
-0.4319285294795429
 20
7.5655298973000003
 30
0.0
 40
0.0625073643351429
 50
269.12047938838822
 51
90.879520611591275
  0
ARC
  5
4006
  8
0
 10
-0.4332707393328292
 20
7.5755293382435758
 30
0.0
 40
0.0144200413295374
 50
90.227100495987528
 51
270.7487805707172
  0
ARC
  5
4007
  8
0
 10
-0.4331394495671725
 20
7.5755304563564199
 30
0.0
 40
0.0144200413295366
 50
270.22710049603609
 51
90.748780570694421
  0
ARC
  5
4008
  8
0
 10
-0.4326128418914585
 20
7.5746415565921561
 30
0.0
 40
0.0379201648871461
 50
275.34406043457062
 51
95.560181537508356
  0
ARC
  5
4009
  8
0
 10
-0.4330172534062655
 20
7.5746029572432798
 30
0.0
 40
0.0379215748021531
 50
94.946367881724782
 51
275.95787409034898
  0
ARC
  5
401B
  8
0
 10
-0.2129103476692646
 20
7.565707172432349
 30
0.0
 40
0.0625011614098804
 50
89.650631059956552
 51
270.34927259146031
  0
ARC
  5
401C
  8
0
 10
-0.2115698621343824
 20
7.5657071722119591
 30
0.0
 40
0.0625073643351429
 50
269.12047938838822
 51
90.879520611591275
  0
ARC
  5
401D
  8
0
 10
-0.2129120719876687
 20
7.5757066131555364
 30
0.0
 40
0.0144200413295374
 50
90.227100495987528
 51
270.7487805707172
  0
ARC
  5
401E
  8
0
 10
-0.212780782222012
 20
7.5757077312683796
 30
0.0
 40
0.0144200413295366
 50
270.22710049603609
 51
90.748780570694393
  0
ARC
  5
401F
  8
0
 10
-0.212254174546298
 20
7.5748188315041158
 30
0.0
 40
0.0379201648871461
 50
275.34406043457062
 51
95.560181537508313
  0
ARC
  5
4020
  8
0
 10
-0.212658586061105
 20
7.5747802321552404
 30
0.0
 40
0.0379215748021531
 50
94.946367881724782
 51
275.95787409034898
  0
ARC
  5
4021
  8
0
 10
-0.3237799071809488
 20
7.466092446142464
 30
0.0
 40
0.0625011614098804
 50
89.650631059956552
 51
270.34927259146031
  0
ARC
  5
4022
  8
0
 10
-0.3224394216460666
 20
7.4660924459220741
 30
0.0
 40
0.0625073643351429
 50
269.12047938838822
 51
90.879520611591275
  0
ARC
  5
4023
  8
0
 10
-0.3237816314993529
 20
7.4760918868656496
 30
0.0
 40
0.0144200413295374
 50
90.227100495987528
 51
270.7487805707172
  0
ARC
  5
4024
  8
0
 10
-0.3236503417336962
 20
7.4760930049784937
 30
0.0
 40
0.0144200413295366
 50
270.22710049603609
 51
90.748780570694393
  0
ARC
  5
4025
  8
0
 10
-0.3231237340579822
 20
7.47520410521423
 30
0.0
 40
0.0379201648871461
 50
275.34406043457062
 51
95.560181537508313
  0
ARC
  5
4026
  8
0
 10
-0.3235281455727892
 20
7.4751655058653537
 30
0.0
 40
0.0379215748021531
 50
94.946367881724782
 51
275.95787409034898
  0
ARC
  5
4027
  8
0
 10
-0.5433740915672728
 20
7.4653231906202198
 30
0.0
 40
0.0625011614098804
 50
89.650631059956552
 51
270.34927259146031
  0
ARC
  5
4028
  8
0
 10
-0.5420336060323905
 20
7.4653231903998298
 30
0.0
 40
0.0625073643351429
 50
269.12047938838822
 51
90.879520611591275
  0
ARC
  5
4029
  8
0
 10
-0.5433758158856767
 20
7.4753226313434071
 30
0.0
 40
0.0144200413295374
 50
90.227100495987528
 51
270.7487805707172
  0
ARC
  5
402A
  8
0
 10
-0.5432445261200201
 20
7.4753237494562512
 30
0.0
 40
0.0144200413295366
 50
270.22710049603609
 51
90.748780570694393
  0
ARC
  5
402B
  8
0
 10
-0.5427179184443061
 20
7.4744348496919866
 30
0.0
 40
0.0379201648871461
 50
275.34406043457062
 51
95.560181537508313
  0
ARC
  5
402C
  8
0
 10
-0.543122329959113
 20
7.4743962503431112
 30
0.0
 40
0.0379215748021531
 50
94.946367881724782
 51
275.95787409034898
  0
ARC
  5
402D
  8
0
 10
-0.4328296306203752
 20
7.3654960701876702
 30
0.0
 40
0.0625011614098804
 50
89.650631059956552
 51
270.34927259146031
  0
ARC
  5
402E
  8
0
 10
-0.431489145085493
 20
7.3654960699672802
 30
0.0
 40
0.0625073643351429
 50
269.12047938838822
 51
90.879520611591275
  0
ARC
  5
402F
  8
0
 10
-0.4328313549387792
 20
7.3754955109108558
 30
0.0
 40
0.0144200413295374
 50
90.227100495987528
 51
270.7487805707172
  0
ARC
  5
4030
  8
0
 10
-0.4327000651731226
 20
7.3754966290236998
 30
0.0
 40
0.0144200413295366
 50
270.22710049603609
 51
90.748780570694393
  0
ARC
  5
4031
  8
0
 10
-0.4321734574974086
 20
7.3746077292594361
 30
0.0
 40
0.0379201648871461
 50
275.34406043457062
 51
95.560181537508313
  0
ARC
  5
4032
  8
0
 10
-0.4325778690122155
 20
7.3745691299105598
 30
0.0
 40
0.0379215748021531
 50
94.946367881724782
 51
275.95787409034898
  0
ARC
  5
4033
  8
0
 10
-0.2143903462521448
 20
7.3655030953522482
 30
0.0
 40
0.0625011614098804
 50
89.650631059956552
 51
270.34927259146031
  0
ARC
  5
4034
  8
0
 10
-0.2130498607172626
 20
7.3655030951318583
 30
0.0
 40
0.0625073643351429
 50
269.12047938838822
 51
90.879520611591275
  0
ARC
  5
4035
  8
0
 10
-0.2143920705705489
 20
7.3755025360754338
 30
0.0
 40
0.0144200413295374
 50
90.227100495987528
 51
270.7487805707172
  0
ARC
  5
4036
  8
0
 10
-0.2142607808048922
 20
7.3755036541882779
 30
0.0
 40
0.0144200413295366
 50
270.22710049603609
 51
90.748780570694393
  0
ARC
  5
4037
  8
0
 10
-0.2137341731291782
 20
7.374614754424015
 30
0.0
 40
0.0379201648871461
 50
275.34406043457062
 51
95.560181537508313
  0
ARC
  5
4038
  8
0
 10
-0.2141385846439852
 20
7.3745761550751379
 30
0.0
 40
0.0379215748021531
 50
94.946367881724782
 51
275.95787409034898
  0
ARC
  5
4039
  8
0
 10
-0.1042695241085878
 20
7.2656821804817557
 30
0.0
 40
0.0625011614098804
 50
89.650631059956552
 51
270.34927259146031
  0
ARC
  5
403A
  8
0
 10
-0.1029290385737056
 20
7.2656821802613658
 30
0.0
 40
0.0625073643351429
 50
269.12047938838822
 51
90.879520611591275
  0
ARC
  5
403B
  8
0
 10
-0.1042712484269919
 20
7.2756816212049431
 30
0.0
 40
0.0144200413295374
 50
90.227100495987528
 51
270.7487805707172
  0
ARC
  5
403C
  8
0
 10
-0.1041399586613352
 20
7.2756827393177872
 30
0.0
 40
0.0144200413295366
 50
270.22710049603609
 51
90.748780570694393
  0
ARC
  5
403D
  8
0
 10
-0.1036133509856212
 20
7.2747938395535234
 30
0.0
 40
0.0379201648871461
 50
275.34406043457062
 51
95.560181537508313
  0
ARC
  5
403E
  8
0
 10
-0.1040177625004282
 20
7.2747552402046471
 30
0.0
 40
0.0379215748021531
 50
94.946367881724782
 51
275.95787409034898
  0
ARC
  5
403F
  8
0
 10
-0.2131114287116131
 20
7.1660601948551301
 30
0.0
 40
0.0625011614098804
 50
89.650631059956552
 51
270.34927259146031
  0
ARC
  5
4040
  8
0
 10
-0.2117709431767309
 20
7.1660601946347402
 30
0.0
 40
0.0625073643351429
 50
269.12047938838822
 51
90.879520611591275
  0
ARC
  5
4041
  8
0
 10
-0.2131131530300172
 20
7.1760596355783157
 30
0.0
 40
0.0144200413295374
 50
90.227100495987528
 51
270.7487805707172
  0
ARC
  5
4042
  8
0
 10
-0.2129818632643605
 20
7.1760607536911598
 30
0.0
 40
0.0144200413295366
 50
270.22710049603609
 51
90.748780570694393
  0
ARC
  5
4043
  8
0
 10
-0.2124552555886465
 20
7.175171853926896
 30
0.0
 40
0.0379201648871461
 50
275.34406043457062
 51
95.560181537508313
  0
ARC
  5
4044
  8
0
 10
-0.2128596671034535
 20
7.1751332545780198
 30
0.0
 40
0.0379215748021531
 50
94.946367881724782
 51
275.95787409034898
  0
ARC
  5
4045
  8
0
 10
-0.103409402581917
 20
7.065298376274308
 30
0.0
 40
0.0625011614098804
 50
89.650631059956552
 51
270.34927259146031
  0
ARC
  5
4046
  8
0
 10
-0.1020689170470348
 20
7.0652983760539181
 30
0.0
 40
0.0625073643351429
 50
269.12047938838822
 51
90.879520611591275
  0
ARC
  5
4047
  8
0
 10
-0.1034111269003211
 20
7.0752978169974954
 30
0.0
 40
0.0144200413295374
 50
90.227100495987528
 51
270.7487805707172
  0
ARC
  5
4048
  8
0
 10
-0.1032798371346644
 20
7.0752989351103386
 30
0.0
 40
0.0144200413295366
 50
270.22710049603609
 51
90.748780570694393
  0
ARC
  5
4049
  8
0
 10
-0.1027532294589504
 20
7.0744100353460748
 30
0.0
 40
0.0379201648871461
 50
275.34406043457062
 51
95.560181537508313
  0
ARC
  5
404A
  8
0
 10
-0.1031576409737573
 20
7.0743714359971994
 30
0.0
 40
0.0379215748021531
 50
94.946367881724782
 51
275.95787409034898
  0
ARC
  5
404B
  8
0
 10
-0.2135201180343242
 20
6.9654623572999359
 30
0.0
 40
0.0625011614098804
 50
89.650631059956552
 51
270.34927259146031
  0
ARC
  5
404C
  8
0
 10
-0.212179632499442
 20
6.965462357079546
 30
0.0
 40
0.0625073643351429
 50
269.12047938838822
 51
90.879520611591275
  0
ARC
  5
404D
  8
0
 10
-0.2135218423527283
 20
6.9754617980231233
 30
0.0
 40
0.0144200413295374
 50
90.227100495987528
 51
270.7487805707172
  0
ARC
  5
404E
  8
0
 10
-0.2133905525870716
 20
6.9754629161359674
 30
0.0
 40
0.0144200413295366
 50
270.22710049603609
 51
90.748780570694393
  0
ARC
  5
404F
  8
0
 10
-0.2128639449113576
 20
6.9745740163717027
 30
0.0
 40
0.0379201648871461
 50
275.34406043457062
 51
95.560181537508313
  0
ARC
  5
4050
  8
0
 10
-0.2132683564261646
 20
6.9745354170228273
 30
0.0
 40
0.0379215748021531
 50
94.946367881724782
 51
275.95787409034898
  0
ARC
  5
4051
  8
0
 10
-0.1039027354428865
 20
6.8656352368673863
 30
0.0
 40
0.0625011614098804
 50
89.650631059956552
 51
270.34927259146031
  0
ARC
  5
4052
  8
0
 10
-0.1025622499080043
 20
6.8656352366469964
 30
0.0
 40
0.0625073643351429
 50
269.12047938838822
 51
90.879520611591275
  0
ARC
  5
4053
  8
0
 10
-0.1039044597612906
 20
6.8756346775905719
 30
0.0
 40
0.0144200413295374
 50
90.227100495987528
 51
270.7487805707172
  0
ARC
  5
4054
  8
0
 10
-0.1037731699956339
 20
6.875635795703416
 30
0.0
 40
0.0144200413295366
 50
270.22710049603609
 51
90.748780570694393
  0
ARC
  5
4055
  8
0
 10
-0.1032465623199199
 20
6.8747468959391531
 30
0.0
 40
0.0379201648871461
 50
275.34406043457062
 51
95.560181537508313
  0
ARC
  5
4056
  8
0
 10
-0.1036509738347269
 20
6.8747082965902759
 30
0.0
 40
0.0379215748021531
 50
94.946367881724782
 51
275.95787409034898
  0
ARC
  5
4057
  8
0
 10
-0.2135249608238323
 20
6.7654843734334609
 30
0.0
 40
0.0625011614098804
 50
89.650631059956552
 51
270.34927259146031
  0
ARC
  5
4058
  8
0
 10
-0.2121844752889501
 20
6.7654843732130709
 30
0.0
 40
0.0625073643351429
 50
269.12047938838822
 51
90.879520611591275
  0
ARC
  5
4059
  8
0
 10
-0.2135266851422364
 20
6.7754838141566482
 30
0.0
 40
0.0144200413295374
 50
90.227100495987528
 51
270.7487805707172
  0
ARC
  5
405A
  8
0
 10
-0.2133953953765797
 20
6.7754849322694923
 30
0.0
 40
0.0144200413295366
 50
270.22710049603609
 51
90.748780570694393
  0
ARC
  5
405B
  8
0
 10
-0.2128687877008657
 20
6.7745960325052277
 30
0.0
 40
0.0379201648871461
 50
275.34406043457062
 51
95.560181537508313
  0
ARC
  5
405C
  8
0
 10
-0.2132731992156727
 20
6.7745574331563523
 30
0.0
 40
0.0379215748021531
 50
94.946367881724782
 51
275.95787409034898
  0
ARC
  5
405D
  8
0
 10
-0.1037382911558777
 20
6.6654604313063954
 30
0.0
 40
0.0625011614098804
 50
89.650631059956552
 51
270.34927259146031
  0
ARC
  5
405E
  8
0
 10
-0.1023978056209955
 20
6.6654604310860046
 30
0.0
 40
0.0625073643351429
 50
269.12047938838822
 51
90.879520611591275
  0
ARC
  5
405F
  8
0
 10
-0.1037400154742818
 20
6.675459872029581
 30
0.0
 40
0.0144200413295374
 50
90.227100495987528
 51
270.7487805707172
  0
ARC
  5
4060
  8
0
 10
-0.1036087257086251
 20
6.6754609901424251
 30
0.0
 40
0.0144200413295366
 50
270.22710049603609
 51
90.748780570694393
  0
ARC
  5
4061
  8
0
 10
-0.1030821180329111
 20
6.6745720903781622
 30
0.0
 40
0.0379201648871461
 50
275.34406043457062
 51
95.560181537508313
  0
ARC
  5
4062
  8
0
 10
-0.1034865295477181
 20
6.6745334910292851
 30
0.0
 40
0.0379215748021531
 50
94.946367881724782
 51
275.95787409034898
  0
ARC
  5
4063
  8
0
 10
-0.2138593238555015
 20
6.5654556912958757
 30
0.0
 40
0.0625011614098804
 50
89.650631059956552
 51
270.34927259146031
  0
ARC
  5
4064
  8
0
 10
-0.2125188383206193
 20
6.5654556910754858
 30
0.0
 40
0.0625073643351429
 50
269.12047938838822
 51
90.879520611591275
  0
ARC
  5
4065
  8
0
 10
-0.2138610481739056
 20
6.5754551320190631
 30
0.0
 40
0.0144200413295374
 50
90.227100495987528
 51
270.7487805707172
  0
ARC
  5
4066
  8
0
 10
-0.2137297584082489
 20
6.5754562501319072
 30
0.0
 40
0.0144200413295366
 50
270.22710049603609
 51
90.748780570694393
  0
ARC
  5
4067
  8
0
 10
-0.2132031507325349
 20
6.5745673503676434
 30
0.0
 40
0.0379201648871461
 50
275.34406043457062
 51
95.560181537508313
  0
ARC
  5
4068
  8
0
 10
-0.2136075622473419
 20
6.5745287510187671
 30
0.0
 40
0.0379215748021531
 50
94.946367881724782
 51
275.95787409034898
  0
ARC
  5
4069
  8
0
 10
-0.1035732152006969
 20
6.4657806656766281
 30
0.0
 40
0.0625011614098804
 50
89.650631059956552
 51
270.34927259146031
  0
ARC
  5
406A
  8
0
 10
-0.1022327296658148
 20
6.4657806654562382
 30
0.0
 40
0.0625073643351429
 50
269.12047938838822
 51
90.879520611591275
  0
ARC
  5
406B
  8
0
 10
-0.103574939519101
 20
6.4757801063998137
 30
0.0
 40
0.0144200413295374
 50
90.227100495987528
 51
270.7487805707172
  0
ARC
  5
406C
  8
0
 10
-0.1034436497534443
 20
6.4757812245126578
 30
0.0
 40
0.0144200413295366
 50
270.22710049603609
 51
90.748780570694393
  0
ARC
  5
406D
  8
0
 10
-0.1029170420777303
 20
6.474892324748394
 30
0.0
 40
0.0379201648871461
 50
275.34406043457062
 51
95.560181537508313
  0
ARC
  5
406E
  8
0
 10
-0.1033214535925373
 20
6.4748537253995178
 30
0.0
 40
0.0379215748021531
 50
94.946367881724782
 51
275.95787409034898
  0
ARC
  5
406F
  8
0
 10
-0.2133725182325461
 20
6.3654881280902007
 30
0.0
 40
0.0625011614098804
 50
89.650631059956552
 51
270.34927259146031
  0
ARC
  5
4070
  8
0
 10
-0.2120320326976639
 20
6.3654881278698108
 30
0.0
 40
0.0625073643351429
 50
269.12047938838822
 51
90.879520611591275
  0
ARC
  5
4071
  8
0
 10
-0.2133742425509502
 20
6.3754875688133881
 30
0.0
 40
0.0144200413295374
 50
90.227100495987528
 51
270.7487805707172
  0
ARC
  5
4072
  8
0
 10
-0.2132429527852935
 20
6.3754886869262322
 30
0.0
 40
0.0144200413295366
 50
270.22710049603609
 51
90.748780570694393
  0
ARC
  5
4073
  8
0
 10
-0.2127163451095795
 20
6.3745997871619684
 30
0.0
 40
0.0379201648871461
 50
275.34406043457062
 51
95.560181537508313
  0
ARC
  5
4074
  8
0
 10
-0.2131207566243864
 20
6.3745611878130921
 30
0.0
 40
0.0379215748021531
 50
94.946367881724782
 51
275.95787409034898
  0
ARC
  5
4075
  8
0
 10
-0.1037389228240781
 20
6.2659658998007002
 30
0.0
 40
0.0625011614098804
 50
89.650631059956552
 51
270.34927259146031
  0
ARC
  5
4076
  8
0
 10
-0.1023984372891959
 20
6.2659658995803102
 30
0.0
 40
0.0625073643351429
 50
269.12047938838822
 51
90.879520611591275
  0
ARC
  5
4077
  8
0
 10
-0.1037406471424822
 20
6.2759653405238858
 30
0.0
 40
0.0144200413295374
 50
90.227100495987528
 51
270.7487805707172
  0
ARC
  5
4078
  8
0
 10
-0.1036093573768255
 20
6.2759664586367299
 30
0.0
 40
0.0144200413295366
 50
270.22710049603609
 51
90.748780570694393
  0
ARC
  5
4079
  8
0
 10
-0.1030827497011115
 20
6.2750775588724661
 30
0.0
 40
0.0379201648871461
 50
275.34406043457062
 51
95.560181537508313
  0
ARC
  5
407A
  8
0
 10
-0.1034871612159185
 20
6.2750389595235898
 30
0.0
 40
0.0379215748021531
 50
94.946367881724782
 51
275.95787409034898
  0
ARC
  5
407B
  8
0
 10
-0.3233048926976776
 20
7.2652885370927391
 30
0.0
 40
0.0625011614098804
 50
89.650631059956552
 51
270.34927259146031
  0
ARC
  5
407C
  8
0
 10
-0.3219644071627954
 20
7.2652885368723492
 30
0.0
 40
0.0625073643351429
 50
269.12047938838822
 51
90.879520611591275
  0
ARC
  5
407D
  8
0
 10
-0.3233066170160816
 20
7.2752879778159247
 30
0.0
 40
0.0144200413295374
 50
90.227100495987528
 51
270.7487805707172
  0
ARC
  5
407E
  8
0
 10
-0.323175327250425
 20
7.2752890959287688
 30
0.0
 40
0.0144200413295366
 50
270.22710049603609
 51
90.748780570694393
  0
ARC
  5
407F
  8
0
 10
-0.322648719574711
 20
7.2744001961645051
 30
0.0
 40
0.0379201648871461
 50
275.34406043457062
 51
95.560181537508313
  0
ARC
  5
4080
  8
0
 10
-0.3230531310895179
 20
7.2743615968156288
 30
0.0
 40
0.0379215748021531
 50
94.946367881724782
 51
275.95787409034898
  0
ARC
  5
4081
  8
0
 10
-0.5442586375975507
 20
7.2663503907200164
 30
0.0
 40
0.0625011614098804
 50
89.650631059956552
 51
270.34927259146031
  0
ARC
  5
4082
  8
0
 10
-0.5429181520626685
 20
7.2663503904996256
 30
0.0
 40
0.0625073643351429
 50
269.12047938838822
 51
90.879520611591275
  0
ARC
  5
4083
  8
0
 10
-0.5442603619159547
 20
7.276349831443202
 30
0.0
 40
0.0144200413295374
 50
90.227100495987528
 51
270.7487805707172
  0
ARC
  5
4084
  8
0
 10
-0.5441290721502982
 20
7.2763509495560461
 30
0.0
 40
0.0144200413295366
 50
270.22710049603609
 51
90.748780570694393
  0
ARC
  5
4085
  8
0
 10
-0.5436024644745841
 20
7.2754620497917832
 30
0.0
 40
0.0379201648871461
 50
275.34406043457062
 51
95.560181537508313
  0
ARC
  5
4086
  8
0
 10
-0.544006875989391
 20
7.2754234504429061
 30
0.0
 40
0.0379215748021531
 50
94.946367881724782
 51
275.95787409034898
  0
ARC
  5
4087
  8
0
 10
-0.4344254350391735
 20
7.1656828264307491
 30
0.0
 40
0.0625011614098804
 50
89.650631059956552
 51
270.34927259146031
  0
ARC
  5
4088
  8
0
 10
-0.4330849495042913
 20
7.1656828262103591
 30
0.0
 40
0.0625073643351429
 50
269.12047938838822
 51
90.879520611591275
  0
ARC
  5
4089
  8
0
 10
-0.4344271593575775
 20
7.1756822671539346
 30
0.0
 40
0.0144200413295374
 50
90.227100495987528
 51
270.7487805707172
  0
ARC
  5
408A
  8
0
 10
-0.4342958695919208
 20
7.1756833852667787
 30
0.0
 40
0.0144200413295366
 50
270.22710049603609
 51
90.748780570694393
  0
ARC
  5
408B
  8
0
 10
-0.4337692619162068
 20
7.174794485502515
 30
0.0
 40
0.0379201648871461
 50
275.34406043457062
 51
95.560181537508313
  0
ARC
  5
408C
  8
0
 10
-0.4341736734310138
 20
7.1747558861536387
 30
0.0
 40
0.0379215748021531
 50
94.946367881724782
 51
275.95787409034898
  0
ARC
  5
408D
  8
0
 10
-0.323763273251785
 20
7.06625813084292
 30
0.0
 40
0.0625011614098804
 50
89.650631059956552
 51
270.34927259146031
  0
ARC
  5
408E
  8
0
 10
-0.3224227877169028
 20
7.0662581306225301
 30
0.0
 40
0.0625073643351429
 50
269.12047938838822
 51
90.879520611591275
  0
ARC
  5
408F
  8
0
 10
-0.3237649975701891
 20
7.0762575715661074
 30
0.0
 40
0.0144200413295374
 50
90.227100495987528
 51
270.7487805707172
  0
ARC
  5
4090
  8
0
 10
-0.3236337078045324
 20
7.0762586896789514
 30
0.0
 40
0.0144200413295366
 50
270.22710049603609
 51
90.748780570694393
  0
ARC
  5
4091
  8
0
 10
-0.3231071001288184
 20
7.0753697899146868
 30
0.0
 40
0.0379201648871461
 50
275.34406043457062
 51
95.560181537508313
  0
ARC
  5
4092
  8
0
 10
-0.3235115116436253
 20
7.0753311905658114
 30
0.0
 40
0.0379215748021531
 50
94.946367881724782
 51
275.95787409034898
  0
ARC
  5
4093
  8
0
 10
-0.5442586375975507
 20
7.0650152621414666
 30
0.0
 40
0.0625011614098804
 50
89.650631059956552
 51
270.34927259146031
  0
ARC
  5
4094
  8
0
 10
-0.5429181520626685
 20
7.0650152619210767
 30
0.0
 40
0.0625073643351429
 50
269.12047938838822
 51
90.879520611591275
  0
ARC
  5
4095
  8
0
 10
-0.5442603619159547
 20
7.0750147028646531
 30
0.0
 40
0.0144200413295374
 50
90.227100495987528
 51
270.7487805707172
  0
ARC
  5
4096
  8
0
 10
-0.5441290721502982
 20
7.075015820977498
 30
0.0
 40
0.0144200413295366
 50
270.22710049603609
 51
90.748780570694393
  0
ARC
  5
4097
  8
0
 10
-0.5436024644745841
 20
7.0741269212132343
 30
0.0
 40
0.0379201648871461
 50
275.34406043457062
 51
95.560181537508313
  0
ARC
  5
4098
  8
0
 10
-0.544006875989391
 20
7.0740883218643571
 30
0.0
 40
0.0379215748021531
 50
94.946367881724782
 51
275.95787409034898
  0
ARC
  5
4099
  8
0
 10
-0.4330905095852698
 20
6.9660875969481522
 30
0.0
 40
0.0625011614098804
 50
89.650631059956552
 51
270.34927259146031
  0
ARC
  5
409A
  8
0
 10
-0.4317500240503876
 20
6.9660875967277622
 30
0.0
 40
0.0625073643351429
 50
269.12047938838822
 51
90.879520611591275
  0
ARC
  5
409B
  8
0
 10
-0.4330922339036738
 20
6.9760870376713378
 30
0.0
 40
0.0144200413295374
 50
90.227100495987528
 51
270.7487805707172
  0
ARC
  5
409C
  8
0
 10
-0.4329609441380172
 20
6.9760881557841818
 30
0.0
 40
0.0144200413295366
 50
270.22710049603609
 51
90.748780570694393
  0
ARC
  5
409D
  8
0
 10
-0.4324343364623032
 20
6.9751992560199181
 30
0.0
 40
0.0379201648871461
 50
275.34406043457062
 51
95.560181537508313
  0
ARC
  5
409E
  8
0
 10
-0.4328387479771101
 20
6.9751606566710418
 30
0.0
 40
0.0379215748021531
 50
94.946367881724782
 51
275.95787409034898
  0
ARC
  5
409F
  8
0
 10
-0.5429237121436471
 20
6.8650057821204147
 30
0.0
 40
0.0625011614098804
 50
89.650631059956552
 51
270.34927259146031
  0
ARC
  5
40A0
  8
0
 10
-0.5415832266087648
 20
6.8650057819000248
 30
0.0
 40
0.0625073643351429
 50
269.12047938838822
 51
90.879520611591275
  0
ARC
  5
40A1
  8
0
 10
-0.5429254364620511
 20
6.875005222843602
 30
0.0
 40
0.0144200413295374
 50
90.227100495987528
 51
270.7487805707172
  0
ARC
  5
40A2
  8
0
 10
-0.5427941466963944
 20
6.8750063409564461
 30
0.0
 40
0.0144200413295366
 50
270.22710049603609
 51
90.748780570694393
  0
ARC
  5
40A3
  8
0
 10
-0.5422675390206804
 20
6.8741174411921824
 30
0.0
 40
0.0379201648871461
 50
275.34406043457062
 51
95.560181537508313
  0
ARC
  5
40A4
  8
0
 10
-0.5426719505354873
 20
6.8740788418433061
 30
0.0
 40
0.0379215748021531
 50
94.946367881724782
 51
275.95787409034898
  0
ARC
  5
40A5
  8
0
 10
-0.3233346599472526
 20
6.8625293384639701
 30
0.0
 40
0.0625011614098804
 50
89.650631059956552
 51
270.34927259146031
  0
ARC
  5
40A6
  8
0
 10
-0.3219941744123704
 20
6.8625293382435801
 30
0.0
 40
0.0625073643351429
 50
269.12047938838822
 51
90.879520611591275
  0
ARC
  5
40A7
  8
0
 10
-0.3233363842656567
 20
6.8725287791871557
 30
0.0
 40
0.0144200413295374
 50
90.227100495987528
 51
270.7487805707172
  0
ARC
  5
40A8
  8
0
 10
-0.3232050945
 20
6.8725298972999997
 30
0.0
 40
0.0144200413295366
 50
270.22710049603609
 51
90.748780570694393
  0
ARC
  5
40A9
  8
0
 10
-0.322678486824286
 20
6.871640997535736
 30
0.0
 40
0.0379201648871461
 50
275.34406043457062
 51
95.560181537508313
  0
ARC
  5
40AA
  8
0
 10
-0.323082898339093
 20
6.8716023981868597
 30
0.0
 40
0.0379215748021531
 50
94.946367881724782
 51
275.95787409034898
  0
ARC
  5
40AB
  8
0
 10
-0.4313346599472528
 20
6.7625293384639686
 30
0.0
 40
0.0625011614098804
 50
89.650631059956552
 51
270.34927259146031
  0
ARC
  5
40AC
  8
0
 10
-0.4299941744123706
 20
6.7625293382435787
 30
0.0
 40
0.0625073643351429
 50
269.12047938838822
 51
90.879520611591275
  0
ARC
  5
40AD
  8
0
 10
-0.4313363842656568
 20
6.772528779187156
 30
0.0
 40
0.0144200413295374
 50
90.227100495987528
 51
270.7487805707172
  0
ARC
  5
40AE
  8
0
 10
-0.4312050945000001
 20
6.7725298973000001
 30
0.0
 40
0.0144200413295366
 50
270.22710049603609
 51
90.748780570694393
  0
ARC
  5
40AF
  8
0
 10
-0.4306784868242861
 20
6.7716409975357363
 30
0.0
 40
0.0379201648871461
 50
275.34406043457062
 51
95.560181537508313
  0
ARC
  5
40B0
  8
0
 10
-0.4310828983390931
 20
6.7716023981868601
 30
0.0
 40
0.0379215748021531
 50
94.946367881724782
 51
275.95787409034898
  0
ARC
  5
40B1
  8
0
 10
-0.5383282444972526
 20
6.6655876312139686
 30
0.0
 40
0.0625011614098804
 50
89.650631059956552
 51
270.34927259146031
  0
ARC
  5
40B2
  8
0
 10
-0.5369877589623704
 20
6.6655876309935786
 30
0.0
 40
0.0625073643351429
 50
269.12047938838822
 51
90.879520611591275
  0
ARC
  5
40B3
  8
0
 10
-0.5383299688156567
 20
6.6755870719371551
 30
0.0
 40
0.0144200413295374
 50
90.227100495987528
 51
270.7487805707172
  0
ARC
  5
40B4
  8
0
 10
-0.53819867905
 20
6.67558819005
 30
0.0
 40
0.0144200413295366
 50
270.22710049603609
 51
90.748780570694393
  0
ARC
  5
40B5
  8
0
 10
-0.537672071374286
 20
6.6746992902857363
 30
0.0
 40
0.0379201648871461
 50
275.34406043457062
 51
95.560181537508313
  0
ARC
  5
40B6
  8
0
 10
-0.538076482889093
 20
6.6746606909368591
 30
0.0
 40
0.0379215748021531
 50
94.946367881724782
 51
275.95787409034898
  0
ARC
  5
40B7
  8
0
 10
-0.3220518735531639
 20
6.6683252934248518
 30
0.0
 40
0.0625011614098804
 50
89.650631059956552
 51
270.34927259146031
  0
ARC
  5
40B8
  8
0
 10
-0.3207113880182817
 20
6.6683252932044619
 30
0.0
 40
0.0625073643351429
 50
269.12047938838822
 51
90.879520611591275
  0
ARC
  5
40B9
  8
0
 10
-0.3220535978715679
 20
6.6783247341480392
 30
0.0
 40
0.0144200413295374
 50
90.227100495987528
 51
270.7487805707172
  0
ARC
  5
40BA
  8
0
 10
-0.3219223081059113
 20
6.6783258522608833
 30
0.0
 40
0.0144200413295366
 50
270.22710049603609
 51
90.748780570694393
  0
ARC
  5
40BB
  8
0
 10
-0.3213957004301973
 20
6.6774369524966186
 30
0.0
 40
0.0379201648871461
 50
275.34406043457062
 51
95.560181537508313
  0
ARC
  5
40BC
  8
0
 10
-0.3218001119450042
 20
6.6773983531477432
 30
0.0
 40
0.0379215748021531
 50
94.946367881724782
 51
275.95787409034898
  0
ARC
  5
40BD
  8
0
 10
-0.4313346599472528
 20
6.5635293384639688
 30
0.0
 40
0.0625011614098804
 50
89.650631059956552
 51
270.34927259146031
  0
ARC
  5
40BE
  8
0
 10
-0.4299941744123706
 20
6.5635293382435789
 30
0.0
 40
0.0625073643351429
 50
269.12047938838822
 51
90.879520611591275
  0
ARC
  5
40BF
  8
0
 10
-0.4313363842656568
 20
6.5735287791871562
 30
0.0
 40
0.0144200413295374
 50
90.227100495987528
 51
270.7487805707172
  0
ARC
  5
40C0
  8
0
 10
-0.4312050945000001
 20
6.5735298973000003
 30
0.0
 40
0.0144200413295366
 50
270.22710049603609
 51
90.748780570694393
  0
ARC
  5
40C1
  8
0
 10
-0.4306784868242861
 20
6.5726409975357356
 30
0.0
 40
0.0379201648871461
 50
275.34406043457062
 51
95.560181537508313
  0
ARC
  5
40C2
  8
0
 10
-0.4310828983390931
 20
6.5726023981868602
 30
0.0
 40
0.0379215748021531
 50
94.946367881724782
 51
275.95787409034898
  0
ARC
  5
40C3
  8
0
 10
-0.5383236729472526
 20
6.4654820249139693
 30
0.0
 40
0.0625011614098804
 50
89.650631059956552
 51
270.34927259146031
  0
ARC
  5
40C4
  8
0
 10
-0.5369831874123704
 20
6.4654820246935794
 30
0.0
 40
0.0625073643351429
 50
269.12047938838822
 51
90.879520611591275
  0
ARC
  5
40C5
  8
0
 10
-0.5383253972656567
 20
6.4754814656371549
 30
0.0
 40
0.0144200413295374
 50
90.227100495987528
 51
270.7487805707172
  0
ARC
  5
40C6
  8
0
 10
-0.5381941075
 20
6.475482583749999
 30
0.0
 40
0.0144200413295366
 50
270.22710049603609
 51
90.748780570694393
  0
ARC
  5
40C7
  8
0
 10
-0.537667499824286
 20
6.4745936839857361
 30
0.0
 40
0.0379201648871461
 50
275.34406043457062
 51
95.560181537508313
  0
ARC
  5
40C8
  8
0
 10
-0.5380719113390931
 20
6.4745550846368589
 30
0.0
 40
0.0379215748021531
 50
94.946367881724782
 51
275.95787409034898
  0
ARC
  5
40C9
  8
0
 10
-0.4313346599472528
 20
6.3655293384639693
 30
0.0
 40
0.0625011614098804
 50
89.650631059956552
 51
270.34927259146031
  0
ARC
  5
40CA
  8
0
 10
-0.4299941744123706
 20
6.3655293382435794
 30
0.0
 40
0.0625073643351429
 50
269.12047938838822
 51
90.879520611591275
  0
ARC
  5
40CB
  8
0
 10
-0.4313363842656568
 20
6.3755287791871549
 30
0.0
 40
0.0144200413295374
 50
90.227100495987528
 51
270.7487805707172
  0
ARC
  5
40CC
  8
0
 10
-0.4312050945000001
 20
6.375529897299999
 30
0.0
 40
0.0144200413295366
 50
270.22710049603609
 51
90.748780570694393
  0
ARC
  5
40CD
  8
0
 10
-0.4306784868242861
 20
6.3746409975357361
 30
0.0
 40
0.0379201648871461
 50
275.34406043457062
 51
95.560181537508313
  0
ARC
  5
40CE
  8
0
 10
-0.4310828983390931
 20
6.3746023981868589
 30
0.0
 40
0.0379215748021531
 50
94.946367881724782
 51
275.95787409034898
  0
ARC
  5
40CF
  8
0
 10
-0.3233346599472526
 20
6.4655293384639689
 30
0.0
 40
0.0625011614098804
 50
89.650631059956552
 51
270.34927259146031
  0
ARC
  5
40D0
  8
0
 10
-0.3219941744123704
 20
6.465529338243579
 30
0.0
 40
0.0625073643351429
 50
269.12047938838822
 51
90.879520611591275
  0
ARC
  5
40D1
  8
0
 10
-0.3233363842656567
 20
6.4755287791871563
 30
0.0
 40
0.0144200413295374
 50
90.227100495987528
 51
270.7487805707172
  0
ARC
  5
40D2
  8
0
 10
-0.3232050945
 20
6.4755298973000004
 30
0.0
 40
0.0144200413295366
 50
270.22710049603609
 51
90.748780570694393
  0
ARC
  5
40D3
  8
0
 10
-0.322678486824286
 20
6.4746409975357357
 30
0.0
 40
0.0379201648871461
 50
275.34406043457062
 51
95.560181537508313
  0
ARC
  5
40D4
  8
0
 10
-0.323082898339093
 20
6.4746023981868603
 30
0.0
 40
0.0379215748021531
 50
94.946367881724782
 51
275.95787409034898
  0
ARC
  5
40D5
  8
0
 10
-0.3233346599472526
 20
6.2655293384639688
 30
0.0
 40
0.0625011614098804
 50
89.650631059956552
 51
270.34927259146031
  0
ARC
  5
40D6
  8
0
 10
-0.3219941744123704
 20
6.2655293382435788
 30
0.0
 40
0.0625073643351429
 50
269.12047938838822
 51
90.879520611591275
  0
ARC
  5
40D7
  8
0
 10
-0.3233363842656567
 20
6.2755287791871561
 30
0.0
 40
0.0144200413295374
 50
90.227100495987528
 51
270.7487805707172
  0
ARC
  5
40D8
  8
0
 10
-0.3232050945
 20
6.2755298973000002
 30
0.0
 40
0.0144200413295366
 50
270.22710049603609
 51
90.748780570694393
  0
ARC
  5
40D9
  8
0
 10
-0.322678486824286
 20
6.2746409975357356
 30
0.0
 40
0.0379201648871461
 50
275.34406043457062
 51
95.560181537508313
  0
ARC
  5
40DA
  8
0
 10
-0.323082898339093
 20
6.2746023981868602
 30
0.0
 40
0.0379215748021531
 50
94.946367881724782
 51
275.95787409034898
  0
ARC
  5
40DB
  8
0
 10
-0.5429445571940902
 20
6.2674903605160157
 30
0.0
 40
0.0625011614098804
 50
89.650631059956552
 51
270.34927259146031
  0
ARC
  5
40DC
  8
0
 10
-0.5416040716592079
 20
6.2674903602956258
 30
0.0
 40
0.0625073643351429
 50
269.12047938838822
 51
90.879520611591275
  0
ARC
  5
40DD
  8
0
 10
-0.5429462815124941
 20
6.2774898012392031
 30
0.0
 40
0.0144200413295374
 50
90.227100495987528
 51
270.7487805707172
  0
ARC
  5
40DE
  8
0
 10
-0.5428149917468375
 20
6.2774909193520472
 30
0.0
 40
0.0144200413295366
 50
270.22710049603609
 51
90.748780570694393
  0
ARC
  5
40DF
  8
0
 10
-0.5422883840711235
 20
6.2766020195877834
 30
0.0
 40
0.0379201648871461
 50
275.34406043457062
 51
95.560181537508313
  0
ARC
  5
40E0
  8
0
 10
-0.5426927955859304
 20
6.2765634202389071
 30
0.0
 40
0.0379215748021531
 50
94.946367881724782
 51
275.95787409034898
  0
ARC
  5
40E1
  8
0
 10
-0.4313346599472528
 20
6.1655293384639691
 30
0.0
 40
0.0625011614098804
 50
89.650631059956552
 51
270.34927259146031
  0
ARC
  5
40E2
  8
0
 10
-0.4299941744123706
 20
6.1655293382435801
 30
0.0
 40
0.0625073643351429
 50
269.12047938838822
 51
90.879520611591275
  0
ARC
  5
40E3
  8
0
 10
-0.4313363842656568
 20
6.1755287791871556
 30
0.0
 40
0.0144200413295374
 50
90.227100495987528
 51
270.7487805707172
  0
ARC
  5
40E4
  8
0
 10
-0.4312050945000001
 20
6.1755298972999997
 30
0.0
 40
0.0144200413295366
 50
270.22710049603609
 51
90.748780570694393
  0
ARC
  5
40E5
  8
0
 10
-0.4306784868242861
 20
6.1746409975357359
 30
0.0
 40
0.0379201648871461
 50
275.34406043457062
 51
95.560181537508313
  0
ARC
  5
40E6
  8
0
 10
-0.4310828983390931
 20
6.1746023981868596
 30
0.0
 40
0.0379215748021531
 50
94.946367881724782
 51
275.95787409034898
  0
ARC
  5
40E7
  8
0
 10
-0.2153346599472527
 20
6.1655293384639691
 30
0.0
 40
0.0625011614098804
 50
89.650631059956552
 51
270.34927259146031
  0
ARC
  5
40E8
  8
0
 10
-0.2139941744123704
 20
6.1655293382435801
 30
0.0
 40
0.0625073643351429
 50
269.12047938838822
 51
90.879520611591275
  0
ARC
  5
40E9
  8
0
 10
-0.2153363842656567
 20
6.1755287791871556
 30
0.0
 40
0.0144200413295374
 50
90.227100495987528
 51
270.7487805707172
  0
ARC
  5
40EA
  8
0
 10
-0.2152050945
 20
6.1755298972999997
 30
0.0
 40
0.0144200413295366
 50
270.22710049603609
 51
90.748780570694393
  0
ARC
  5
40EB
  8
0
 10
-0.214678486824286
 20
6.1746409975357359
 30
0.0
 40
0.0379201648871461
 50
275.34406043457062
 51
95.560181537508313
  0
ARC
  5
40EC
  8
0
 10
-0.215082898339093
 20
6.1746023981868596
 30
0.0
 40
0.0379215748021531
 50
94.946367881724782
 51
275.95787409034898
  0
ARC
  5
40ED
  8
0
 10
-0.103157788083905
 20
6.0676620126552292
 30
0.0
 40
0.0625011614098804
 50
89.650631059956552
 51
270.34927259146031
  0
ARC
  5
40EE
  8
0
 10
-0.1018173025490228
 20
6.0676620124348393
 30
0.0
 40
0.0625073643351429
 50
269.12047938838822
 51
90.879520611591275
  0
ARC
  5
40EF
  8
0
 10
-0.103159512402309
 20
6.0776614533784148
 30
0.0
 40
0.0144200413295374
 50
90.227100495987528
 51
270.7487805707172
  0
ARC
  5
40F0
  8
0
 10
-0.1030282226366523
 20
6.0776625714912589
 30
0.0
 40
0.0144200413295366
 50
270.22710049603609
 51
90.748780570694393
  0
ARC
  5
40F1
  8
0
 10
-0.1025016149609383
 20
6.076773671726996
 30
0.0
 40
0.0379201648871461
 50
275.34406043457062
 51
95.560181537508313
  0
ARC
  5
40F2
  8
0
 10
-0.1029060264757453
 20
6.0767350723781188
 30
0.0
 40
0.0379215748021531
 50
94.946367881724782
 51
275.95787409034898
  0
ARC
  5
40F3
  8
0
 10
-0.3238441267808694
 20
6.064086789310986
 30
0.0
 40
0.0625011614098804
 50
89.650631059956552
 51
270.34927259146031
  0
ARC
  5
40F4
  8
0
 10
-0.3225036412459872
 20
6.0640867890905961
 30
0.0
 40
0.0625073643351429
 50
269.12047938838822
 51
90.879520611591275
  0
ARC
  5
40F5
  8
0
 10
-0.3238458510992734
 20
6.0740862300341734
 30
0.0
 40
0.0144200413295374
 50
90.227100495987528
 51
270.7487805707172
  0
ARC
  5
40F6
  8
0
 10
-0.3237145613336168
 20
6.0740873481470166
 30
0.0
 40
0.0144200413295366
 50
270.22710049603609
 51
90.748780570694393
  0
ARC
  5
40F7
  8
0
 10
-0.3231879536579028
 20
6.0731984483827528
 30
0.0
 40
0.0379201648871461
 50
275.34406043457062
 51
95.560181537508313
  0
ARC
  5
40F8
  8
0
 10
-0.3235923651727097
 20
6.0731598490338774
 30
0.0
 40
0.0379215748021531
 50
94.946367881724782
 51
275.95787409034898
  0
ARC
  5
40F9
  8
0
 10
-0.5443978151566851
 20
6.0665871624734633
 30
0.0
 40
0.0625011614098804
 50
89.650631059956552
 51
270.34927259146031
  0
ARC
  5
40FA
  8
0
 10
-0.5430573296218029
 20
6.0665871622530734
 30
0.0
 40
0.0625073643351429
 50
269.12047938838822
 51
90.879520611591275
  0
ARC
  5
40FB
  8
0
 10
-0.5443995394750891
 20
6.0765866031966489
 30
0.0
 40
0.0144200413295374
 50
90.227100495987528
 51
270.7487805707172
  0
ARC
  5
40FC
  8
0
 10
-0.5442682497094326
 20
6.076587721309493
 30
0.0
 40
0.0144200413295366
 50
270.22710049603609
 51
90.748780570694393
  0
ARC
  5
40FD
  8
0
 10
-0.5437416420337186
 20
6.0756988215452301
 30
0.0
 40
0.0379201648871461
 50
275.34406043457062
 51
95.560181537508313
  0
ARC
  5
40FE
  8
0
 10
-0.5441460535485254
 20
6.0756602221963529
 30
0.0
 40
0.0379215748021531
 50
94.946367881724782
 51
275.95787409034898
  0
ARC
  5
40FF
  8
0
 10
-0.4313346599472528
 20
5.9675293384639687
 30
0.0
 40
0.0625011614098804
 50
89.650631059956552
 51
270.34927259146031
  0
ARC
  5
4100
  8
0
 10
-0.4299941744123706
 20
5.9675293382435788
 30
0.0
 40
0.0625073643351429
 50
269.12047938838822
 51
90.879520611591275
  0
ARC
  5
4101
  8
0
 10
-0.4313363842656568
 20
5.9775287791871561
 30
0.0
 40
0.0144200413295374
 50
90.227100495987528
 51
270.7487805707172
  0
ARC
  5
4102
  8
0
 10
-0.4312050945000001
 20
5.9775298973000002
 30
0.0
 40
0.0144200413295366
 50
270.22710049603609
 51
90.748780570694393
  0
ARC
  5
4103
  8
0
 10
-0.4306784868242861
 20
5.9766409975357364
 30
0.0
 40
0.0379201648871461
 50
275.34406043457062
 51
95.560181537508313
  0
ARC
  5
4104
  8
0
 10
-0.4310828983390931
 20
5.9766023981868601
 30
0.0
 40
0.0379215748021531
 50
94.946367881724782
 51
275.95787409034898
  0
ARC
  5
4105
  8
0
 10
-0.2153346599472527
 20
5.9675293384639687
 30
0.0
 40
0.0625011614098804
 50
89.650631059956552
 51
270.34927259146031
  0
ARC
  5
4106
  8
0
 10
-0.2139941744123704
 20
5.9675293382435788
 30
0.0
 40
0.0625073643351429
 50
269.12047938838822
 51
90.879520611591275
  0
ARC
  5
4107
  8
0
 10
-0.2153363842656567
 20
5.9775287791871561
 30
0.0
 40
0.0144200413295374
 50
90.227100495987528
 51
270.7487805707172
  0
ARC
  5
4108
  8
0
 10
-0.2152050945
 20
5.9775298973000002
 30
0.0
 40
0.0144200413295366
 50
270.22710049603609
 51
90.748780570694393
  0
ARC
  5
4109
  8
0
 10
-0.214678486824286
 20
5.9766409975357364
 30
0.0
 40
0.0379201648871461
 50
275.34406043457062
 51
95.560181537508313
  0
ARC
  5
410A
  8
0
 10
-0.215082898339093
 20
5.9766023981868601
 30
0.0
 40
0.0379215748021531
 50
94.946367881724782
 51
275.95787409034898
  0
ARC
  5
410B
  8
0
 10
-0.1083604939972527
 20
5.8654731226639694
 30
0.0
 40
0.0625011614098804
 50
89.650631059956552
 51
270.34927259146031
  0
ARC
  5
410C
  8
0
 10
-0.1070200084623705
 20
5.8654731224435794
 30
0.0
 40
0.0625073643351429
 50
269.12047938838822
 51
90.879520611591275
  0
ARC
  5
410D
  8
0
 10
-0.1083622183156567
 20
5.875472563387155
 30
0.0
 40
0.0144200413295374
 50
90.227100495987528
 51
270.7487805707172
  0
ARC
  5
410E
  8
0
 10
-0.10823092855
 20
5.875473681499999
 30
0.0
 40
0.0144200413295366
 50
270.22710049603609
 51
90.748780570694393
  0
ARC
  5
410F
  8
0
 10
-0.107704320874286
 20
5.8745847817357362
 30
0.0
 40
0.0379201648871461
 50
275.34406043457062
 51
95.560181537508313
  0
ARC
  5
4110
  8
0
 10
-0.108108732389093
 20
5.874546182386859
 30
0.0
 40
0.0379215748021531
 50
94.946367881724782
 51
275.95787409034898
  0
ARC
  5
4111
  8
0
 10
-0.3233346599472526
 20
5.8675293384639691
 30
0.0
 40
0.0625011614098804
 50
89.650631059956552
 51
270.34927259146031
  0
ARC
  5
4112
  8
0
 10
-0.3219941744123704
 20
5.86752933824358
 30
0.0
 40
0.0625073643351429
 50
269.12047938838822
 51
90.879520611591275
  0
ARC
  5
4113
  8
0
 10
-0.3233363842656567
 20
5.8775287791871564
 30
0.0
 40
0.0144200413295374
 50
90.227100495987528
 51
270.7487805707172
  0
ARC
  5
4114
  8
0
 10
-0.3232050945
 20
5.8775298972999996
 30
0.0
 40
0.0144200413295366
 50
270.22710049603609
 51
90.748780570694393
  0
ARC
  5
4115
  8
0
 10
-0.322678486824286
 20
5.8766409975357359
 30
0.0
 40
0.0379201648871461
 50
275.34406043457062
 51
95.560181537508313
  0
ARC
  5
4116
  8
0
 10
-0.323082898339093
 20
5.8766023981868596
 30
0.0
 40
0.0379215748021531
 50
94.946367881724782
 51
275.95787409034898
  0
ARC
  5
4117
  8
0
 10
-0.5431239509617284
 20
5.8658890992368482
 30
0.0
 40
0.0625011614098804
 50
89.650631059956552
 51
270.34927259146031
  0
ARC
  5
4118
  8
0
 10
-0.5417834654268461
 20
5.8658890990164583
 30
0.0
 40
0.0625073643351429
 50
269.12047938838822
 51
90.879520611591275
  0
ARC
  5
4119
  8
0
 10
-0.5431256752801323
 20
5.8758885399600338
 30
0.0
 40
0.0144200413295374
 50
90.227100495987528
 51
270.7487805707172
  0
ARC
  5
411A
  8
0
 10
-0.5429943855144757
 20
5.8758896580728779
 30
0.0
 40
0.0144200413295366
 50
270.22710049603609
 51
90.748780570694393
  0
ARC
  5
411B
  8
0
 10
-0.5424677778387617
 20
5.875000758308615
 30
0.0
 40
0.0379201648871461
 50
275.34406043457062
 51
95.560181537508313
  0
ARC
  5
411C
  8
0
 10
-0.5428721893535686
 20
5.8749621589597378
 30
0.0
 40
0.0379215748021531
 50
94.946367881724782
 51
275.95787409034898
  0
ARC
  5
411D
  8
0
 10
-0.4313346599472528
 20
5.7685293384639689
 30
0.0
 40
0.0625011614098804
 50
89.650631059956552
 51
270.34927259146031
  0
ARC
  5
411E
  8
0
 10
-0.4299941744123706
 20
5.7685293382435789
 30
0.0
 40
0.0625073643351429
 50
269.12047938838822
 51
90.879520611591275
  0
ARC
  5
411F
  8
0
 10
-0.4313363842656568
 20
5.7785287791871562
 30
0.0
 40
0.0144200413295374
 50
90.227100495987528
 51
270.7487805707172
  0
ARC
  5
4120
  8
0
 10
-0.4312050945000001
 20
5.7785298973000003
 30
0.0
 40
0.0144200413295366
 50
270.22710049603609
 51
90.748780570694393
  0
ARC
  5
4121
  8
0
 10
-0.4306784868242861
 20
5.7776409975357357
 30
0.0
 40
0.0379201648871461
 50
275.34406043457062
 51
95.560181537508313
  0
ARC
  5
4122
  8
0
 10
-0.4310828983390931
 20
5.7776023981868603
 30
0.0
 40
0.0379215748021531
 50
94.946367881724782
 51
275.95787409034898
  0
ARC
  5
4123
  8
0
 10
-0.544374864545574
 20
5.6662757214124131
 30
0.0
 40
0.0625011614098804
 50
89.650631059956552
 51
270.34927259146031
  0
ARC
  5
4124
  8
0
 10
-0.5430343790106919
 20
5.6662757211920241
 30
0.0
 40
0.0625073643351429
 50
269.12047938838822
 51
90.879520611591275
  0
ARC
  5
4125
  8
0
 10
-0.544376588863978
 20
5.6762751621355996
 30
0.0
 40
0.0144200413295374
 50
90.227100495987528
 51
270.7487805707172
  0
ARC
  5
4126
  8
0
 10
-0.5442452990983214
 20
5.6762762802484437
 30
0.0
 40
0.0144200413295366
 50
270.22710049603609
 51
90.748780570694393
  0
ARC
  5
4127
  8
0
 10
-0.5437186914226074
 20
5.6753873804841799
 30
0.0
 40
0.0379201648871461
 50
275.34406043457062
 51
95.560181537508313
  0
ARC
  5
4128
  8
0
 10
-0.5441231029374143
 20
5.6753487811353036
 30
0.0
 40
0.0379215748021531
 50
94.946367881724782
 51
275.95787409034898
  0
ARC
  5
4129
  8
0
 10
-0.3233346599472526
 20
5.6685293384639692
 30
0.0
 40
0.0625011614098804
 50
89.650631059956552
 51
270.34927259146031
  0
ARC
  5
412A
  8
0
 10
-0.3219941744123704
 20
5.6685293382435793
 30
0.0
 40
0.0625073643351429
 50
269.12047938838822
 51
90.879520611591275
  0
ARC
  5
412B
  8
0
 10
-0.3233363842656567
 20
5.6785287791871548
 30
0.0
 40
0.0144200413295374
 50
90.227100495987528
 51
270.7487805707172
  0
ARC
  5
412C
  8
0
 10
-0.3232050945
 20
5.6785298972999989
 30
0.0
 40
0.0144200413295366
 50
270.22710049603609
 51
90.748780570694393
  0
ARC
  5
412D
  8
0
 10
-0.322678486824286
 20
5.677640997535736
 30
0.0
 40
0.0379201648871461
 50
275.34406043457062
 51
95.560181537508313
  0
ARC
  5
412E
  8
0
 10
-0.323082898339093
 20
5.6776023981868589
 30
0.0
 40
0.0379215748021531
 50
94.946367881724782
 51
275.95787409034898
  0
ARC
  5
412F
  8
0
 10
-0.2153346599472527
 20
5.7685293384639689
 30
0.0
 40
0.0625011614098804
 50
89.650631059956552
 51
270.34927259146031
  0
ARC
  5
4130
  8
0
 10
-0.2139941744123704
 20
5.7685293382435789
 30
0.0
 40
0.0625073643351429
 50
269.12047938838822
 51
90.879520611591275
  0
ARC
  5
4131
  8
0
 10
-0.2153363842656567
 20
5.7785287791871562
 30
0.0
 40
0.0144200413295374
 50
90.227100495987528
 51
270.7487805707172
  0
ARC
  5
4132
  8
0
 10
-0.2152050945
 20
5.7785298973000003
 30
0.0
 40
0.0144200413295366
 50
270.22710049603609
 51
90.748780570694393
  0
ARC
  5
4133
  8
0
 10
-0.214678486824286
 20
5.7776409975357357
 30
0.0
 40
0.0379201648871461
 50
275.34406043457062
 51
95.560181537508313
  0
ARC
  5
4134
  8
0
 10
-0.215082898339093
 20
5.7776023981868603
 30
0.0
 40
0.0379215748021531
 50
94.946367881724782
 51
275.95787409034898
  0
ARC
  5
4135
  8
0
 10
-0.1032674877939141
 20
5.6654421856342001
 30
0.0
 40
0.0625011614098804
 50
89.650631059956552
 51
270.34927259146031
  0
ARC
  5
4136
  8
0
 10
-0.1019270022590319
 20
5.6654421854138111
 30
0.0
 40
0.0625073643351429
 50
269.12047938838822
 51
90.879520611591275
  0
ARC
  5
4137
  8
0
 10
-0.1032692121123182
 20
5.6754416263573866
 30
0.0
 40
0.0144200413295374
 50
90.227100495987528
 51
270.7487805707172
  0
ARC
  5
4138
  8
0
 10
-0.1031379223466615
 20
5.6754427444702307
 30
0.0
 40
0.0144200413295366
 50
270.22710049603609
 51
90.748780570694393
  0
ARC
  5
4139
  8
0
 10
-0.1026113146709475
 20
5.6745538447059669
 30
0.0
 40
0.0379201648871461
 50
275.34406043457062
 51
95.560181537508313
  0
ARC
  5
413A
  8
0
 10
-0.1030157261857545
 20
5.6745152453570906
 30
0.0
 40
0.0379215748021531
 50
94.946367881724782
 51
275.95787409034898
  0
ARC
  5
413B
  8
0
 10
-0.4315932939972527
 20
5.5796570742139693
 30
0.0
 40
0.0625011614098804
 50
89.650631059956552
 51
270.34927259146031
  0
ARC
  5
413C
  8
0
 10
-0.4302528084623705
 20
5.5796570739935794
 30
0.0
 40
0.0625073643351429
 50
269.12047938838822
 51
90.879520611591275
  0
ARC
  5
413D
  8
0
 10
-0.4315950183156568
 20
5.5896565149371549
 30
0.0
 40
0.0144200413295374
 50
90.227100495987528
 51
270.7487805707172
  0
ARC
  5
413E
  8
0
 10
-0.43146372855
 20
5.589657633049999
 30
0.0
 40
0.0144200413295366
 50
270.22710049603609
 51
90.748780570694393
  0
ARC
  5
413F
  8
0
 10
-0.430937120874286
 20
5.5887687332857361
 30
0.0
 40
0.0379201648871461
 50
275.34406043457062
 51
95.560181537508313
  0
ARC
  5
4140
  8
0
 10
-0.431341532389093
 20
5.5887301339368589
 30
0.0
 40
0.0379215748021531
 50
94.946367881724782
 51
275.95787409034898
  0
ARC
  5
4141
  8
0
 10
-0.2150172710472527
 20
5.5796585666639693
 30
0.0
 40
0.0625011614098804
 50
89.650631059956552
 51
270.34927259146031
  0
ARC
  5
4142
  8
0
 10
-0.2136767855123705
 20
5.5796585664435794
 30
0.0
 40
0.0625073643351429
 50
269.12047938838822
 51
90.879520611591275
  0
ARC
  5
4143
  8
0
 10
-0.2150189953656567
 20
5.5896580073871549
 30
0.0
 40
0.0144200413295374
 50
90.227100495987528
 51
270.7487805707172
  0
ARC
  5
4144
  8
0
 10
-0.2148877056
 20
5.589659125499999
 30
0.0
 40
0.0144200413295366
 50
270.22710049603609
 51
90.748780570694393
  0
ARC
  5
4145
  8
0
 10
-0.214361097924286
 20
5.5887702257357361
 30
0.0
 40
0.0379201648871461
 50
275.34406043457062
 51
95.560181537508313
  0
ARC
  5
4146
  8
0
 10
-0.214765509439093
 20
5.5887316263868589
 30
0.0
 40
0.0379215748021531
 50
94.946367881724782
 51
275.95787409034898
  0
ARC
  5
4147
  8
0
 10
-0.1083611862472527
 20
5.4788634749855278
 30
0.0
 40
0.0625011614098804
 50
89.650631059956552
 51
270.34927259146031
  0
ARC
  5
4148
  8
0
 10
-0.1070207007123705
 20
5.4788634747651379
 30
0.0
 40
0.0625073643351429
 50
269.12047938838822
 51
90.879520611591275
  0
ARC
  5
4149
  8
0
 10
-0.1083629105656567
 20
5.4888629157087152
 30
0.0
 40
0.0144200413295374
 50
90.227100495987528
 51
270.7487805707172
  0
ARC
  5
414A
  8
0
 10
-0.1082316208
 20
5.4888640338215593
 30
0.0
 40
0.0144200413295366
 50
270.22710049603609
 51
90.748780570694393
  0
ARC
  5
414B
  8
0
 10
-0.107705013124286
 20
5.4879751340572946
 30
0.0
 40
0.0379201648871461
 50
275.34406043457062
 51
95.560181537508313
  0
ARC
  5
414C
  8
0
 10
-0.108109424639093
 20
5.4879365347084192
 30
0.0
 40
0.0379215748021531
 50
94.946367881724782
 51
275.95787409034898
  0
ARC
  5
414D
  8
0
 10
-0.3233346599472526
 20
5.4800293384639689
 30
0.0
 40
0.0625011614098804
 50
89.650631059956552
 51
270.34927259146031
  0
ARC
  5
414E
  8
0
 10
-0.3219941744123704
 20
5.480029338243579
 30
0.0
 40
0.0625073643351429
 50
269.12047938838822
 51
90.879520611591275
  0
ARC
  5
414F
  8
0
 10
-0.3233363842656567
 20
5.4900287791871563
 30
0.0
 40
0.0144200413295374
 50
90.227100495987528
 51
270.7487805707172
  0
ARC
  5
4150
  8
0
 10
-0.3232050945
 20
5.4900298973000003
 30
0.0
 40
0.0144200413295366
 50
270.22710049603609
 51
90.748780570694393
  0
ARC
  5
4151
  8
0
 10
-0.322678486824286
 20
5.4891409975357357
 30
0.0
 40
0.0379201648871461
 50
275.34406043457062
 51
95.560181537508313
  0
ARC
  5
4152
  8
0
 10
-0.323082898339093
 20
5.4891023981868603
 30
0.0
 40
0.0379215748021531
 50
94.946367881724782
 51
275.95787409034898
  0
ARC
  5
4153
  8
0
 10
-0.5405808582472527
 20
5.4798095495639689
 30
0.0
 40
0.0625011614098804
 50
89.650631059956552
 51
270.34927259146031
  0
ARC
  5
4154
  8
0
 10
-0.5392403727123705
 20
5.479809549343579
 30
0.0
 40
0.0625073643351429
 50
269.12047938838822
 51
90.879520611591275
  0
ARC
  5
4155
  8
0
 10
-0.5405825825656568
 20
5.4898089902871563
 30
0.0
 40
0.0144200413295374
 50
90.227100495987528
 51
270.7487805707172
  0
ARC
  5
4156
  8
0
 10
-0.5404512928000002
 20
5.4898101084000004
 30
0.0
 40
0.0144200413295366
 50
270.22710049603609
 51
90.748780570694393
  0
ARC
  5
4157
  8
0
 10
-0.5399246851242862
 20
5.4889212086357357
 30
0.0
 40
0.0379201648871461
 50
275.34406043457062
 51
95.560181537508313
  0
ARC
  5
4158
  8
0
 10
-0.540329096639093
 20
5.4888826092868603
 30
0.0
 40
0.0379215748021531
 50
94.946367881724782
 51
275.95787409034898
  0
ARC
  5
4159
  8
0
 10
-0.4389630233472526
 20
5.3786320399139687
 30
0.0
 40
0.0625011614098804
 50
89.650631059956552
 51
270.34927259146031
  0
ARC
  5
415A
  8
0
 10
-0.4376225378123704
 20
5.3786320396935787
 30
0.0
 40
0.0625073643351429
 50
269.12047938838822
 51
90.879520611591275
  0
ARC
  5
415B
  8
0
 10
-0.4389647476656567
 20
5.388631480637156
 30
0.0
 40
0.0144200413295374
 50
90.227100495987528
 51
270.7487805707172
  0
ARC
  5
415C
  8
0
 10
-0.4388334579
 20
5.3886325987500001
 30
0.0
 40
0.0144200413295366
 50
270.22710049603609
 51
90.748780570694393
  0
ARC
  5
415D
  8
0
 10
-0.438306850224286
 20
5.3877436989857364
 30
0.0
 40
0.0379201648871461
 50
275.34406043457062
 51
95.560181537508313
  0
ARC
  5
415E
  8
0
 10
-0.438711261739093
 20
5.3877050996368601
 30
0.0
 40
0.0379215748021531
 50
94.946367881724782
 51
275.95787409034898
  0
ARC
  5
415F
  8
0
 10
-0.2130500327972526
 20
5.3797603296139691
 30
0.0
 40
0.0625011614098804
 50
89.650631059956552
 51
270.34927259146031
  0
ARC
  5
4160
  8
0
 10
-0.2117095472623705
 20
5.3797603293935792
 30
0.0
 40
0.0625073643351429
 50
269.12047938838822
 51
90.879520611591275
  0
ARC
  5
4161
  8
0
 10
-0.2130517571156567
 20
5.3897597703371547
 30
0.0
 40
0.0144200413295374
 50
90.227100495987528
 51
270.7487805707172
  0
ARC
  5
4162
  8
0
 10
-0.21292046735
 20
5.3897608884499988
 30
0.0
 40
0.0144200413295366
 50
270.22710049603609
 51
90.748780570694393
  0
ARC
  5
4163
  8
0
 10
-0.212393859674286
 20
5.388871988685735
 30
0.0
 40
0.0379201648871461
 50
275.34406043457062
 51
95.560181537508313
  0
ARC
  5
4164
  8
0
 10
-0.212798271189093
 20
5.3888333893368587
 30
0.0
 40
0.0379215748021531
 50
94.946367881724782
 51
275.95787409034898
  0
ARC
  5
4165
  8
0
 10
-0.1108030896472527
 20
5.2921815089139681
 30
0.0
 40
0.0625011614098804
 50
89.650631059956552
 51
270.34927259146031
  0
ARC
  5
4166
  8
0
 10
-0.1094626041123705
 20
5.2921815086935791
 30
0.0
 40
0.0625073643351429
 50
269.12047938838822
 51
90.879520611591275
  0
ARC
  5
4167
  8
0
 10
-0.1108048139656568
 20
5.3021809496371546
 30
0.0
 40
0.0144200413295374
 50
90.227100495987528
 51
270.7487805707172
  0
ARC
  5
4168
  8
0
 10
-0.1106735242000001
 20
5.3021820677499987
 30
0.0
 40
0.0144200413295366
 50
270.22710049603609
 51
90.748780570694393
  0
ARC
  5
4169
  8
0
 10
-0.1101469165242861
 20
5.3012931679857349
 30
0.0
 40
0.0379201648871461
 50
275.34406043457062
 51
95.560181537508313
  0
ARC
  5
416A
  8
0
 10
-0.1105513280390931
 20
5.3012545686368586
 30
0.0
 40
0.0379215748021531
 50
94.946367881724782
 51
275.95787409034898
  0
ARC
  5
416B
  8
0
 10
-0.3261323366972526
 20
5.2794713519139691
 30
0.0
 40
0.0625011614098804
 50
89.650631059956552
 51
270.34927259146031
  0
ARC
  5
416C
  8
0
 10
-0.3247918511623704
 20
5.2794713516935801
 30
0.0
 40
0.0625073643351429
 50
269.12047938838822
 51
90.879520611591275
  0
ARC
  5
416D
  8
0
 10
-0.3261340610156567
 20
5.2894707926371556
 30
0.0
 40
0.0144200413295374
 50
90.227100495987528
 51
270.7487805707172
  0
ARC
  5
416E
  8
0
 10
-0.32600277125
 20
5.2894719107499997
 30
0.0
 40
0.0144200413295366
 50
270.22710049603609
 51
90.748780570694393
  0
ARC
  5
416F
  8
0
 10
-0.325476163574286
 20
5.2885830109857359
 30
0.0
 40
0.0379201648871461
 50
275.34406043457062
 51
95.560181537508313
  0
ARC
  5
4170
  8
0
 10
-0.325880575089093
 20
5.2885444116368596
 30
0.0
 40
0.0379215748021531
 50
94.946367881724782
 51
275.95787409034898
  0
ARC
  5
4171
  8
0
 10
-0.4349509652472526
 20
5.1796827971639692
 30
0.0
 40
0.0625011614098804
 50
89.650631059956552
 51
270.34927259146031
  0
ARC
  5
4172
  8
0
 10
-0.4336104797123705
 20
5.1796827969435792
 30
0.0
 40
0.0625073643351429
 50
269.12047938838822
 51
90.879520611591275
  0
ARC
  5
4173
  8
0
 10
-0.4349526895656567
 20
5.1896822378871548
 30
0.0
 40
0.0144200413295374
 50
90.227100495987528
 51
270.7487805707172
  0
ARC
  5
4174
  8
0
 10
-0.4348213998000001
 20
5.1896833559999989
 30
0.0
 40
0.0144200413295366
 50
270.22710049603609
 51
90.748780570694393
  0
ARC
  5
4175
  8
0
 10
-0.4342947921242861
 20
5.1887944562357351
 30
0.0
 40
0.0379201648871461
 50
275.34406043457062
 51
95.560181537508313
  0
ARC
  5
4176
  8
0
 10
-0.434699203639093
 20
5.1887558568868588
 30
0.0
 40
0.0379215748021531
 50
94.946367881724782
 51
275.95787409034898
  0
ARC
  5
4177
  8
0
 10
-0.5451257874472527
 20
5.2797138926639686
 30
0.0
 40
0.0625011614098804
 50
89.650631059956552
 51
270.34927259146031
  0
ARC
  5
4178
  8
0
 10
-0.5437853019123704
 20
5.2797138924435787
 30
0.0
 40
0.0625073643351429
 50
269.12047938838822
 51
90.879520611591275
  0
ARC
  5
4179
  8
0
 10
-0.5451275117656567
 20
5.2897133333871551
 30
0.0
 40
0.0144200413295374
 50
90.227100495987528
 51
270.7487805707172
  0
ARC
  5
417A
  8
0
 10
-0.544996222
 20
5.2897144515000001
 30
0.0
 40
0.0144200413295366
 50
270.22710049603609
 51
90.748780570694393
  0
ARC
  5
417B
  8
0
 10
-0.544469614324286
 20
5.2888255517357363
 30
0.0
 40
0.0379201648871461
 50
275.34406043457062
 51
95.560181537508313
  0
ARC
  5
417C
  8
0
 10
-0.544874025839093
 20
5.28878695238686
 30
0.0
 40
0.0379215748021531
 50
94.946367881724782
 51
275.95787409034898
  0
ARC
  5
417D
  8
0
 10
-0.5410208755972527
 20
5.0796030876139691
 30
0.0
 40
0.0625011614098804
 50
89.650631059956552
 51
270.34927259146031
  0
ARC
  5
417E
  8
0
 10
-0.5396803900623705
 20
5.0796030873935791
 30
0.0
 40
0.0625073643351429
 50
269.12047938838822
 51
90.879520611591275
  0
ARC
  5
417F
  8
0
 10
-0.5410225999156567
 20
5.0896025283371547
 30
0.0
 40
0.0144200413295374
 50
90.227100495987528
 51
270.7487805707172
  0
ARC
  5
4180
  8
0
 10
-0.5408913101500001
 20
5.0896036464499987
 30
0.0
 40
0.0144200413295366
 50
270.22710049603609
 51
90.748780570694393
  0
ARC
  5
4181
  8
0
 10
-0.5403647024742861
 20
5.088714746685735
 30
0.0
 40
0.0379201648871461
 50
275.34406043457062
 51
95.560181537508313
  0
ARC
  5
4182
  8
0
 10
-0.540769113989093
 20
5.0886761473368587
 30
0.0
 40
0.0379215748021531
 50
94.946367881724782
 51
275.95787409034898
  0
ARC
  5
4183
  8
0
 10
-0.3233346599472526
 20
5.0800293384639694
 30
0.0
 40
0.0625011614098804
 50
89.650631059956552
 51
270.34927259146031
  0
ARC
  5
4184
  8
0
 10
-0.3219941744123704
 20
5.0800293382435786
 30
0.0
 40
0.0625073643351429
 50
269.12047938838822
 51
90.879520611591275
  0
ARC
  5
4185
  8
0
 10
-0.3233363842656567
 20
5.090028779187155
 30
0.0
 40
0.0144200413295374
 50
90.227100495987528
 51
270.7487805707172
  0
ARC
  5
4186
  8
0
 10
-0.3232050945
 20
5.0900298972999991
 30
0.0
 40
0.0144200413295366
 50
270.22710049603609
 51
90.748780570694393
  0
ARC
  5
4187
  8
0
 10
-0.322678486824286
 20
5.0891409975357362
 30
0.0
 40
0.0379201648871461
 50
275.34406043457062
 51
95.560181537508313
  0
ARC
  5
4188
  8
0
 10
-0.323082898339093
 20
5.0891023981868591
 30
0.0
 40
0.0379215748021531
 50
94.946367881724782
 51
275.95787409034898
  0
ARC
  5
4189
  8
0
 10
-0.2172547702472526
 20
5.1791961754639679
 30
0.0
 40
0.0625011614098804
 50
89.650631059956552
 51
270.34927259146031
  0
ARC
  5
418A
  8
0
 10
-0.2159142847123704
 20
5.179196175243578
 30
0.0
 40
0.0625073643351429
 50
269.12047938838822
 51
90.879520611591275
  0
ARC
  5
418B
  8
0
 10
-0.2172564945656567
 20
5.1891956161871553
 30
0.0
 40
0.0144200413295374
 50
90.227100495987528
 51
270.7487805707172
  0
ARC
  5
418C
  8
0
 10
-0.2171252047999999
 20
5.1891967342999994
 30
0.0
 40
0.0144200413295366
 50
270.22710049603609
 51
90.748780570694393
  0
ARC
  5
418D
  8
0
 10
-0.2165985971242859
 20
5.1883078345357347
 30
0.0
 40
0.0379201648871461
 50
275.34406043457062
 51
95.560181537508313
  0
ARC
  5
418E
  8
0
 10
-0.217003008639093
 20
5.1882692351868593
 30
0.0
 40
0.0379215748021531
 50
94.946367881724782
 51
275.95787409034898
  0
ARC
  5
418F
  8
0
 10
-0.1055896003472527
 20
5.0796073146639689
 30
0.0
 40
0.0625011614098804
 50
89.650631059956552
 51
270.34927259146031
  0
ARC
  5
4190
  8
0
 10
-0.1042491148123705
 20
5.0796073144435789
 30
0.0
 40
0.0625073643351429
 50
269.12047938838822
 51
90.879520611591275
  0
ARC
  5
4191
  8
0
 10
-0.1055913246656568
 20
5.0896067553871562
 30
0.0
 40
0.0144200413295374
 50
90.227100495987528
 51
270.7487805707172
  0
ARC
  5
4192
  8
0
 10
-0.1054600349000001
 20
5.0896078735000003
 30
0.0
 40
0.0144200413295366
 50
270.22710049603609
 51
90.748780570694393
  0
ARC
  5
4193
  8
0
 10
-0.1049334272242861
 20
5.0887189737357357
 30
0.0
 40
0.0379201648871461
 50
275.34406043457062
 51
95.560181537508313
  0
ARC
  5
4194
  8
0
 10
-0.1053378387390931
 20
5.0886803743868603
 30
0.0
 40
0.0379215748021531
 50
94.946367881724782
 51
275.95787409034898
  0
ARC
  5
4195
  8
0
 10
-0.2134574606472526
 20
4.9799487074639686
 30
0.0
 40
0.0625011614098804
 50
89.650631059956552
 51
270.34927259146031
  0
ARC
  5
4196
  8
0
 10
-0.2121169751123704
 20
4.9799487072435786
 30
0.0
 40
0.0625073643351429
 50
269.12047938838822
 51
90.879520611591275
  0
ARC
  5
4197
  8
0
 10
-0.2134591849656566
 20
4.989948148187155
 30
0.0
 40
0.0144200413295374
 50
90.227100495987528
 51
270.7487805707172
  0
ARC
  5
4198
  8
0
 10
-0.2133278951999999
 20
4.9899492663
 30
0.0
 40
0.0144200413295366
 50
270.22710049603609
 51
90.748780570694393
  0
ARC
  5
4199
  8
0
 10
-0.2128012875242859
 20
4.9890603665357363
 30
0.0
 40
0.0379201648871461
 50
275.34406043457062
 51
95.560181537508313
  0
ARC
  5
419A
  8
0
 10
-0.2132056990390929
 20
4.9890217671868591
 30
0.0
 40
0.0379215748021531
 50
94.946367881724782
 51
275.95787409034898
  0
ARC
  5
419B
  8
0
 10
-0.4359452706472526
 20
4.9794470106139688
 30
0.0
 40
0.0625011614098804
 50
89.650631059956552
 51
270.34927259146031
  0
ARC
  5
419C
  8
0
 10
-0.4346047851123705
 20
4.9794470103935788
 30
0.0
 40
0.0625073643351429
 50
269.12047938838822
 51
90.879520611591275
  0
ARC
  5
419D
  8
0
 10
-0.4359469949656568
 20
4.9894464513371561
 30
0.0
 40
0.0144200413295374
 50
90.227100495987528
 51
270.7487805707172
  0
ARC
  5
419E
  8
0
 10
-0.4358157052000001
 20
4.9894475694500002
 30
0.0
 40
0.0144200413295366
 50
270.22710049603609
 51
90.748780570694393
  0
ARC
  5
419F
  8
0
 10
-0.4352890975242861
 20
4.9885586696857356
 30
0.0
 40
0.0379201648871461
 50
275.34406043457062
 51
95.560181537508313
  0
ARC
  5
41A0
  8
0
 10
-0.4356935090390931
 20
4.9885200703368602
 30
0.0
 40
0.0379215748021531
 50
94.946367881724782
 51
275.95787409034898
  0
ARC
  5
41A1
  8
0
 10
-0.8662037575646424
 20
4.4375298462353623
 30
0.0
 40
0.0119999489354663
 50
179.9997561832765
 51
269.99976062028207
  0
ARC
  5
41A2
  8
0
 10
0.2197925924620984
 20
4.4375322065890419
 30
0.0
 40
0.0120023132600594
 50
270.04660752517373
 51
359.98897608204601
  0
ARC
  5
41A3
  8
0
 10
-0.9044469239746561
 20
-1.963470102689111
 30
0.0
 40
0.0350000000255301
 50
181.0000017766659
 51
270.00165727985848
  0
ARC
  5
43A3
  8
0
 10
-0.1036226717145728
 20
7.4656660239203889
 30
0.0
 40
0.0625011614098804
 50
89.650631059956552
 51
270.34927259146031
  0
ARC
  5
43A4
  8
0
 10
-0.1022821861796906
 20
7.465666023699999
 30
0.0
 40
0.0625073643351429
 50
269.12047938838822
 51
90.879520611591275
  0
ARC
  5
43A5
  8
0
 10
-0.1036243960329769
 20
7.4756654646435763
 30
0.0
 40
0.0144200413295374
 50
90.227100495987528
 51
270.7487805707172
  0
ARC
  5
43A6
  8
0
 10
-0.1034931062673202
 20
7.4756665827564204
 30
0.0
 40
0.0144200413295366
 50
270.22710049603609
 51
90.748780570694393
  0
ARC
  5
43A7
  8
0
 10
-0.1029664985916062
 20
7.4747776829921557
 30
0.0
 40
0.0379201648871461
 50
275.34406043457062
 51
95.560181537508313
  0
ARC
  5
43A8
  8
0
 10
-0.1033709101064132
 20
7.4747390836432803
 30
0.0
 40
0.0379215748021531
 50
94.946367881724782
 51
275.95787409034898
  0
ARC
  5
43C6
  8
0
 10
0.2147943771121685
 20
8.1835293689015796
 30
0.0
 40
0.0120005283994658
 50
0.0025228055280024
 51
89.999243787109293
  0
ARC
  5
43C7
  8
0
 10
0.2144340312585336
 20
8.1178907715414681
 30
0.0
 40
0.0123661409595531
 50
271.67226840699681
 51
358.32773159299859
  0
ARC
  5
43C8
  8
0
 10
0.2191697206399822
 20
8.0929051033995698
 30
0.0
 40
0.0126406352754783
 50
2.8331365484860518
 51
87.131234934710477
  0
ARC
  5
43C9
  8
0
 10
-0.8612043626747936
 20
8.1835291654747948
 30
0.0
 40
0.0120007318475193
 50
90.003493994884835
 51
179.996506005122
  0
ARC
  5
43CA
  8
0
 10
-0.8612049572890324
 20
8.1175300345109687
 30
0.0
 40
0.0120001372117521
 50
180.0006551266228
 51
269.99934487337867
  0
ARC
  5
43CB
  8
0
 10
-0.8662027880314543
 20
8.0935275906531192
 30
0.0
 40
0.0120023066901946
 50
90.004867623011407
 51
179.98898868898189
  0
ATTDEF
  5
4458
  8
DEFPOINTS
 10
-0.3296101219221845
 20
-5.92298651316651
 30
0.0
 40
0.001
  1
K-8487
  3

  2
MODELNUMBER
 70
     0
1001
ACDBATTR
1070
     0
1070
     1
  0
ATTDEF
  5
4459
  8
DEFPOINTS
 10
-0.3296101219221845
 20
-5.9246531798331752
 30
0.0
 40
0.001
  1

  3

  2
TRADENAME
 70
     0
1001
ACDBATTR
1070
     0
1070
     1
  0
ATTDEF
  5
445A
  8
DEFPOINTS
 10
-0.3296101219221845
 20
-5.9263198464998403
 30
0.0
 40
0.001
  1
HANDSHOWER KIT
  3

  2
PRODUCT
 70
     0
1001
ACDBATTR
1070
     0
1070
     1
  0
ATTDEF
  5
445B
  8
DEFPOINTS
 10
-0.3296101219221845
 20
-5.9279865131665046
 30
0.0
 40
0.001
  1
PREMIUM MATERIALS
  3

  2
MATERIAL
 70
     0
1001
ACDBATTR
1070
     0
1070
     1
  0
LINE
  5
61DF
  8
0
 10
-0.7722822540000003
 20
-5.8984701026999993
 30
0.0
 11
-0.5734759316000009
 21
-5.8984701026999993
 31
0.0
  0
LINE
  5
61E0
  8
0
 10
0.1257169613999984
 20
-5.8984701026999993
 30
0.0
 11
-0.0726623543371538
 21
-5.8984701027000002
 31
0.0
  0
LINE
  5
61E6
  8
0
 10
-0.0730765895999994
 20
-5.7984701026999987
 30
0.0
 11
0.1454669614000004
 21
-5.7984701026999987
 31
0.0
  0
LINE
  5
64EA
  8
0
 10
-0.7922830386000009
 20
-5.8184701026999992
 30
0.0
 11
-0.7922830386000009
 21
-5.8784701026999988
 31
0.0
  0
LINE
  5
64EB
  8
0
 10
-0.7922830386000009
 20
18.971529897299991
 30
0.0
 11
-0.7922830386000009
 21
19.03152989729999
 31
0.0
  0
LINE
  5
6736
  8
0
 10
0.145716961399998
 20
18.971529897299991
 30
0.0
 11
0.145716961399998
 21
19.03152989729999
 31
0.0
  0
LINE
  5
6F94
  8
0
 10
9.2697427334000011
 20
20.424985704099999
 30
0.0
 11
9.2478459173999994
 21
20.979699124
 31
0.0
  0
LINE
  5
7031
  8
0
 10
9.2417169614000017
 20
21.106029897300001
 30
0.0
 11
9.2417169614000017
 21
21.006029897299999
 31
0.0
  0
LINE
  5
722C
  8
0
 10
10.111716961400001
 20
21.106029897300001
 30
0.0
 11
10.111716961400001
 21
21.095954791899999
 31
0.0
  0
LINE
  5
7787
  8
0
 10
0.1454669614000004
 20
18.951529897299999
 30
0.0
 11
-0.7920330385999997
 21
18.951529897299999
 31
0.0
  0
LINE
  5
778A
  8
0
 10
-0.7722830386000013
 20
19.0515298973
 30
0.0
 11
0.1257169613999984
 21
19.0515298973
 31
0.0
  0
LINE
  5
77D2
  8
0
 10
8.9901559663999997
 20
21.106029897300001
 30
0.0
 11
10.363277956299999
 21
21.106029897300001
 31
0.0
  0
ARC
  5
77FD
  8
0
 10
-0.7722830386000013
 20
-5.8184701026999992
 30
0.0
 40
0.02
 50
89.996501881200047
 51
180.0
  0
ARC
  5
7825
  8
0
 10
0.1257169613999984
 20
-5.8184701026999992
 30
0.0
 40
0.02
 50
0.0
 51
90.003498118799953
  0
ARC
  5
785B
  8
0
 10
-0.7722830386000013
 20
19.03152989729999
 30
0.0
 40
0.02
 50
89.997752121300053
 51
180.0
  0
ARC
  5
785C
  8
0
 10
-0.7722830386000013
 20
18.971529897299991
 30
0.0
 40
0.02
 50
180.0
 51
270.00349811879988
  0
ARC
  5
785D
  8
0
 10
-0.3232830385999996
 20
17.951529897299999
 30
0.0
 40
1.1149999999999991
 50
294.91183073989998
 51
65.219350540899953
  0
ARC
  5
785E
  8
0
 10
-0.3232830385999996
 20
17.951529897299999
 30
0.0
 40
1.1149999999999991
 50
81.403568971600052
 51
98.596431028399962
  0
ARC
  5
785F
  8
0
 10
-0.3232830385999996
 20
17.951529897299999
 30
0.0
 40
1.1149999999999991
 50
114.7806494591
 51
245.08816926009999
  0
ARC
  5
7862
  8
0
 10
0.1257169613999984
 20
18.971529897299991
 30
0.0
 40
0.02
 50
269.99650188120012
 51
0.0
  0
ARC
  5
7863
  8
0
 10
0.1257169613999984
 20
19.03152989729999
 30
0.0
 40
0.02
 50
0.0
 51
90.002247878699961
  0
ARC
  5
7865
  8
0
 10
9.3017169613999968
 20
21.006029897299999
 30
0.0
 40
0.06
 50
180.0
 51
206.05079049929989
  0
ARC
  5
7868
  8
0
 10
9.6767169613999968
 20
21.541529897299998
 30
0.0
 40
1.175
 50
292.01203722049991
 51
249.6531497359999
  0
ARC
  5
786A
  8
0
 10
9.6767169613999968
 20
21.541529897299998
 30
0.0
 40
0.9876553754999999
 50
297.03011161030003
 51
245.09162817879999
  0
ARC
  5
786D
  8
0
 10
9.6767169613999968
 20
21.541529897299998
 30
0.0
 40
0.8375
 50
302.96312224600001
 51
239.6049172141
  0
ARC
  5
787C
  8
0
 10
9.7204991606144056
 20
21.529136502645692
 30
0.0
 40
0.7695347814928784
 50
302.44463525683659
 51
326.64524650022059
  0
ARC
  5
787D
  8
0
 10
9.6384848646283228
 20
21.535066328936711
 30
0.0
 40
0.7774333540243238
 50
213.4948926779746
 51
240.237614659299
  0
LINE
  5
787E
  8
0
 10
10.1263642924
 20
21.095954791899999
 30
0.0
 11
10.111716961400001
 21
21.095954791899999
 31
0.0
  0
ENDSEC
  0
EOF
