  0
SECTION
  2
HEADER
  9
$ACADVER
  1
AC1009
  9
$INSBASE
 10
259.24412640660671
 20
-7.129438502200002
 30
0.0
  9
$EXTMIN
 10
226.92129240660671
 20
-7.1364218694920956
 30
0.0
  9
$EXTMAX
 10
291.56694864118361
 20
15.68356148914539
 30
0.0
  9
$LIMMIN
 10
0.0
 20
0.0
  9
$LIMMAX
 10
11.692913385800001
 20
8.2677165353999982
  9
$ORTHOMODE
 70
     1
  9
$REGENMODE
 70
     1
  9
$FILLMODE
 70
     1
  9
$QTEXTMODE
 70
     0
  9
$MIRRTEXT
 70
     0
  9
$DRAGMODE
 70
     2
  9
$LTSCALE
 40
0.6431102362
  9
$OSMODE
 70
  3071
  9
$ATTMODE
 70
     1
  9
$TEXTSIZE
 40
0.2
  9
$TRACEWID
 40
0.05
  9
$TEXTSTYLE
  7
STANDARD
  9
$CLAYER
  8
0
  9
$CELTYPE
  6
BYLAYER
  9
$CECOLOR
 62
   256
  9
$DIMSCALE
 40
1.0
  9
$DIMASZ
 40
0.1875
  9
$DIMEXO
 40
0.0625
  9
$DIMDLI
 40
0.4443307087
  9
$DIMRND
 40
0.0
  9
$DIMDLE
 40
0.0
  9
$DIMEXE
 40
0.125
  9
$DIMTP
 40
0.01
  9
$DIMTM
 40
0.01
  9
$DIMTXT
 40
1.0
  9
$DIMCEN
 40
0.1052362205
  9
$DIMTSZ
 40
0.0
  9
$DIMTOL
 70
     1
  9
$DIMLIM
 70
     0
  9
$DIMTIH
 70
     1
  9
$DIMTOH
 70
     1
  9
$DIMSE1
 70
     0
  9
$DIMSE2
 70
     0
  9
$DIMTAD
 70
     0
  9
$DIMZIN
 70
     0
  9
$DIMBLK
  1

  9
$DIMASO
 70
     1
  9
$DIMSHO
 70
     1
  9
$DIMPOST
  1
\X
  9
$DIMAPOST
  1

  9
$DIMALT
 70
     1
  9
$DIMALTD
 70
     2
  9
$DIMALTF
 40
25.399999999999999
  9
$DIMLFAC
 40
1.0
  9
$DIMTOFL
 70
     0
  9
$DIMTVP
 40
0.0
  9
$DIMTIX
 70
     0
  9
$DIMSOXD
 70
     0
  9
$DIMSAH
 70
     0
  9
$DIMBLK1
  1

  9
$DIMBLK2
  1

  9
$DIMSTYLE
  2
STANDARD
  9
$DIMCLRD
 70
     0
  9
$DIMCLRE
 70
     0
  9
$DIMCLRT
 70
     0
  9
$DIMTFAC
 40
1.0
  9
$DIMGAP
 40
0.09
  9
$LUNITS
 70
     2
  9
$LUPREC
 70
     4
  9
$SKETCHINC
 40
0.1
  9
$FILLETRAD
 40
0.0
  9
$AUNITS
 70
     0
  9
$AUPREC
 70
     0
  9
$MENU
  1
.
  9
$ELEVATION
 40
0.0
  9
$PELEVATION
 40
0.0
  9
$THICKNESS
 40
0.0
  9
$LIMCHECK
 70
     0
  9
$BLIPMODE
 70
     0
  9
$CHAMFERA
 40
0.0
  9
$CHAMFERB
 40
0.0
  9
$SKPOLY
 70
     0
  9
$TDCREATE
 40
2458191.3895696988
  9
$TDUPDATE
 40
2458191.5013468978
  9
$TDINDWG
 40
0.1083015394
  9
$TDUSRTIMER
 40
0.1083015394
  9
$USRTIMER
 70
     1
  9
$ANGBASE
 50
0.0
  9
$ANGDIR
 70
     0
  9
$PDMODE
 70
     0
  9
$PDSIZE
 40
0.3125
  9
$PLINEWID
 40
0.0
  9
$COORDS
 70
     1
  9
$SPLFRAME
 70
     0
  9
$SPLINETYPE
 70
     6
  9
$SPLINESEGS
 70
     8
  9
$ATTDIA
 70
     1
  9
$ATTREQ
 70
     1
  9
$HANDLING
 70
     1
  9
$HANDSEED
  5
F6B
  9
$SURFTAB1
 70
     6
  9
$SURFTAB2
 70
     6
  9
$SURFTYPE
 70
     6
  9
$SURFU
 70
     6
  9
$SURFV
 70
     6
  9
$UCSNAME
  2

  9
$UCSORG
 10
0.0
 20
0.0
 30
0.0
  9
$UCSXDIR
 10
1.0
 20
0.0
 30
0.0
  9
$UCSYDIR
 10
0.0
 20
1.0
 30
0.0
  9
$PUCSNAME
  2

  9
$PUCSORG
 10
0.0
 20
0.0
 30
0.0
  9
$PUCSXDIR
 10
1.0
 20
0.0
 30
0.0
  9
$PUCSYDIR
 10
0.0
 20
1.0
 30
0.0
  9
$USERI1
 70
     0
  9
$USERI2
 70
     0
  9
$USERI3
 70
     0
  9
$USERI4
 70
     0
  9
$USERI5
 70
     0
  9
$USERR1
 40
0.0
  9
$USERR2
 40
0.0
  9
$USERR3
 40
0.0
  9
$USERR4
 40
0.0
  9
$USERR5
 40
0.0
  9
$WORLDVIEW
 70
     1
  9
$SHADEDGE
 70
     3
  9
$SHADEDIF
 70
    70
  9
$TILEMODE
 70
     1
  9
$MAXACTVP
 70
    64
  9
$PLIMCHECK
 70
     0
  9
$PEXTMIN
 10
1.0000000000000000E+020
 20
1.0000000000000000E+020
 30
1.0000000000000000E+020
  9
$PEXTMAX
 10
-1.0000000000000000E+020
 20
-1.0000000000000000E+020
 30
-1.0000000000000000E+020
  9
$PLIMMIN
 10
0.0
 20
0.0
  9
$PLIMMAX
 10
12.0
 20
9.0
  9
$UNITMODE
 70
     0
  9
$VISRETAIN
 70
     1
  9
$PLINEGEN
 70
     0
  9
$PSLTSCALE
 70
     1
  0
ENDSEC
  0
SECTION
  2
TABLES
  0
TABLE
  2
VPORT
 70
     1
  0
VPORT
  2
*ACTIVE
 70
     0
 10
0.0
 20
0.0
 11
1.0
 21
1.0
 12
0.0
 22
0.0
 13
0.0
 23
0.0
 14
1.0
 24
1.0
 15
0.0
 25
0.0
 16
-0.0000000000000568
 26
0.0
 36
191.53141355164189
 17
259.24412052389522
 27
4.2735698098266459
 37
0.0
 40
68.561557478201593
 41
2.0811403508771931
 42
50.0
 43
0.0
 44
0.0
 50
0.0
 51
0.0
 71
     0
 72
   100
 73
     1
 74
     1
 75
     0
 76
     0
 77
     0
 78
     0
  0
ENDTAB
  0
TABLE
  2
LTYPE
 70
     2
  0
LTYPE
  2
CONTINUOUS
 70
     0
  3
Solid line
 72
    65
 73
     0
 40
0.0
  0
LTYPE
  2
PHANTOM2
 70
     0
  3
___ _ _ ___ _ _ ___ _ _ ___ _ _
 72
    65
 73
     6
 40
1.25
 49
0.625
 49
-0.125
 49
0.125
 49
-0.125
 49
0.125
 49
-0.125
  0
ENDTAB
  0
TABLE
  2
LAYER
 70
     2
  0
LAYER
  2
0
 70
     0
 62
   255
  6
CONTINUOUS
  0
LAYER
  2
DEFPOINTS
 70
     0
 62
     7
  6
CONTINUOUS
  0
ENDTAB
  0
TABLE
  2
STYLE
 70
     1
  0
STYLE
  2
STANDARD
 70
     0
 40
0.0
 41
0.8
 50
0.0
 71
     0
 42
0.2
  3
txt
  4

  0
ENDTAB
  0
TABLE
  2
VIEW
 70
     0
  0
ENDTAB
  0
TABLE
  2
UCS
 70
     0
  0
ENDTAB
  0
TABLE
  2
APPID
 70
     9
  0
APPID
  2
ACAD
 70
     0
  0
APPID
  2
ACAD_MLEADERVER
 70
     0
  0
APPID
  2
ACAD_EXEMPT_FROM_CAD_STANDARDS
 70
     0
  0
APPID
  2
ACAD_DSTYLE_DIMJAG
 70
     0
  0
APPID
  2
ACAD_DSTYLE_DIMTALN
 70
     0
  0
APPID
  2
ACAD_NAV_VCDISPLAY
 70
     0
  0
APPID
  2
ACAECLAYERSTANDARD
 70
     0
  0
APPID
  2
ACCMTRANSPARENCY
 70
     0
  0
APPID
  2
AcDbAttr
 70
     0
  0
ENDTAB
  0
TABLE
  2
DIMSTYLE
 70
     1
  0
DIMSTYLE
  2
STANDARD
 70
     0
  3

  4

  5

  6

  7

 40
1.0
 41
0.1875
 42
0.0625
 43
0.38
 44
0.125
 45
0.0
 46
0.0
 47
0.01
 48
0.01
140
0.15625
141
0.09
142
0.0
143
25.399999999999999
144
1.0
145
0.0
146
1.0
147
0.09
 71
     1
 72
     0
 73
     1
 74
     1
 75
     0
 76
     0
 77
     0
 78
     4
170
     0
171
     2
172
     0
173
     0
174
     0
175
     0
176
     0
177
     0
178
     0
  0
ENDTAB
  0
ENDSEC
  0
SECTION
  2
BLOCKS
  0
BLOCK
  8
0
  2
$MODEL_SPACE
 70
     0
 10
0.0
 20
0.0
 30
0.0
  3
$MODEL_SPACE
  1

  0
ENDBLK
  5
21
  8
0
  0
BLOCK
 67
     1
  8
0
  2
$PAPER_SPACE
 70
     0
 10
0.0
 20
0.0
 30
0.0
  3
$PAPER_SPACE
  1

  0
ENDBLK
  5
1D
 67
     1
  8
0
  0
ENDSEC
  0
SECTION
  2
ENTITIES
  0
LINE
  5
D96
  8
0
 10
227.3856672390115
 20
-7.0080008261652997
 30
0.0
 11
227.31852357047379
 21
-6.8560654922999991
 31
0.0
  0
LINE
  5
D97
  8
0
 10
273.11421686860672
 20
-7.1294385022000002
 30
0.0
 11
269.32382198250667
 21
-7.1294385022000002
 31
0.0
  0
LINE
  5
D98
  8
0
 10
249.17081991270669
 20
-7.1294385022000002
 30
0.0
 11
245.38042502650671
 21
-7.1294385022000002
 31
0.0
  0
LINE
  5
D99
  8
0
 10
227.4766209262738
 20
-7.0664385021999996
 30
0.0
 11
291.0116201215165
 21
-7.0664385021999987
 31
0.0
  0
LINE
  5
D9A
  8
0
 10
291.17642787521072
 20
-6.7958661750000093
 30
0.0
 11
227.3118131725345
 21
-6.7958661749999987
 31
0.0
  0
LINE
  5
D9B
  8
0
 10
227.14759087355691
 20
10.8404156391
 30
0.0
 11
291.34065017431641
 21
10.8404156391
 31
0.0
  0
LINE
  5
D9C
  8
0
 10
291.1759999229165
 20
11.259943192499991
 30
0.0
 11
227.3122411247962
 21
11.2599431925
 31
0.0
  0
LINE
  5
D9D
  8
0
 10
227.4159339834479
 20
15.68356148914539
 30
0.0
 11
291.07231660135972
 21
15.68356148914539
 31
0.0
  0
ARC
  5
DA4
  8
0
 10
227.25328093997379
 20
10.885743443599999
 30
0.0
 40
0.115
 50
148.39142303480011
 51
203.21327286200011
  0
ARC
  5
DA5
  8
0
 10
227.21691787147381
 20
11.2159150495
 30
0.0
 40
0.105
 50
320.15394044319947
 51
24.791388992199831
  0
ARC
  5
DA6
  8
0
 10
227.4150773666357
 20
-6.8148290110893504
 30
0.0
 40
0.1049908707265646
 50
169.5944660953717
 51
203.12650237161961
  0
ARC
  5
DA7
  8
0
 10
227.4766209262738
 20
-6.966438502199999
 30
0.0
 40
0.1
 50
204.55857098389981
 51
270.0
  0
ARC
  5
DA8
  8
0
 10
273.11421686860672
 20
-7.0494385022000001
 30
0.0
 40
0.08
 50
270.0
 51
347.73110100402857
  0
ARC
  5
DA9
  8
0
 10
269.32382198250667
 20
-7.0494385022000001
 30
0.0
 40
0.08
 50
192.26889899597131
 51
270.0
  0
ARC
  5
DAA
  8
0
 10
245.38042502650671
 20
-7.0494385022000001
 30
0.0
 40
0.08
 50
192.26889899595739
 51
270.0
  0
ARC
  5
DAB
  8
0
 10
249.17081991270669
 20
-7.0494385022000001
 30
0.0
 40
0.08
 50
270.0
 51
347.73110100404261
  0
ARC
  5
DC8
  8
0
 10
227.48017892711161
 20
15.43786212433068
 30
0.0
 40
0.2539598209494956
 50
104.6535010582252
 51
163.35594899090611
  0
ARC
  5
DC9
  8
0
 10
233.5104068677129
 20
13.49586042116313
 30
0.0
 40
6.5891262265294124
 50
162.19564171028071
 51
199.8363276338269
  0
ARC
  5
DCA
  8
0
 10
228.7151262011165
 20
10.00262500685794
 30
0.0
 40
1.822886781498799
 50
141.04714777218439
 51
148.8335473343011
  0
ARC
  5
DCB
  8
0
 10
220.988452044713
 20
8.5577282930516905
 30
0.0
 40
6.5685350445709734
 50
6.7051762703791491
 51
20.335609467261399
  0
ARC
  5
DCC
  8
0
 10
213.60092510151151
 20
8.117207024238974
 30
0.0
 40
13.9634387452003
 50
349.4159152439351
 51
4.9607582677927384
  0
ARC
  5
DCD
  8
0
 10
241.85221788068731
 20
-2.7301202880013098
 30
0.0
 40
14.809126458434131
 50
180.79253463573849
 51
191.2096505680021
  0
ARC
  5
DCE
  8
0
 10
223.42164216994919
 20
-6.1571230988808079
 30
0.0
 40
3.9422611718398479
 50
350.67557231918232
 51
7.9920484814290322
  0
ARC
  5
DCF
  8
0
 10
267.84286047146571
 20
-0.3517654622700232
 30
0.0
 40
40.943998241054608
 50
171.70894938810531
 51
178.10338720399031
  0
ARC
  5
DD0
  8
0
 10
1744.0005554080999
 20
46.496643897609069
 30
0.0
 40
1517.7612238641491
 50
181.71763899888049
 51
181.86638259958471
  0
LINE
  5
DD1
  8
0
 10
291.10257380877869
 20
-7.0080008261653024
 30
0.0
 11
291.16971747731651
 21
-6.8560654923000008
 31
0.0
  0
ARC
  5
DD2
  8
0
 10
291.23496010781651
 20
10.885743443599999
 30
0.0
 40
0.115
 50
336.78672713799989
 51
31.608576965199909
  0
ARC
  5
DD3
  8
0
 10
291.27132317631651
 20
11.2159150495
 30
0.0
 40
0.105
 50
155.2086110078001
 51
219.84605955680041
  0
ARC
  5
DD4
  8
0
 10
291.07316368115448
 20
-6.8148290110893521
 30
0.0
 40
0.1049908707265646
 50
336.87349762838039
 51
10.40553390462826
  0
ARC
  5
DD5
  8
0
 10
291.0116201215165
 20
-6.9664385022000008
 30
0.0
 40
0.1
 50
270.0
 51
335.44142901610007
  0
ARC
  5
DD6
  8
0
 10
291.0080538206833
 20
15.43785707406251
 30
0.0
 40
0.2539692197324045
 50
16.644606292447179
 51
75.342894001690695
  0
ARC
  5
DD7
  8
0
 10
284.97783418007731
 20
13.49586042116313
 30
0.0
 40
6.5891262265294124
 50
340.16367236617299
 51
17.80435828971931
  0
ARC
  5
DD8
  8
0
 10
289.77311484667371
 20
10.00262500685794
 30
0.0
 40
1.822886781498799
 50
31.166452665698849
 51
38.952852227815583
  0
ARC
  5
DD9
  8
0
 10
297.49978900307718
 20
8.5577282930516887
 30
0.0
 40
6.5685350445709734
 50
159.66439053273859
 51
173.29482372962079
  0
ARC
  5
DDA
  8
0
 10
304.88731594627882
 20
8.1172070242389722
 30
0.0
 40
13.9634387452003
 50
175.03924173220719
 51
190.5840847560649
  0
ARC
  5
DDB
  8
0
 10
276.63602316710291
 20
-2.730120288001312
 30
0.0
 40
14.809126458434131
 50
348.79034943199781
 51
359.2074653642614
  0
ARC
  5
DDC
  8
0
 10
295.0665988778411
 20
-6.1571230988808097
 30
0.0
 40
3.9422611718398479
 50
172.00795151857091
 51
189.32442768081759
  0
ARC
  5
DDD
  8
0
 10
250.6453805763245
 20
-0.351765462270025
 30
0.0
 40
40.943998241054608
 50
1.8966127960096559
 51
8.291050611894704
  0
ARC
  5
DDE
  8
0
 10
-1225.51231436031
 20
46.496643897609069
 30
0.0
 40
1517.7612238641491
 50
358.13361740041529
 51
358.2823610011194
  0
ATTDEF
  5
E9F
  8
DEFPOINTS
 10
259.23876819170499
 20
-7.1314218694921001
 30
0.0
 40
0.001
  1
K-8337
  3

  2
MODELNUMBER
 70
     0
1001
AcDbAttr
1070
     0
1070
     1
  0
ATTDEF
  5
EA0
  8
DEFPOINTS
 10
259.23876819170499
 20
-7.1330885361587661
 30
0.0
 40
0.001
  1
CHESS
  3

  2
TRADENAME
 70
     0
1001
AcDbAttr
1070
     0
1070
     1
  0
ATTDEF
  5
EA1
  8
DEFPOINTS
 10
259.23876819170499
 20
-7.1347552028254313
 30
0.0
 40
0.001
  1
BATH
  3

  2
PRODUCT
 70
     0
1001
AcDbAttr
1070
     0
1070
     1
  0
ATTDEF
  5
EA2
  8
DEFPOINTS
 10
259.23876819170499
 20
-7.1364218694920956
 30
0.0
 40
0.001
  1
LITHOCAST
  3

  2
MATERIAL
 70
     0
1001
AcDbAttr
1070
     0
1070
     1
  0
ENDSEC
  0
EOF
