  0
SECTION
  2
HEADER
  9
$ACADVER
  1
AC1009
  9
$INSBASE
 10
438.13228708920388
 20
25.445176035668911
 30
0.0
  9
$EXTMIN
 10
422.66966436012808
 20
25.431012592180949
 30
0.0
  9
$EXTMAX
 10
453.59490981827958
 20
49.240686035668901
 30
0.0
  9
$LIMMIN
 10
0.0
 20
0.0
  9
$LIMMAX
 10
11.692913385800001
 20
8.2677165353999982
  9
$ORTHOMODE
 70
     0
  9
$REGENMODE
 70
     1
  9
$FILLMODE
 70
     1
  9
$QTEXTMODE
 70
     0
  9
$MIRRTEXT
 70
     0
  9
$DRAGMODE
 70
     2
  9
$LTSCALE
 40
0.6431102362
  9
$OSMODE
 70
  3071
  9
$ATTMODE
 70
     1
  9
$TEXTSIZE
 40
0.2
  9
$TRACEWID
 40
0.05
  9
$TEXTSTYLE
  7
STANDARD
  9
$CLAYER
  8
0
  9
$CELTYPE
  6
BYLAYER
  9
$CECOLOR
 62
   256
  9
$DIMSCALE
 40
1.0
  9
$DIMASZ
 40
0.1875
  9
$DIMEXO
 40
0.0625
  9
$DIMDLI
 40
0.4443307087
  9
$DIMRND
 40
0.0
  9
$DIMDLE
 40
0.0
  9
$DIMEXE
 40
0.125
  9
$DIMTP
 40
0.01
  9
$DIMTM
 40
0.01
  9
$DIMTXT
 40
1.0
  9
$DIMCEN
 40
0.1052362205
  9
$DIMTSZ
 40
0.0
  9
$DIMTOL
 70
     1
  9
$DIMLIM
 70
     0
  9
$DIMTIH
 70
     0
  9
$DIMTOH
 70
     1
  9
$DIMSE1
 70
     0
  9
$DIMSE2
 70
     0
  9
$DIMTAD
 70
     0
  9
$DIMZIN
 70
     0
  9
$DIMBLK
  1

  9
$DIMASO
 70
     1
  9
$DIMSHO
 70
     1
  9
$DIMPOST
  1
\X
  9
$DIMAPOST
  1

  9
$DIMALT
 70
     1
  9
$DIMALTD
 70
     2
  9
$DIMALTF
 40
25.399999999999999
  9
$DIMLFAC
 40
1.0
  9
$DIMTOFL
 70
     0
  9
$DIMTVP
 40
0.0
  9
$DIMTIX
 70
     0
  9
$DIMSOXD
 70
     0
  9
$DIMSAH
 70
     0
  9
$DIMBLK1
  1

  9
$DIMBLK2
  1

  9
$DIMSTYLE
  2
STANDARD
  9
$DIMCLRD
 70
     0
  9
$DIMCLRE
 70
     0
  9
$DIMCLRT
 70
     0
  9
$DIMTFAC
 40
1.0
  9
$DIMGAP
 40
0.09
  9
$LUNITS
 70
     2
  9
$LUPREC
 70
     4
  9
$SKETCHINC
 40
0.1
  9
$FILLETRAD
 40
0.0
  9
$AUNITS
 70
     0
  9
$AUPREC
 70
     0
  9
$MENU
  1
.
  9
$ELEVATION
 40
0.0
  9
$PELEVATION
 40
0.0
  9
$THICKNESS
 40
0.0
  9
$LIMCHECK
 70
     0
  9
$BLIPMODE
 70
     0
  9
$CHAMFERA
 40
0.0
  9
$CHAMFERB
 40
0.0
  9
$SKPOLY
 70
     0
  9
$TDCREATE
 40
2458003.4053584491
  9
$TDUPDATE
 40
2458023.5056866901
  9
$TDINDWG
 40
0.2104431713
  9
$TDUSRTIMER
 40
0.2104431713
  9
$USRTIMER
 70
     1
  9
$ANGBASE
 50
0.0
  9
$ANGDIR
 70
     0
  9
$PDMODE
 70
     0
  9
$PDSIZE
 40
0.3125
  9
$PLINEWID
 40
0.0
  9
$COORDS
 70
     0
  9
$SPLFRAME
 70
     0
  9
$SPLINETYPE
 70
     6
  9
$SPLINESEGS
 70
     8
  9
$ATTDIA
 70
     1
  9
$ATTREQ
 70
     1
  9
$HANDLING
 70
     1
  9
$HANDSEED
  5
2228
  9
$SURFTAB1
 70
     6
  9
$SURFTAB2
 70
     6
  9
$SURFTYPE
 70
     6
  9
$SURFU
 70
     6
  9
$SURFV
 70
     6
  9
$UCSNAME
  2

  9
$UCSORG
 10
0.0
 20
0.0
 30
0.0
  9
$UCSXDIR
 10
1.0
 20
0.0
 30
0.0
  9
$UCSYDIR
 10
0.0
 20
1.0
 30
0.0
  9
$PUCSNAME
  2

  9
$PUCSORG
 10
0.0
 20
0.0
 30
0.0
  9
$PUCSXDIR
 10
1.0
 20
0.0
 30
0.0
  9
$PUCSYDIR
 10
0.0
 20
1.0
 30
0.0
  9
$USERI1
 70
     0
  9
$USERI2
 70
     0
  9
$USERI3
 70
     0
  9
$USERI4
 70
     0
  9
$USERI5
 70
     0
  9
$USERR1
 40
0.0
  9
$USERR2
 40
0.0
  9
$USERR3
 40
0.0
  9
$USERR4
 40
0.0
  9
$USERR5
 40
0.0
  9
$WORLDVIEW
 70
     1
  9
$SHADEDGE
 70
     3
  9
$SHADEDIF
 70
    70
  9
$TILEMODE
 70
     1
  9
$MAXACTVP
 70
    64
  9
$PLIMCHECK
 70
     0
  9
$PEXTMIN
 10
1.0000000000000000E+020
 20
1.0000000000000000E+020
 30
1.0000000000000000E+020
  9
$PEXTMAX
 10
-1.0000000000000000E+020
 20
-1.0000000000000000E+020
 30
-1.0000000000000000E+020
  9
$PLIMMIN
 10
0.0
 20
0.0
  9
$PLIMMAX
 10
12.0
 20
9.0
  9
$UNITMODE
 70
     0
  9
$VISRETAIN
 70
     1
  9
$PLINEGEN
 70
     0
  9
$PSLTSCALE
 70
     1
  0
ENDSEC
  0
SECTION
  2
TABLES
  0
TABLE
  2
VPORT
 70
     1
  0
VPORT
  2
*ACTIVE
 70
     0
 10
0.0
 20
0.0
 11
1.0
 21
1.0
 12
-1.3825432950767149
 22
-3.1254713694564482
 13
0.0
 23
0.0
 14
1.0
 24
1.0
 15
0.0
 25
0.0
 16
0.0
 26
0.0
 36
114.6395961656073
 17
438.13228708920388
 27
37.342931035668897
 37
0.0
 40
38.947246056234711
 41
2.3109756097560972
 42
50.0
 43
0.0
 44
0.0
 50
0.0
 51
0.0
 71
     0
 72
   100
 73
     1
 74
     1
 75
     0
 76
     0
 77
     0
 78
     0
  0
ENDTAB
  0
TABLE
  2
LTYPE
 70
     2
  0
LTYPE
  2
CONTINUOUS
 70
     0
  3
Solid line
 72
    65
 73
     0
 40
0.0
  0
LTYPE
  2
PHANTOM2
 70
     0
  3
___ _ _ ___ _ _ ___ _ _ ___ _ _
 72
    65
 73
     6
 40
1.25
 49
0.625
 49
-0.125
 49
0.125
 49
-0.125
 49
0.125
 49
-0.125
  0
ENDTAB
  0
TABLE
  2
LAYER
 70
     2
  0
LAYER
  2
0
 70
     0
 62
   255
  6
CONTINUOUS
  0
LAYER
  2
DEFPOINTS
 70
     0
 62
     7
  6
CONTINUOUS
  0
ENDTAB
  0
TABLE
  2
STYLE
 70
     1
  0
STYLE
  2
STANDARD
 70
     0
 40
0.0
 41
0.8
 50
0.0
 71
     0
 42
0.2
  3
txt
  4

  0
ENDTAB
  0
TABLE
  2
VIEW
 70
     0
  0
ENDTAB
  0
TABLE
  2
UCS
 70
     0
  0
ENDTAB
  0
TABLE
  2
APPID
 70
    10
  0
APPID
  2
ACAD
 70
     0
  0
APPID
  2
ACAD_MLEADERVER
 70
     0
  0
APPID
  2
ADESKUNDERLAYLAYEROVERRIDEDATA
 70
     0
  0
APPID
  2
ACAD_NAV_VCDISPLAY
 70
     0
  0
APPID
  2
ACAD_EXEMPT_FROM_CAD_STANDARDS
 70
     0
  0
APPID
  2
ACAD_DSTYLE_DIMJAG
 70
     0
  0
APPID
  2
ACAD_DSTYLE_DIMTALN
 70
     0
  0
APPID
  2
GRADIENTCOLOR1ACI
 70
     0
  0
APPID
  2
GRADIENTCOLOR2ACI
 70
     0
  0
APPID
  2
ACDBATTR
 70
     0
  0
ENDTAB
  0
TABLE
  2
DIMSTYLE
 70
     2
  0
DIMSTYLE
  2
STANDARD
 70
     0
  3

  4

  5

  6

  7

 40
1.0
 41
0.1875
 42
0.0625
 43
0.38
 44
0.125
 45
0.0
 46
0.0
 47
0.01
 48
0.01
140
0.15625
141
0.09
142
0.0
143
25.399999999999999
144
1.0
145
0.0
146
1.0
147
0.09
 71
     1
 72
     0
 73
     1
 74
     1
 75
     0
 76
     0
 77
     0
 78
     4
170
     0
171
     2
172
     0
173
     0
174
     0
175
     0
176
     0
177
     0
178
     0
  0
ENDTAB
  0
ENDSEC
  0
SECTION
  2
BLOCKS
  0
BLOCK
  8
0
  2
$MODEL_SPACE
 70
     0
 10
0.0
 20
0.0
 30
0.0
  3
$MODEL_SPACE
  1

  0
ENDBLK
  5
21
  8
0
  0
BLOCK
 67
     1
  8
0
  2
$PAPER_SPACE
 70
     0
 10
0.0
 20
0.0
 30
0.0
  3
$PAPER_SPACE
  1

  0
ENDBLK
  5
1D
 67
     1
  8
0
  0
ENDSEC
  0
SECTION
  2
ENTITIES
  0
ARC
  5
508
  8
0
 10
424.1345879763071
 20
26.505927701754889
 30
0.0
 40
1.1236039557996309
 50
119.5906669464855
 51
241.78981727738659
  0
ARC
  5
509
  8
0
 10
423.53966120788101
 20
27.552779546448079
 30
0.0
 40
0.0804885887074381
 50
299.87397850537621
 51
37.247523212471407
  0
ARC
  5
50A
  8
0
 10
432.09968031535948
 20
31.681838527594358
 30
0.0
 40
9.4249841365235518
 50
181.75199178312681
 51
205.65354236674051
  0
ARC
  5
50B
  8
0
 10
448.95186144547381
 20
32.097958312905838
 30
0.0
 40
26.28219708534585
 50
168.59453239005981
 51
181.53551317205759
  0
ARC
  5
50C
  8
0
 10
381.76477874989342
 20
44.07140350919984
 30
0.0
 40
41.974457967204529
 50
350.70984175095077
 51
356.53949021832142
  0
ARC
  5
50D
  8
0
 10
402.60264698954649
 20
42.33653437726479
 30
0.0
 40
21.075196220950751
 50
357.82801490569238
 51
16.617797233686691
  0
ARC
  5
50E
  8
0
 10
423.46722878785693
 20
48.594644092020218
 30
0.0
 40
0.7083081501309584
 50
114.2039795948177
 51
199.02528076090761
  0
ARC
  5
55F
  8
0
 10
452.1299862021005
 20
26.505927701754921
 30
0.0
 40
1.1236039557996309
 50
298.21018272261159
 51
60.409333053514331
  0
ARC
  5
560
  8
0
 10
452.72462776003488
 20
27.552573977526571
 30
0.0
 40
0.0801684045137898
 50
142.39305937966029
 51
240.22959479264679
  0
ARC
  5
561
  8
0
 10
444.15919416523178
 20
31.682611049803391
 30
0.0
 40
9.4307048073702511
 50
334.35794250302501
 51
358.2443756884594
  0
ARC
  5
562
  8
0
 10
427.31271273293379
 20
32.097958312905881
 30
0.0
 40
26.28219708534585
 50
358.46448682794221
 51
11.405467609940491
  0
ARC
  5
563
  8
0
 10
494.4997954285144
 20
44.071403509199868
 30
0.0
 40
41.974457967204529
 50
183.46050978167841
 51
189.2901582490492
  0
ARC
  5
564
  8
0
 10
473.66192718886123
 20
42.336534377264812
 30
0.0
 40
21.075196220950751
 50
163.38220276631341
 51
182.1719850943075
  0
ARC
  5
565
  8
0
 10
452.79734539055079
 20
48.594644092020253
 30
0.0
 40
0.7083081501309584
 50
340.97471923909239
 51
65.796020405184009
  0
LINE
  5
5EF
  8
0
 10
423.60345208920381
 20
25.51578603566891
 30
0.0
 11
429.70676849937809
 21
25.51578603566891
 31
0.0
  0
LINE
  5
5F0
  8
0
 10
423.1768320892038
 20
49.240686035668872
 30
0.0
 11
453.0877420892038
 21
49.240686035668901
 31
0.0
  0
LINE
  5
5F4
  8
0
 10
423.620139192436
 20
27.554086035668909
 30
0.0
 11
452.6444736162714
 21
27.554086035668909
 31
0.0
  0
ATTDEF
  5
1FC9
  8
DEFPOINTS
 10
438.12794815912878
 20
25.431012592180949
 30
0.0
 40
0.001
  1
LITHOCAST
  3

  2
MATERIAL
 70
     0
1001
ACDBATTR
1070
     0
1070
     1
  0
ATTDEF
  5
1FCA
  8
DEFPOINTS
 10
438.12794815912878
 20
25.43267925884761
 30
0.0
 40
0.001
  1
BATH
  3

  2
PRODUCT
 70
     0
1001
ACDBATTR
1070
     0
1070
     1
  0
ATTDEF
  5
1FCB
  8
DEFPOINTS
 10
438.12794815912878
 20
25.434345925514279
 30
0.0
 40
0.001
  1
IMPERATOR
  3

  2
TRADENAME
 70
     0
1001
ACDBATTR
1070
     0
1070
     1
  0
ATTDEF
  5
1FCC
  8
DEFPOINTS
 10
438.12794815912878
 20
25.436012592180951
 30
0.0
 40
0.001
  1
K-8334
  3

  2
MODELNUMBER
 70
     0
1001
ACDBATTR
1070
     0
1070
     1
  0
LINE
  5
2043
  8
0
 10
429.87002708779869
 20
25.445176035668911
 30
0.0
 11
433.40090708779883
 21
25.445176035668911
 31
0.0
  0
ARC
  5
2044
  8
0
 10
429.86274486271958
 20
25.652380165241059
 30
0.0
 40
0.2073320577112603
 50
221.2098028884314
 51
272.012842416534
  0
ARC
  5
2045
  8
0
 10
433.40818931568799
 20
25.652380165241059
 30
0.0
 40
0.2073320577112603
 50
267.98715758346589
 51
318.7901971115686
  0
LINE
  5
2046
  8
0
 10
442.86366708779877
 20
25.445176035668911
 30
0.0
 11
446.39454708779868
 21
25.445176035668911
 31
0.0
  0
ARC
  5
2047
  8
0
 10
442.85638486271961
 20
25.652380165241059
 30
0.0
 40
0.2073320577112603
 50
221.2098028884314
 51
272.012842416534
  0
ARC
  5
2048
  8
0
 10
446.40182931568808
 20
25.652380165241059
 30
0.0
 40
0.2073320577112603
 50
267.98715758346589
 51
318.7901971115686
  0
LINE
  5
2049
  8
0
 10
433.56416567902937
 20
25.51578603566891
 30
0.0
 11
442.70040849937811
 21
25.51578603566891
 31
0.0
  0
LINE
  5
204D
  8
0
 10
446.55780567902951
 20
25.51578603566891
 30
0.0
 11
452.66112208920379
 21
25.51578603566891
 31
0.0
  0
ENDSEC
  0
EOF
