  0
SECTION
  2
HEADER
  9
$ACADVER
  1
AC1009
  9
$INSBASE
 10
0.0
 20
0.0
 30
0.0
  9
$EXTMIN
 10
-33.468005353647101
 20
-16.95173199523482
 30
-0.0000000349181948
  9
$EXTMAX
 10
33.468113352705963
 20
14.551477244399919
 30
0.0000000814935747
  9
$LIMMIN
 10
0.0
 20
0.0
  9
$LIMMAX
 10
12.0
 20
9.0
  9
$ORTHOMODE
 70
     0
  9
$REGENMODE
 70
     1
  9
$FILLMODE
 70
     0
  9
$QTEXTMODE
 70
     0
  9
$MIRRTEXT
 70
     1
  9
$DRAGMODE
 70
     2
  9
$LTSCALE
 40
1.0
  9
$OSMODE
 70
    37
  9
$ATTMODE
 70
     1
  9
$TEXTSIZE
 40
0.001
  9
$TRACEWID
 40
0.05
  9
$TEXTSTYLE
  7
STANDARD
  9
$CLAYER
  8
0
  9
$CELTYPE
  6
BYLAYER
  9
$CECOLOR
 62
   256
  9
$DIMSCALE
 40
1.0
  9
$DIMASZ
 40
0.18
  9
$DIMEXO
 40
0.0625
  9
$DIMDLI
 40
0.38
  9
$DIMRND
 40
0.0
  9
$DIMDLE
 40
0.0
  9
$DIMEXE
 40
0.18
  9
$DIMTP
 40
0.0
  9
$DIMTM
 40
0.0
  9
$DIMTXT
 40
0.18
  9
$DIMCEN
 40
0.09
  9
$DIMTSZ
 40
0.0
  9
$DIMTOL
 70
     0
  9
$DIMLIM
 70
     0
  9
$DIMTIH
 70
     1
  9
$DIMTOH
 70
     1
  9
$DIMSE1
 70
     0
  9
$DIMSE2
 70
     0
  9
$DIMTAD
 70
     0
  9
$DIMZIN
 70
     0
  9
$DIMBLK
  1

  9
$DIMASO
 70
     1
  9
$DIMSHO
 70
     1
  9
$DIMPOST
  1

  9
$DIMAPOST
  1

  9
$DIMALT
 70
     0
  9
$DIMALTD
 70
     2
  9
$DIMALTF
 40
25.399999999999999
  9
$DIMLFAC
 40
1.0
  9
$DIMTOFL
 70
     0
  9
$DIMTVP
 40
0.0
  9
$DIMTIX
 70
     0
  9
$DIMSOXD
 70
     0
  9
$DIMSAH
 70
     0
  9
$DIMBLK1
  1

  9
$DIMBLK2
  1

  9
$DIMSTYLE
  2
STANDARD
  9
$DIMCLRD
 70
     0
  9
$DIMCLRE
 70
     0
  9
$DIMCLRT
 70
     0
  9
$DIMTFAC
 40
1.0
  9
$DIMGAP
 40
0.09
  9
$LUNITS
 70
     2
  9
$LUPREC
 70
     4
  9
$SKETCHINC
 40
0.1
  9
$FILLETRAD
 40
0.0
  9
$AUNITS
 70
     0
  9
$AUPREC
 70
     0
  9
$MENU
  1
acad
  9
$ELEVATION
 40
0.0
  9
$PELEVATION
 40
0.0
  9
$THICKNESS
 40
0.0
  9
$LIMCHECK
 70
     0
  9
$BLIPMODE
 70
     0
  9
$CHAMFERA
 40
0.0
  9
$CHAMFERB
 40
0.0
  9
$SKPOLY
 70
     0
  9
$TDCREATE
 40
2450907.6204812499
  9
$TDUPDATE
 40
2456959.5785172218
  9
$TDINDWG
 40
0.0701443519
  9
$TDUSRTIMER
 40
0.0701443056
  9
$USRTIMER
 70
     1
  9
$ANGBASE
 50
0.0
  9
$ANGDIR
 70
     0
  9
$PDMODE
 70
     0
  9
$PDSIZE
 40
0.0
  9
$PLINEWID
 40
0.0
  9
$COORDS
 70
     1
  9
$SPLFRAME
 70
     0
  9
$SPLINETYPE
 70
     6
  9
$SPLINESEGS
 70
     8
  9
$ATTDIA
 70
     0
  9
$ATTREQ
 70
     1
  9
$HANDLING
 70
     1
  9
$HANDSEED
  5
1392
  9
$SURFTAB1
 70
     6
  9
$SURFTAB2
 70
     6
  9
$SURFTYPE
 70
     6
  9
$SURFU
 70
     6
  9
$SURFV
 70
     6
  9
$UCSNAME
  2

  9
$UCSORG
 10
0.0
 20
0.0
 30
0.0
  9
$UCSXDIR
 10
1.0
 20
0.0
 30
0.0
  9
$UCSYDIR
 10
0.0
 20
1.0
 30
0.0
  9
$PUCSNAME
  2

  9
$PUCSORG
 10
0.0
 20
0.0
 30
0.0
  9
$PUCSXDIR
 10
1.0
 20
0.0
 30
0.0
  9
$PUCSYDIR
 10
0.0
 20
1.0
 30
0.0
  9
$USERI1
 70
     0
  9
$USERI2
 70
     0
  9
$USERI3
 70
     0
  9
$USERI4
 70
     0
  9
$USERI5
 70
     0
  9
$USERR1
 40
0.0
  9
$USERR2
 40
0.0
  9
$USERR3
 40
0.0
  9
$USERR4
 40
0.0
  9
$USERR5
 40
0.0
  9
$WORLDVIEW
 70
     1
  9
$SHADEDGE
 70
     3
  9
$SHADEDIF
 70
    70
  9
$TILEMODE
 70
     1
  9
$MAXACTVP
 70
    16
  9
$PLIMCHECK
 70
     0
  9
$PEXTMIN
 10
1.0000000000000000E+020
 20
1.0000000000000000E+020
 30
1.0000000000000000E+020
  9
$PEXTMAX
 10
-1.0000000000000000E+020
 20
-1.0000000000000000E+020
 30
-1.0000000000000000E+020
  9
$PLIMMIN
 10
0.0
 20
0.0
  9
$PLIMMAX
 10
12.0
 20
9.0
  9
$UNITMODE
 70
     0
  9
$VISRETAIN
 70
     0
  9
$PLINEGEN
 70
     0
  9
$PSLTSCALE
 70
     1
  0
ENDSEC
  0
SECTION
  2
TABLES
  0
TABLE
  2
VPORT
 70
     1
  0
VPORT
  2
*ACTIVE
 70
     0
 10
0.0
 20
0.0
 11
1.0
 21
1.0
 12
0.0000539995294317
 22
-1.2001273754174511
 13
0.0
 23
0.0
 14
1.0
 24
1.0
 15
0.0
 25
0.0
 16
0.0
 26
0.0
 36
1.0
 17
0.0
 27
0.0
 37
0.0
 40
31.72325493863103
 41
2.1410256410256401
 42
50.0
 43
0.0
 44
0.0
 50
0.0
 51
0.0
 71
     0
 72
 10000
 73
     1
 74
     1
 75
     0
 76
     0
 77
     0
 78
     0
  0
ENDTAB
  0
TABLE
  2
LTYPE
 70
     2
  0
LTYPE
  2
CONTINUOUS
 70
     0
  3
Solid line
 72
    65
 73
     0
 40
0.0
  0
ENDTAB
  0
TABLE
  2
LAYER
 70
     2
  0
LAYER
  2
0
 70
     0
 62
     7
  6
CONTINUOUS
  0
LAYER
  2
DEFPOINTS
 70
     0
 62
     7
  6
CONTINUOUS
  0
ENDTAB
  0
TABLE
  2
STYLE
 70
     2
  0
STYLE
  2
STANDARD
 70
     0
 40
0.0
 41
1.0
 50
0.0
 71
     0
 42
0.001
  3
txt
  4

  0
ENDTAB
  0
TABLE
  2
VIEW
 70
     0
  0
ENDTAB
  0
TABLE
  2
UCS
 70
     0
  0
ENDTAB
  0
TABLE
  2
APPID
 70
     6
  0
APPID
  2
ACAD
 70
     0
  0
APPID
  2
ACADANNOTATIVE
 70
     0
  0
APPID
  2
ACAD_PSEXT
 70
     0
  0
APPID
  2
ACAD_EXEMPT_FROM_CAD_STANDARDS
 70
     0
  0
APPID
  2
ACAD_MLEADERVER
 70
     0
  0
APPID
  2
ACAD_NAV_VCDISPLAY
 70
     0
  0
ENDTAB
  0
TABLE
  2
DIMSTYLE
 70
     3
  0
DIMSTYLE
  2
STANDARD
 70
     0
  3

  4

  5

  6

  7

 40
1.0
 41
0.18
 42
0.0625
 43
0.38
 44
0.18
 45
0.0
 46
0.0
 47
0.0
 48
0.0
140
0.18
141
0.09
142
0.0
143
25.399999999999999
144
1.0
145
0.0
146
1.0
147
0.09
 71
     0
 72
     0
 73
     1
 74
     1
 75
     0
 76
     0
 77
     0
 78
     0
170
     0
171
     2
172
     0
173
     0
174
     0
175
     0
176
     0
177
     0
178
     0
  0
ENDTAB
  0
ENDSEC
  0
SECTION
  2
BLOCKS
  0
BLOCK
  8
0
  2
$MODEL_SPACE
 70
     0
 10
0.0
 20
0.0
 30
0.0
  3
$MODEL_SPACE
  1

  0
ENDBLK
  5
31C
  8
0
  0
BLOCK
 67
     1
  8
0
  2
$PAPER_SPACE
 70
     0
 10
0.0
 20
0.0
 30
0.0
  3
$PAPER_SPACE
  1

  0
ENDBLK
  5
318
 67
     1
  8
0
  0
ENDSEC
  0
SECTION
  2
ENTITIES
  0
ATTDEF
  5
55
  8
0
 10
0.0
 20
0.0
 30
0.0
 40
0.001
  1
K-819-F62
  3

  2
MODELNUMBER
 70
     8
  0
ATTDEF
  5
57
  8
0
 10
0.0
 20
-0.0016666666666667
 30
0.0
 40
0.001
  1
Rêve
  3

  2
TRADENAME
 70
     8
  0
ATTDEF
  5
58
  8
0
 10
0.0
 20
-0.0033333333333333
 30
0.0
 40
0.001
  1
FREESTANDING BATH
  3

  2
PRODUCT
 70
     8
  0
ATTDEF
  5
59
  8
0
 10
0.0
 20
-0.005
 30
0.0
 40
0.001
  1
CAST IRON
  3

  2
MATERIAL
 70
     8
  0
LINE
  5
4FF
  8
0
  6
CONTINUOUS
 10
-33.466099447799998
 20
-15.3735861313
 30
0.0
 11
-33.466099447799998
 21
12.972011315999991
 31
0.0
  0
LINE
  5
500
  8
0
  6
CONTINUOUS
 10
-31.8430203309
 20
-11.2432827838
 30
0.0
 11
-31.8430203309
 21
11.2431708088
 31
0.0
  0
POLYLINE
  5
501
  8
0
  6
CONTINUOUS
 66
     1
 10
0.0
 20
0.0
 30
0.0
  0
VERTEX
  5
824
  8
0
  6
CONTINUOUS
 10
-31.842102939099998
 20
11.24606187139999
 30
0.0
  0
VERTEX
  5
825
  8
0
  6
CONTINUOUS
 10
-31.841730579299998
 20
11.2956341771
 30
0.0
  0
VERTEX
  5
826
  8
0
  6
CONTINUOUS
 10
-31.8395407744
 20
11.3449486632
 30
0.0
  0
VERTEX
  5
827
  8
0
  6
CONTINUOUS
 10
-31.835541730399999
 20
11.39392402769999
 30
0.0
  0
VERTEX
  5
828
  8
0
  6
CONTINUOUS
 10
-31.829641970099999
 20
11.442607848499989
 30
0.0
  0
VERTEX
  5
829
  8
0
  6
CONTINUOUS
 10
-31.8219868441
 20
11.49079853069999
 30
0.0
  0
VERTEX
  5
82A
  8
0
  6
CONTINUOUS
 10
-31.812984846599999
 20
11.538079401699999
 30
0.0
  0
VERTEX
  5
82B
  8
0
  6
CONTINUOUS
 10
-31.802851407399999
 20
11.584311922399991
 30
0.0
  0
VERTEX
  5
82C
  8
0
  6
CONTINUOUS
 10
-31.791560240300001
 20
11.62959659779999
 30
0.0
  0
VERTEX
  5
82D
  8
0
  6
CONTINUOUS
 10
-31.779195373699999
 20
11.673917346799991
 30
0.0
  0
SEQEND
  5
82E
  8
0
  6
CONTINUOUS
  0
POLYLINE
  5
502
  8
0
  6
CONTINUOUS
 66
     1
 10
0.0
 20
0.0
 30
0.0
  0
VERTEX
  5
82F
  8
0
  6
CONTINUOUS
 10
-33.466099447799998
 20
12.972011315999991
 30
0.0
  0
VERTEX
  5
830
  8
0
  6
CONTINUOUS
 10
-33.459740318800002
 20
13.11144685729999
 30
0.0
  0
VERTEX
  5
831
  8
0
  6
CONTINUOUS
 10
-33.441868078900001
 20
13.247726900399989
 30
0.0
  0
VERTEX
  5
832
  8
0
  6
CONTINUOUS
 10
-33.412482728100009
 20
13.380851445599991
 30
0.0
  0
VERTEX
  5
833
  8
0
  6
CONTINUOUS
 10
-33.371191295800003
 20
13.5117717201
 30
0.0
  0
VERTEX
  5
834
  8
0
  6
CONTINUOUS
 10
-33.318386752500011
 20
13.6395364965
 30
0.0
  0
VERTEX
  5
835
  8
0
  6
CONTINUOUS
 10
-33.255248010000003
 20
13.7612920926
 30
0.0
  0
VERTEX
  5
836
  8
0
  6
CONTINUOUS
 10
-33.18154239870001
 20
13.876903313999991
 30
0.0
  0
VERTEX
  5
837
  8
0
  6
CONTINUOUS
 10
-33.097502588300003
 20
13.98650535499999
 30
0.0
  0
VERTEX
  5
838
  8
0
  6
CONTINUOUS
 10
-33.005005498599999
 20
14.08765011679999
 30
0.0
  0
VERTEX
  5
839
  8
0
  6
CONTINUOUS
 10
-32.903860736699997
 20
14.18014720650001
 30
0.0
  0
VERTEX
  5
83A
  8
0
  6
CONTINUOUS
 10
-32.794258695700002
 20
14.264187016999999
 30
0.0
  0
VERTEX
  5
83B
  8
0
  6
CONTINUOUS
 10
-32.678647474400002
 20
14.337892628200009
 30
0.0
  0
VERTEX
  5
83C
  8
0
  6
CONTINUOUS
 10
-32.556891878199998
 20
14.401031370799981
 30
0.0
  0
VERTEX
  5
83D
  8
0
  6
CONTINUOUS
 10
-32.429127101799999
 20
14.45383591400001
 30
0.0
  0
VERTEX
  5
83E
  8
0
  6
CONTINUOUS
 10
-32.2982068273
 20
14.4951273464
 30
0.0
  0
VERTEX
  5
83F
  8
0
  6
CONTINUOUS
 10
-32.165082282199997
 20
14.52451269719999
 30
0.0
  0
VERTEX
  5
840
  8
0
  6
CONTINUOUS
 10
-32.028802239000001
 20
14.542384937099991
 30
0.0
  0
VERTEX
  5
841
  8
0
  6
CONTINUOUS
 10
-31.8893666978
 20
14.548744065999999
 30
0.0
  0
SEQEND
  5
842
  8
0
  6
CONTINUOUS
  0
POLYLINE
  5
503
  8
0
  6
CONTINUOUS
 66
     1
 10
0.0
 20
0.0
 30
0.0
  0
VERTEX
  5
843
  8
0
  6
CONTINUOUS
 10
-31.331897263399998
 20
11.531412454999989
 30
0.0
  0
VERTEX
  5
844
  8
0
  6
CONTINUOUS
 10
-31.345543118799998
 20
11.48483388559999
 30
0.0
  0
VERTEX
  5
845
  8
0
  6
CONTINUOUS
 10
-31.3565613691
 20
11.437763358699989
 30
0.0
  0
VERTEX
  5
846
  8
0
  6
CONTINUOUS
 10
-31.364942319400001
 20
11.390281208899991
 30
0.0
  0
VERTEX
  5
847
  8
0
  6
CONTINUOUS
 10
-31.3706792041
 20
11.342467726900001
 30
0.0
  0
VERTEX
  5
848
  8
0
  6
CONTINUOUS
 10
-31.373768173799998
 20
11.29440302329999
 30
0.0
  0
VERTEX
  5
849
  8
0
  6
CONTINUOUS
 10
-31.374208277699999
 20
11.2461668949
 30
0.0
  0
SEQEND
  5
84A
  8
0
  6
CONTINUOUS
  0
POLYLINE
  5
504
  8
0
  6
CONTINUOUS
 66
     1
 10
0.0
 20
0.0
 30
0.0
  0
VERTEX
  5
84B
  8
0
  6
CONTINUOUS
 10
-31.779916056499999
 20
11.674135102199999
 30
0.0
  0
VERTEX
  5
84C
  8
0
  6
CONTINUOUS
 10
-31.7472403931
 20
11.77784813269998
 30
0.0
  0
VERTEX
  5
84D
  8
0
  6
CONTINUOUS
 10
-31.7063268247
 20
11.880332534600001
 30
0.0
  0
VERTEX
  5
84E
  8
0
  6
CONTINUOUS
 10
-31.657208522200001
 20
11.980890916199989
 30
0.0
  0
VERTEX
  5
84F
  8
0
  6
CONTINUOUS
 10
-31.600111782700001
 20
12.07904274789999
 30
0.0
  0
VERTEX
  5
850
  8
0
  6
CONTINUOUS
 10
-31.535149932300001
 20
12.1742019659
 30
0.0
  0
VERTEX
  5
851
  8
0
  6
CONTINUOUS
 10
-31.462348765400002
 20
12.265617845599991
 30
0.0
  0
VERTEX
  5
852
  8
0
  6
CONTINUOUS
 10
-31.3819000493
 20
12.3527958329
 30
0.0
  0
VERTEX
  5
853
  8
0
  6
CONTINUOUS
 10
-31.2941538653
 20
12.435206053899989
 30
0.0
  0
VERTEX
  5
854
  8
0
  6
CONTINUOUS
 10
-31.199513216
 20
12.51204107719999
 30
0.0
  0
VERTEX
  5
855
  8
0
  6
CONTINUOUS
 10
-31.098428634400001
 20
12.58272196369999
 30
0.0
  0
VERTEX
  5
856
  8
0
  6
CONTINUOUS
 10
-30.991328215799999
 20
12.646949877200001
 30
0.0
  0
VERTEX
  5
857
  8
0
  6
CONTINUOUS
 10
-30.878699062599999
 20
12.704355026099989
 30
0.0
  0
SEQEND
  5
858
  8
0
  6
CONTINUOUS
  0
POLYLINE
  5
505
  8
0
  6
CONTINUOUS
 66
     1
 10
0.0
 20
0.0
 30
0.0
  0
VERTEX
  5
859
  8
0
  6
CONTINUOUS
 10
-31.3414744898
 20
-11.499765356799999
 30
0.0
  0
VERTEX
  5
85A
  8
0
  6
CONTINUOUS
 10
-31.320065050499998
 20
-11.5657756341
 30
0.0
  0
VERTEX
  5
85B
  8
0
  6
CONTINUOUS
 10
-31.293386412699999
 20
-11.6311286428
 30
0.0
  0
VERTEX
  5
85C
  8
0
  6
CONTINUOUS
 10
-31.261401916000001
 20
-11.6955539019
 30
0.0
  0
VERTEX
  5
85D
  8
0
  6
CONTINUOUS
 10
-31.224010838000002
 20
-11.758799552099999
 30
0.0
  0
VERTEX
  5
85E
  8
0
  6
CONTINUOUS
 10
-31.181285425399999
 20
-11.82054353529999
 30
0.0
  0
VERTEX
  5
85F
  8
0
  6
CONTINUOUS
 10
-31.133492203199999
 20
-11.880407088
 30
0.0
  0
VERTEX
  5
860
  8
0
  6
CONTINUOUS
 10
-31.080639576999999
 20
-11.93810619570001
 30
0.0
  0
VERTEX
  5
861
  8
0
  6
CONTINUOUS
 10
-31.022838250100001
 20
-11.99333565970001
 30
0.0
  0
VERTEX
  5
862
  8
0
  6
CONTINUOUS
 10
-30.960577259600001
 20
-12.0457129488
 30
0.0
  0
VERTEX
  5
863
  8
0
  6
CONTINUOUS
 10
-30.894121711699999
 20
-12.0949401393
 30
0.0
  0
VERTEX
  5
864
  8
0
  6
CONTINUOUS
 10
-30.8234874907
 20
-12.1407818259
 30
0.0
  0
VERTEX
  5
865
  8
0
  6
CONTINUOUS
 10
-30.748838934799998
 20
-12.182978176000001
 30
0.0
  0
SEQEND
  5
866
  8
0
  6
CONTINUOUS
  0
POLYLINE
  5
506
  8
0
  6
CONTINUOUS
 66
     1
 10
0.0
 20
0.0
 30
0.0
  0
VERTEX
  5
867
  8
0
  6
CONTINUOUS
 10
-31.7916665276
 20
-11.626063182999999
 30
0.0
  0
VERTEX
  5
868
  8
0
  6
CONTINUOUS
 10
-31.8017030293
 20
-11.586792369699999
 30
0.0
  0
VERTEX
  5
869
  8
0
  6
CONTINUOUS
 10
-31.8108473522
 20
-11.546660396100011
 30
0.0
  0
VERTEX
  5
86A
  8
0
  6
CONTINUOUS
 10
-31.8190289566
 20
-11.5056818908
 30
0.0
  0
VERTEX
  5
86B
  8
0
  6
CONTINUOUS
 10
-31.826253514800001
 20
-11.463786324699999
 30
0.0
  0
VERTEX
  5
86C
  8
0
  6
CONTINUOUS
 10
-31.8323601602
 20
-11.42107982440001
 30
0.0
  0
VERTEX
  5
86D
  8
0
  6
CONTINUOUS
 10
-31.8370531194
 20
-11.3778690999
 30
0.0
  0
VERTEX
  5
86E
  8
0
  6
CONTINUOUS
 10
-31.840222446399999
 20
-11.334302084999999
 30
0.0
  0
VERTEX
  5
86F
  8
0
  6
CONTINUOUS
 10
-31.841921349100001
 20
-11.290345933399999
 30
0.0
  0
VERTEX
  5
870
  8
0
  6
CONTINUOUS
 10
-31.842130448900001
 20
-11.246061876700001
 30
0.0
  0
SEQEND
  5
871
  8
0
  6
CONTINUOUS
  0
POLYLINE
  5
507
  8
0
  6
CONTINUOUS
 66
     1
 10
0.0
 20
0.0
 30
0.0
  0
VERTEX
  5
872
  8
0
  6
CONTINUOUS
 10
-31.374208614899999
 20
-11.2461684351
 30
0.0
  0
VERTEX
  5
873
  8
0
  6
CONTINUOUS
 10
-31.373956444899999
 20
-11.2888517574
 30
0.0
  0
VERTEX
  5
874
  8
0
  6
CONTINUOUS
 10
-31.371625079299999
 20
-11.331442746100009
 30
0.0
  0
VERTEX
  5
875
  8
0
  6
CONTINUOUS
 10
-31.367211502499998
 20
-11.3738858434
 30
0.0
  0
VERTEX
  5
876
  8
0
  6
CONTINUOUS
 10
-31.3607144986
 20
-11.4161250054
 30
0.0
  0
VERTEX
  5
877
  8
0
  6
CONTINUOUS
 10
-31.352134675799999
 20
-11.45810377510001
 30
0.0
  0
VERTEX
  5
878
  8
0
  6
CONTINUOUS
 10
-31.3414744898
 20
-11.499765356799999
 30
0.0
  0
SEQEND
  5
879
  8
0
  6
CONTINUOUS
  0
LINE
  5
508
  8
0
  6
CONTINUOUS
 10
-31.374209392000001
 20
11.24616707429999
 30
0.0
 11
-31.374209392000001
 21
-11.246168559899999
 31
0.0
  0
POLYLINE
  5
509
  8
0
  6
CONTINUOUS
 66
     1
 10
0.0
 20
0.0
 30
0.0
  0
VERTEX
  5
87A
  8
0
  6
CONTINUOUS
 10
-26.580238908199998
 20
7.5
 30
0.0
  0
VERTEX
  5
87B
  8
0
  6
CONTINUOUS
 10
-26.579155928199999
 20
7.5265954215999917
 30
0.0
  0
VERTEX
  5
87C
  8
0
  6
CONTINUOUS
 10
-26.5764440992
 20
7.5515437365999949
 30
0.0
  0
VERTEX
  5
87D
  8
0
  6
CONTINUOUS
 10
-26.572103421200001
 20
7.5748449449999953
 30
0.0
  0
VERTEX
  5
87E
  8
0
  6
CONTINUOUS
 10
-26.5659666773
 20
7.5969393391999906
 30
0.0
  0
VERTEX
  5
87F
  8
0
  6
CONTINUOUS
 10
-26.5582010844
 20
7.6173866266999957
 30
0.0
  0
VERTEX
  5
880
  8
0
  6
CONTINUOUS
 10
-26.549308292999999
 20
7.6348659308000029
 30
0.0
  0
VERTEX
  5
881
  8
0
  6
CONTINUOUS
 10
-26.539213884600009
 20
7.6491813027999882
 30
0.0
  0
VERTEX
  5
882
  8
0
  6
CONTINUOUS
 10
-26.527992277700001
 20
7.6605286913000006
 30
0.0
  0
VERTEX
  5
883
  8
0
  6
CONTINUOUS
 10
-26.516368378399999
 20
7.668175064899998
 30
0.0
  0
VERTEX
  5
884
  8
0
  6
CONTINUOUS
 10
-26.504315626900009
 20
7.6718760797999863
 30
0.0
  0
VERTEX
  5
885
  8
0
  6
CONTINUOUS
 10
-26.498088104899999
 20
7.6723387067000033
 30
0.0
  0
SEQEND
  5
886
  8
0
  6
CONTINUOUS
  0
LINE
  5
50A
  8
0
  6
CONTINUOUS
 10
-24.4495374412
 20
-9.8927553651000082
 30
0.0
 11
-24.4495374412
 21
9.8927553651999887
 31
0.0
  0
POLYLINE
  5
50B
  8
0
  6
CONTINUOUS
 66
     1
 10
0.0
 20
0.0
 30
0.0
  0
VERTEX
  5
887
  8
0
  6
CONTINUOUS
 10
-24.5178873676
 20
7.5
 30
0.0
  0
VERTEX
  5
888
  8
0
  6
CONTINUOUS
 10
-24.517768353600001
 20
7.5265954215999917
 30
0.0
  0
VERTEX
  5
889
  8
0
  6
CONTINUOUS
 10
-24.517470337500001
 20
7.5515437365999949
 30
0.0
  0
VERTEX
  5
88A
  8
0
  6
CONTINUOUS
 10
-24.516993319200001
 20
7.5748449449999953
 30
0.0
  0
VERTEX
  5
88B
  8
0
  6
CONTINUOUS
 10
-24.516318922500002
 20
7.5969393391999906
 30
0.0
  0
VERTEX
  5
88C
  8
0
  6
CONTINUOUS
 10
-24.5154655236
 20
7.6173866266999957
 30
0.0
  0
VERTEX
  5
88D
  8
0
  6
CONTINUOUS
 10
-24.514488251300001
 20
7.6348659308000029
 30
0.0
  0
VERTEX
  5
88E
  8
0
  6
CONTINUOUS
 10
-24.513378927600002
 20
7.6491813027999882
 30
0.0
  0
VERTEX
  5
88F
  8
0
  6
CONTINUOUS
 10
-24.5121457304
 20
7.6605286913000006
 30
0.0
  0
VERTEX
  5
890
  8
0
  6
CONTINUOUS
 10
-24.5108683234
 20
7.668175064899998
 30
0.0
  0
VERTEX
  5
891
  8
0
  6
CONTINUOUS
 10
-24.5095437877
 20
7.6718760797999863
 30
0.0
  0
VERTEX
  5
892
  8
0
  6
CONTINUOUS
 10
-24.508859415
 20
7.6723387067000033
 30
0.0
  0
SEQEND
  5
893
  8
0
  6
CONTINUOUS
  0
POLYLINE
  5
50C
  8
0
  6
CONTINUOUS
 66
     1
 10
0.0
 20
0.0
 30
0.0
  0
VERTEX
  5
894
  8
0
  6
CONTINUOUS
 10
-24.4998314624
 20
7.5
 30
0.0
  0
VERTEX
  5
895
  8
0
  6
CONTINUOUS
 10
-24.4999504763
 20
7.4734045784999941
 30
0.0
  0
VERTEX
  5
896
  8
0
  6
CONTINUOUS
 10
-24.500248492400001
 20
7.4484562634999909
 30
0.0
  0
VERTEX
  5
897
  8
0
  6
CONTINUOUS
 10
-24.500725510700001
 20
7.4251550550000038
 30
0.0
  0
VERTEX
  5
898
  8
0
  6
CONTINUOUS
 10
-24.501399907500002
 20
7.403060660899996
 30
0.0
  0
VERTEX
  5
899
  8
0
  6
CONTINUOUS
 10
-24.5022533064
 20
7.3826133734000052
 30
0.0
  0
VERTEX
  5
89A
  8
0
  6
CONTINUOUS
 10
-24.5032305786
 20
7.365134069299998
 30
0.0
  0
VERTEX
  5
89B
  8
0
  6
CONTINUOUS
 10
-24.504339902400002
 20
7.3508186972999994
 30
0.0
  0
VERTEX
  5
89C
  8
0
  6
CONTINUOUS
 10
-24.505573099500001
 20
7.3394713088000003
 30
0.0
  0
VERTEX
  5
89D
  8
0
  6
CONTINUOUS
 10
-24.506850506500001
 20
7.3318249351999887
 30
0.0
  0
VERTEX
  5
89E
  8
0
  6
CONTINUOUS
 10
-24.508175042200001
 20
7.3281239203000013
 30
0.0
  0
VERTEX
  5
89F
  8
0
  6
CONTINUOUS
 10
-24.508859415
 20
7.3276612933999976
 30
0.0
  0
SEQEND
  5
8A0
  8
0
  6
CONTINUOUS
  0
POLYLINE
  5
50D
  8
0
  6
CONTINUOUS
 66
     1
 10
0.0
 20
0.0
 30
0.0
  0
VERTEX
  5
8A1
  8
0
  6
CONTINUOUS
 10
-24.5178873676
 20
2.5
 30
0.0
  0
VERTEX
  5
8A2
  8
0
  6
CONTINUOUS
 10
-24.517768353600001
 20
2.5265954215999922
 30
0.0
  0
VERTEX
  5
8A3
  8
0
  6
CONTINUOUS
 10
-24.517470337500001
 20
2.5515437365999949
 30
0.0
  0
VERTEX
  5
8A4
  8
0
  6
CONTINUOUS
 10
-24.516993319200001
 20
2.5748449449999948
 30
0.0
  0
VERTEX
  5
8A5
  8
0
  6
CONTINUOUS
 10
-24.516318922500002
 20
2.5969393391999911
 30
0.0
  0
VERTEX
  5
8A6
  8
0
  6
CONTINUOUS
 10
-24.5154655236
 20
2.6173866266999961
 30
0.0
  0
VERTEX
  5
8A7
  8
0
  6
CONTINUOUS
 10
-24.514488251300001
 20
2.6348659308000029
 30
0.0
  0
VERTEX
  5
8A8
  8
0
  6
CONTINUOUS
 10
-24.513378927600002
 20
2.6491813027999882
 30
0.0
  0
VERTEX
  5
8A9
  8
0
  6
CONTINUOUS
 10
-24.5121457304
 20
2.660528691300001
 30
0.0
  0
VERTEX
  5
8AA
  8
0
  6
CONTINUOUS
 10
-24.5108683234
 20
2.668175064899998
 30
0.0
  0
VERTEX
  5
8AB
  8
0
  6
CONTINUOUS
 10
-24.5095437877
 20
2.6718760797999859
 30
0.0
  0
VERTEX
  5
8AC
  8
0
  6
CONTINUOUS
 10
-24.508859415
 20
2.6723387067000028
 30
0.0
  0
SEQEND
  5
8AD
  8
0
  6
CONTINUOUS
  0
POLYLINE
  5
50E
  8
0
  6
CONTINUOUS
 66
     1
 10
0.0
 20
0.0
 30
0.0
  0
VERTEX
  5
8AE
  8
0
  6
CONTINUOUS
 10
-24.4998314624
 20
2.5
 30
0.0
  0
VERTEX
  5
8AF
  8
0
  6
CONTINUOUS
 10
-24.4999504763
 20
2.4734045784999941
 30
0.0
  0
VERTEX
  5
8B0
  8
0
  6
CONTINUOUS
 10
-24.500248492400001
 20
2.4484562634999909
 30
0.0
  0
VERTEX
  5
8B1
  8
0
  6
CONTINUOUS
 10
-24.500725510700001
 20
2.4251550550000038
 30
0.0
  0
VERTEX
  5
8B2
  8
0
  6
CONTINUOUS
 10
-24.501399907500002
 20
2.403060660899996
 30
0.0
  0
VERTEX
  5
8B3
  8
0
  6
CONTINUOUS
 10
-24.5022533064
 20
2.3826133734000048
 30
0.0
  0
VERTEX
  5
8B4
  8
0
  6
CONTINUOUS
 10
-24.5032305786
 20
2.365134069299998
 30
0.0
  0
VERTEX
  5
8B5
  8
0
  6
CONTINUOUS
 10
-24.504339902400002
 20
2.3508186972999989
 30
0.0
  0
VERTEX
  5
8B6
  8
0
  6
CONTINUOUS
 10
-24.505573099500001
 20
2.3394713087999999
 30
0.0
  0
VERTEX
  5
8B7
  8
0
  6
CONTINUOUS
 10
-24.506850506500001
 20
2.3318249351999891
 30
0.0
  0
VERTEX
  5
8B8
  8
0
  6
CONTINUOUS
 10
-24.508175042200001
 20
2.3281239203000008
 30
0.0
  0
VERTEX
  5
8B9
  8
0
  6
CONTINUOUS
 10
-24.508859415
 20
2.3276612933999981
 30
0.0
  0
SEQEND
  5
8BA
  8
0
  6
CONTINUOUS
  0
POLYLINE
  5
50F
  8
0
  6
CONTINUOUS
 66
     1
 10
0.0
 20
0.0
 30
0.0
  0
VERTEX
  5
8BB
  8
0
  6
CONTINUOUS
 10
-24.5178873676
 20
-2.5
 30
0.0
  0
VERTEX
  5
8BC
  8
0
  6
CONTINUOUS
 10
-24.517768353600001
 20
-2.4734045784000069
 30
0.0
  0
VERTEX
  5
8BD
  8
0
  6
CONTINUOUS
 10
-24.517470337500001
 20
-2.4484562634000042
 30
0.0
  0
VERTEX
  5
8BE
  8
0
  6
CONTINUOUS
 10
-24.516993319200001
 20
-2.4251550550000038
 30
0.0
  0
VERTEX
  5
8BF
  8
0
  6
CONTINUOUS
 10
-24.516318922500002
 20
-2.403060660800008
 30
0.0
  0
VERTEX
  5
8C0
  8
0
  6
CONTINUOUS
 10
-24.5154655236
 20
-2.382613373300003
 30
0.0
  0
VERTEX
  5
8C1
  8
0
  6
CONTINUOUS
 10
-24.514488251300001
 20
-2.3651340691999958
 30
0.0
  0
VERTEX
  5
8C2
  8
0
  6
CONTINUOUS
 10
-24.513378927600002
 20
-2.3508186972000109
 30
0.0
  0
VERTEX
  5
8C3
  8
0
  6
CONTINUOUS
 10
-24.5121457304
 20
-2.3394713086999981
 30
0.0
  0
VERTEX
  5
8C4
  8
0
  6
CONTINUOUS
 10
-24.5108683234
 20
-2.3318249351000011
 30
0.0
  0
VERTEX
  5
8C5
  8
0
  6
CONTINUOUS
 10
-24.5095437877
 20
-2.3281239202000128
 30
0.0
  0
VERTEX
  5
8C6
  8
0
  6
CONTINUOUS
 10
-24.508859415
 20
-2.3276612932999958
 30
0.0
  0
SEQEND
  5
8C7
  8
0
  6
CONTINUOUS
  0
POLYLINE
  5
510
  8
0
  6
CONTINUOUS
 66
     1
 10
0.0
 20
0.0
 30
0.0
  0
VERTEX
  5
8C8
  8
0
  6
CONTINUOUS
 10
-24.4998314624
 20
-2.5
 30
0.0
  0
VERTEX
  5
8C9
  8
0
  6
CONTINUOUS
 10
-24.4999504763
 20
-2.526595421500005
 30
0.0
  0
VERTEX
  5
8CA
  8
0
  6
CONTINUOUS
 10
-24.500248492400001
 20
-2.5515437365000082
 30
0.0
  0
VERTEX
  5
8CB
  8
0
  6
CONTINUOUS
 10
-24.500725510700001
 20
-2.5748449449999948
 30
0.0
  0
VERTEX
  5
8CC
  8
0
  6
CONTINUOUS
 10
-24.501399907500002
 20
-2.5969393391000031
 30
0.0
  0
VERTEX
  5
8CD
  8
0
  6
CONTINUOUS
 10
-24.5022533064
 20
-2.6173866265999939
 30
0.0
  0
VERTEX
  5
8CE
  8
0
  6
CONTINUOUS
 10
-24.5032305786
 20
-2.6348659307000011
 30
0.0
  0
VERTEX
  5
8CF
  8
0
  6
CONTINUOUS
 10
-24.504339902400002
 20
-2.6491813027000002
 30
0.0
  0
VERTEX
  5
8D0
  8
0
  6
CONTINUOUS
 10
-24.505573099500001
 20
-2.6605286911999988
 30
0.0
  0
VERTEX
  5
8D1
  8
0
  6
CONTINUOUS
 10
-24.506850506500001
 20
-2.66817506480001
 30
0.0
  0
VERTEX
  5
8D2
  8
0
  6
CONTINUOUS
 10
-24.508175042200001
 20
-2.6718760796999979
 30
0.0
  0
VERTEX
  5
8D3
  8
0
  6
CONTINUOUS
 10
-24.508859415
 20
-2.6723387066000011
 30
0.0
  0
SEQEND
  5
8D4
  8
0
  6
CONTINUOUS
  0
POLYLINE
  5
511
  8
0
  6
CONTINUOUS
 66
     1
 10
0.0
 20
0.0
 30
0.0
  0
VERTEX
  5
8D5
  8
0
  6
CONTINUOUS
 10
-24.5178873676
 20
-7.5
 30
0.0
  0
VERTEX
  5
8D6
  8
0
  6
CONTINUOUS
 10
-24.517768353600001
 20
-7.4734045784000074
 30
0.0
  0
VERTEX
  5
8D7
  8
0
  6
CONTINUOUS
 10
-24.517470337500001
 20
-7.4484562634000042
 30
0.0
  0
VERTEX
  5
8D8
  8
0
  6
CONTINUOUS
 10
-24.516993319200001
 20
-7.4251550550000038
 30
0.0
  0
VERTEX
  5
8D9
  8
0
  6
CONTINUOUS
 10
-24.516318922500002
 20
-7.4030606608000076
 30
0.0
  0
VERTEX
  5
8DA
  8
0
  6
CONTINUOUS
 10
-24.5154655236
 20
-7.3826133733000026
 30
0.0
  0
VERTEX
  5
8DB
  8
0
  6
CONTINUOUS
 10
-24.514488251300001
 20
-7.3651340691999962
 30
0.0
  0
VERTEX
  5
8DC
  8
0
  6
CONTINUOUS
 10
-24.513378927600002
 20
-7.3508186972000109
 30
0.0
  0
VERTEX
  5
8DD
  8
0
  6
CONTINUOUS
 10
-24.5121457304
 20
-7.3394713086999976
 30
0.0
  0
VERTEX
  5
8DE
  8
0
  6
CONTINUOUS
 10
-24.5108683234
 20
-7.3318249351000011
 30
0.0
  0
VERTEX
  5
8DF
  8
0
  6
CONTINUOUS
 10
-24.5095437877
 20
-7.3281239202000128
 30
0.0
  0
VERTEX
  5
8E0
  8
0
  6
CONTINUOUS
 10
-24.508859415
 20
-7.3276612932999958
 30
0.0
  0
SEQEND
  5
8E1
  8
0
  6
CONTINUOUS
  0
POLYLINE
  5
512
  8
0
  6
CONTINUOUS
 66
     1
 10
0.0
 20
0.0
 30
0.0
  0
VERTEX
  5
8E2
  8
0
  6
CONTINUOUS
 10
-24.4998314624
 20
-7.5
 30
0.0
  0
VERTEX
  5
8E3
  8
0
  6
CONTINUOUS
 10
-24.4999504763
 20
-7.526595421500005
 30
0.0
  0
VERTEX
  5
8E4
  8
0
  6
CONTINUOUS
 10
-24.500248492400001
 20
-7.5515437365000082
 30
0.0
  0
VERTEX
  5
8E5
  8
0
  6
CONTINUOUS
 10
-24.500725510700001
 20
-7.5748449449999953
 30
0.0
  0
VERTEX
  5
8E6
  8
0
  6
CONTINUOUS
 10
-24.501399907500002
 20
-7.5969393391000031
 30
0.0
  0
VERTEX
  5
8E7
  8
0
  6
CONTINUOUS
 10
-24.5022533064
 20
-7.6173866265999939
 30
0.0
  0
VERTEX
  5
8E8
  8
0
  6
CONTINUOUS
 10
-24.5032305786
 20
-7.6348659307000011
 30
0.0
  0
VERTEX
  5
8E9
  8
0
  6
CONTINUOUS
 10
-24.504339902400002
 20
-7.6491813026999997
 30
0.0
  0
VERTEX
  5
8EA
  8
0
  6
CONTINUOUS
 10
-24.505573099500001
 20
-7.6605286911999988
 30
0.0
  0
VERTEX
  5
8EB
  8
0
  6
CONTINUOUS
 10
-24.506850506500001
 20
-7.6681750648000104
 30
0.0
  0
VERTEX
  5
8EC
  8
0
  6
CONTINUOUS
 10
-24.508175042200001
 20
-7.6718760796999979
 30
0.0
  0
VERTEX
  5
8ED
  8
0
  6
CONTINUOUS
 10
-24.508859415
 20
-7.6723387066000006
 30
0.0
  0
SEQEND
  5
8EE
  8
0
  6
CONTINUOUS
  0
POLYLINE
  5
513
  8
0
  6
CONTINUOUS
 66
     1
 10
0.0
 20
0.0
 30
0.0
  0
VERTEX
  5
8EF
  8
0
  6
CONTINUOUS
 10
-26.4159373016
 20
7.5
 30
0.0
  0
VERTEX
  5
8F0
  8
0
  6
CONTINUOUS
 10
-26.417020281599999
 20
7.4734045784999941
 30
0.0
  0
VERTEX
  5
8F1
  8
0
  6
CONTINUOUS
 10
-26.419732110599998
 20
7.4484562634999909
 30
0.0
  0
VERTEX
  5
8F2
  8
0
  6
CONTINUOUS
 10
-26.4240727886
 20
7.4251550550000038
 30
0.0
  0
VERTEX
  5
8F3
  8
0
  6
CONTINUOUS
 10
-26.430209532500001
 20
7.403060660899996
 30
0.0
  0
VERTEX
  5
8F4
  8
0
  6
CONTINUOUS
 10
-26.437975125400001
 20
7.3826133734000052
 30
0.0
  0
VERTEX
  5
8F5
  8
0
  6
CONTINUOUS
 10
-26.446867916799999
 20
7.365134069299998
 30
0.0
  0
VERTEX
  5
8F6
  8
0
  6
CONTINUOUS
 10
-26.456962325199999
 20
7.3508186972999994
 30
0.0
  0
VERTEX
  5
8F7
  8
0
  6
CONTINUOUS
 10
-26.468183932100001
 20
7.3394713088000003
 30
0.0
  0
VERTEX
  5
8F8
  8
0
  6
CONTINUOUS
 10
-26.479807831399999
 20
7.3318249351999887
 30
0.0
  0
VERTEX
  5
8F9
  8
0
  6
CONTINUOUS
 10
-26.491860582899999
 20
7.3281239203000013
 30
0.0
  0
VERTEX
  5
8FA
  8
0
  6
CONTINUOUS
 10
-26.498088104899999
 20
7.3276612933999976
 30
0.0
  0
SEQEND
  5
8FB
  8
0
  6
CONTINUOUS
  0
POLYLINE
  5
514
  8
0
  6
CONTINUOUS
 66
     1
 10
0.0
 20
0.0
 30
0.0
  0
VERTEX
  5
8FC
  8
0
  6
CONTINUOUS
 10
-26.580238908199998
 20
-7.5
 30
0.0
  0
VERTEX
  5
8FD
  8
0
  6
CONTINUOUS
 10
-26.579155928199999
 20
-7.4734045784000074
 30
0.0
  0
VERTEX
  5
8FE
  8
0
  6
CONTINUOUS
 10
-26.5764440992
 20
-7.4484562634000042
 30
0.0
  0
VERTEX
  5
8FF
  8
0
  6
CONTINUOUS
 10
-26.572103421200001
 20
-7.4251550550000038
 30
0.0
  0
VERTEX
  5
900
  8
0
  6
CONTINUOUS
 10
-26.5659666773
 20
-7.4030606608000076
 30
0.0
  0
VERTEX
  5
901
  8
0
  6
CONTINUOUS
 10
-26.5582010844
 20
-7.3826133733000026
 30
0.0
  0
VERTEX
  5
902
  8
0
  6
CONTINUOUS
 10
-26.549308292999999
 20
-7.3651340691999962
 30
0.0
  0
VERTEX
  5
903
  8
0
  6
CONTINUOUS
 10
-26.539213884600009
 20
-7.3508186972000109
 30
0.0
  0
VERTEX
  5
904
  8
0
  6
CONTINUOUS
 10
-26.527992277700001
 20
-7.3394713086999976
 30
0.0
  0
VERTEX
  5
905
  8
0
  6
CONTINUOUS
 10
-26.516368378399999
 20
-7.3318249351000011
 30
0.0
  0
VERTEX
  5
906
  8
0
  6
CONTINUOUS
 10
-26.504315626900009
 20
-7.3281239202000128
 30
0.0
  0
VERTEX
  5
907
  8
0
  6
CONTINUOUS
 10
-26.498088104899999
 20
-7.3276612932999958
 30
0.0
  0
SEQEND
  5
908
  8
0
  6
CONTINUOUS
  0
POLYLINE
  5
515
  8
0
  6
CONTINUOUS
 66
     1
 10
0.0
 20
0.0
 30
0.0
  0
VERTEX
  5
909
  8
0
  6
CONTINUOUS
 10
-26.4159373016
 20
-7.5
 30
0.0
  0
VERTEX
  5
90A
  8
0
  6
CONTINUOUS
 10
-26.417020281599999
 20
-7.526595421500005
 30
0.0
  0
VERTEX
  5
90B
  8
0
  6
CONTINUOUS
 10
-26.419732110599998
 20
-7.5515437365000082
 30
0.0
  0
VERTEX
  5
90C
  8
0
  6
CONTINUOUS
 10
-26.4240727886
 20
-7.5748449449999953
 30
0.0
  0
VERTEX
  5
90D
  8
0
  6
CONTINUOUS
 10
-26.430209532500001
 20
-7.5969393391000031
 30
0.0
  0
VERTEX
  5
90E
  8
0
  6
CONTINUOUS
 10
-26.437975125400001
 20
-7.6173866265999939
 30
0.0
  0
VERTEX
  5
90F
  8
0
  6
CONTINUOUS
 10
-26.446867916799999
 20
-7.6348659307000011
 30
0.0
  0
VERTEX
  5
910
  8
0
  6
CONTINUOUS
 10
-26.456962325199999
 20
-7.6491813026999997
 30
0.0
  0
VERTEX
  5
911
  8
0
  6
CONTINUOUS
 10
-26.468183932100001
 20
-7.6605286911999988
 30
0.0
  0
VERTEX
  5
912
  8
0
  6
CONTINUOUS
 10
-26.479807831399999
 20
-7.6681750648000104
 30
0.0
  0
VERTEX
  5
913
  8
0
  6
CONTINUOUS
 10
-26.491860582899999
 20
-7.6718760796999979
 30
0.0
  0
VERTEX
  5
914
  8
0
  6
CONTINUOUS
 10
-26.498088104899999
 20
-7.6723387066000006
 30
0.0
  0
SEQEND
  5
915
  8
0
  6
CONTINUOUS
  0
POLYLINE
  5
516
  8
0
  6
CONTINUOUS
 66
     1
 10
0.0
 20
0.0
 30
0.0
  0
VERTEX
  5
916
  8
0
  6
CONTINUOUS
 10
-25.271255975700001
 20
5.0
 30
0.0
  0
VERTEX
  5
917
  8
0
  6
CONTINUOUS
 10
-25.270172995700001
 20
5.0265954215999917
 30
0.0
  0
VERTEX
  5
918
  8
0
  6
CONTINUOUS
 10
-25.2674611666
 20
5.0515437365999949
 30
0.0
  0
VERTEX
  5
919
  8
0
  6
CONTINUOUS
 10
-25.263120488599998
 20
5.0748449449999953
 30
0.0
  0
VERTEX
  5
91A
  8
0
  6
CONTINUOUS
 10
-25.256983744700001
 20
5.0969393391999906
 30
0.0
  0
VERTEX
  5
91B
  8
0
  6
CONTINUOUS
 10
-25.249218151800001
 20
5.1173866266999957
 30
0.0
  0
VERTEX
  5
91C
  8
0
  6
CONTINUOUS
 10
-25.2403253604
 20
5.1348659308000029
 30
0.0
  0
VERTEX
  5
91D
  8
0
  6
CONTINUOUS
 10
-25.230230951999999
 20
5.1491813027999882
 30
0.0
  0
VERTEX
  5
91E
  8
0
  6
CONTINUOUS
 10
-25.2190093452
 20
5.1605286913000006
 30
0.0
  0
VERTEX
  5
91F
  8
0
  6
CONTINUOUS
 10
-25.2073854458
 20
5.168175064899998
 30
0.0
  0
VERTEX
  5
920
  8
0
  6
CONTINUOUS
 10
-25.195332694299999
 20
5.1718760797999863
 30
0.0
  0
VERTEX
  5
921
  8
0
  6
CONTINUOUS
 10
-25.1891051723
 20
5.1723387067000033
 30
0.0
  0
SEQEND
  5
922
  8
0
  6
CONTINUOUS
  0
POLYLINE
  5
517
  8
0
  6
CONTINUOUS
 66
     1
 10
0.0
 20
0.0
 30
0.0
  0
VERTEX
  5
923
  8
0
  6
CONTINUOUS
 10
-25.106954369
 20
5.0
 30
0.0
  0
VERTEX
  5
924
  8
0
  6
CONTINUOUS
 10
-25.108037349
 20
4.9734045784999941
 30
0.0
  0
VERTEX
  5
925
  8
0
  6
CONTINUOUS
 10
-25.110749177999999
 20
4.9484562634999909
 30
0.0
  0
VERTEX
  5
926
  8
0
  6
CONTINUOUS
 10
-25.115089856099999
 20
4.9251550550000038
 30
0.0
  0
VERTEX
  5
927
  8
0
  6
CONTINUOUS
 10
-25.1212266
 20
4.903060660899996
 30
0.0
  0
VERTEX
  5
928
  8
0
  6
CONTINUOUS
 10
-25.1289921929
 20
4.8826133734000052
 30
0.0
  0
VERTEX
  5
929
  8
0
  6
CONTINUOUS
 10
-25.137884984199999
 20
4.865134069299998
 30
0.0
  0
VERTEX
  5
92A
  8
0
  6
CONTINUOUS
 10
-25.1479793926
 20
4.8508186972999994
 30
0.0
  0
VERTEX
  5
92B
  8
0
  6
CONTINUOUS
 10
-25.159200999500001
 20
4.8394713088000003
 30
0.0
  0
VERTEX
  5
92C
  8
0
  6
CONTINUOUS
 10
-25.170824898900001
 20
4.8318249351999887
 30
0.0
  0
VERTEX
  5
92D
  8
0
  6
CONTINUOUS
 10
-25.1828776503
 20
4.8281239203000013
 30
0.0
  0
VERTEX
  5
92E
  8
0
  6
CONTINUOUS
 10
-25.1891051723
 20
4.8276612933999976
 30
0.0
  0
SEQEND
  5
92F
  8
0
  6
CONTINUOUS
  0
POLYLINE
  5
518
  8
0
  6
CONTINUOUS
 66
     1
 10
0.0
 20
0.0
 30
0.0
  0
VERTEX
  5
930
  8
0
  6
CONTINUOUS
 10
-25.271255975700001
 20
0.0
 30
0.0
  0
VERTEX
  5
931
  8
0
  6
CONTINUOUS
 10
-25.270172995700001
 20
0.0265954215999926
 30
0.0
  0
VERTEX
  5
932
  8
0
  6
CONTINUOUS
 10
-25.2674611666
 20
0.0515437365999958
 30
0.0
  0
VERTEX
  5
933
  8
0
  6
CONTINUOUS
 10
-25.263120488599998
 20
0.0748449449999953
 30
0.0
  0
VERTEX
  5
934
  8
0
  6
CONTINUOUS
 10
-25.256983744700001
 20
0.0969393391999916
 30
0.0
  0
VERTEX
  5
935
  8
0
  6
CONTINUOUS
 10
-25.249218151800001
 20
0.1173866266999965
 30
0.0
  0
VERTEX
  5
936
  8
0
  6
CONTINUOUS
 10
-25.2403253604
 20
0.1348659308000037
 30
0.0
  0
VERTEX
  5
937
  8
0
  6
CONTINUOUS
 10
-25.230230951999999
 20
0.1491813027999882
 30
0.0
  0
VERTEX
  5
938
  8
0
  6
CONTINUOUS
 10
-25.2190093452
 20
0.1605286913000015
 30
0.0
  0
VERTEX
  5
939
  8
0
  6
CONTINUOUS
 10
-25.2073854458
 20
0.168175064899998
 30
0.0
  0
VERTEX
  5
93A
  8
0
  6
CONTINUOUS
 10
-25.195332694299999
 20
0.1718760797999863
 30
0.0
  0
VERTEX
  5
93B
  8
0
  6
CONTINUOUS
 10
-25.1891051723
 20
0.1723387067000033
 30
0.0
  0
SEQEND
  5
93C
  8
0
  6
CONTINUOUS
  0
POLYLINE
  5
519
  8
0
  6
CONTINUOUS
 66
     1
 10
0.0
 20
0.0
 30
0.0
  0
VERTEX
  5
93D
  8
0
  6
CONTINUOUS
 10
-25.106954369
 20
0.0
 30
0.0
  0
VERTEX
  5
93E
  8
0
  6
CONTINUOUS
 10
-25.108037349
 20
-0.0265954215000051
 30
0.0
  0
VERTEX
  5
93F
  8
0
  6
CONTINUOUS
 10
-25.110749177999999
 20
-0.0515437365000082
 30
0.0
  0
VERTEX
  5
940
  8
0
  6
CONTINUOUS
 10
-25.115089856099999
 20
-0.0748449449999953
 30
0.0
  0
VERTEX
  5
941
  8
0
  6
CONTINUOUS
 10
-25.1212266
 20
-0.096939339100004
 30
0.0
  0
VERTEX
  5
942
  8
0
  6
CONTINUOUS
 10
-25.1289921929
 20
-0.1173866265999948
 30
0.0
  0
VERTEX
  5
943
  8
0
  6
CONTINUOUS
 10
-25.137884984199999
 20
-0.134865930700002
 30
0.0
  0
VERTEX
  5
944
  8
0
  6
CONTINUOUS
 10
-25.1479793926
 20
-0.1491813027000006
 30
0.0
  0
VERTEX
  5
945
  8
0
  6
CONTINUOUS
 10
-25.159200999500001
 20
-0.1605286911999997
 30
0.0
  0
VERTEX
  5
946
  8
0
  6
CONTINUOUS
 10
-25.170824898900001
 20
-0.1681750648000104
 30
0.0
  0
VERTEX
  5
947
  8
0
  6
CONTINUOUS
 10
-25.1828776503
 20
-0.1718760796999987
 30
0.0
  0
VERTEX
  5
948
  8
0
  6
CONTINUOUS
 10
-25.1891051723
 20
-0.1723387066000015
 30
0.0
  0
SEQEND
  5
949
  8
0
  6
CONTINUOUS
  0
POLYLINE
  5
51A
  8
0
  6
CONTINUOUS
 66
     1
 10
0.0
 20
0.0
 30
0.0
  0
VERTEX
  5
94A
  8
0
  6
CONTINUOUS
 10
-25.271255975700001
 20
-5.0
 30
0.0
  0
VERTEX
  5
94B
  8
0
  6
CONTINUOUS
 10
-25.270172995700001
 20
-4.9734045784000074
 30
0.0
  0
VERTEX
  5
94C
  8
0
  6
CONTINUOUS
 10
-25.2674611666
 20
-4.9484562634000042
 30
0.0
  0
VERTEX
  5
94D
  8
0
  6
CONTINUOUS
 10
-25.263120488599998
 20
-4.9251550550000038
 30
0.0
  0
VERTEX
  5
94E
  8
0
  6
CONTINUOUS
 10
-25.256983744700001
 20
-4.9030606608000076
 30
0.0
  0
VERTEX
  5
94F
  8
0
  6
CONTINUOUS
 10
-25.249218151800001
 20
-4.8826133733000026
 30
0.0
  0
VERTEX
  5
950
  8
0
  6
CONTINUOUS
 10
-25.2403253604
 20
-4.8651340691999962
 30
0.0
  0
VERTEX
  5
951
  8
0
  6
CONTINUOUS
 10
-25.230230951999999
 20
-4.8508186972000109
 30
0.0
  0
VERTEX
  5
952
  8
0
  6
CONTINUOUS
 10
-25.2190093452
 20
-4.8394713086999976
 30
0.0
  0
VERTEX
  5
953
  8
0
  6
CONTINUOUS
 10
-25.2073854458
 20
-4.8318249351000011
 30
0.0
  0
VERTEX
  5
954
  8
0
  6
CONTINUOUS
 10
-25.195332694299999
 20
-4.8281239202000128
 30
0.0
  0
VERTEX
  5
955
  8
0
  6
CONTINUOUS
 10
-25.1891051723
 20
-4.8276612932999958
 30
0.0
  0
SEQEND
  5
956
  8
0
  6
CONTINUOUS
  0
POLYLINE
  5
51B
  8
0
  6
CONTINUOUS
 66
     1
 10
0.0
 20
0.0
 30
0.0
  0
VERTEX
  5
957
  8
0
  6
CONTINUOUS
 10
-25.106954369
 20
-5.0
 30
0.0
  0
VERTEX
  5
958
  8
0
  6
CONTINUOUS
 10
-25.108037349
 20
-5.026595421500005
 30
0.0
  0
VERTEX
  5
959
  8
0
  6
CONTINUOUS
 10
-25.110749177999999
 20
-5.0515437365000082
 30
0.0
  0
VERTEX
  5
95A
  8
0
  6
CONTINUOUS
 10
-25.115089856099999
 20
-5.0748449449999953
 30
0.0
  0
VERTEX
  5
95B
  8
0
  6
CONTINUOUS
 10
-25.1212266
 20
-5.0969393391000031
 30
0.0
  0
VERTEX
  5
95C
  8
0
  6
CONTINUOUS
 10
-25.1289921929
 20
-5.1173866265999939
 30
0.0
  0
VERTEX
  5
95D
  8
0
  6
CONTINUOUS
 10
-25.137884984199999
 20
-5.1348659307000011
 30
0.0
  0
VERTEX
  5
95E
  8
0
  6
CONTINUOUS
 10
-25.1479793926
 20
-5.1491813026999997
 30
0.0
  0
VERTEX
  5
95F
  8
0
  6
CONTINUOUS
 10
-25.159200999500001
 20
-5.1605286911999988
 30
0.0
  0
VERTEX
  5
960
  8
0
  6
CONTINUOUS
 10
-25.170824898900001
 20
-5.1681750648000104
 30
0.0
  0
VERTEX
  5
961
  8
0
  6
CONTINUOUS
 10
-25.1828776503
 20
-5.1718760796999979
 30
0.0
  0
VERTEX
  5
962
  8
0
  6
CONTINUOUS
 10
-25.1891051723
 20
-5.1723387066000006
 30
0.0
  0
SEQEND
  5
963
  8
0
  6
CONTINUOUS
  0
POLYLINE
  5
51C
  8
0
  6
CONTINUOUS
 66
     1
 10
0.0
 20
0.0
 30
0.0
  0
VERTEX
  5
964
  8
0
  6
CONTINUOUS
 10
-24.4495374412
 20
9.8927553651999887
 30
0.0
  0
VERTEX
  5
965
  8
0
  6
CONTINUOUS
 10
-24.4446073274
 20
9.9950070841999974
 30
0.0
  0
VERTEX
  5
966
  8
0
  6
CONTINUOUS
 10
-24.430790027099999
 20
10.096485236199991
 30
0.0
  0
VERTEX
  5
967
  8
0
  6
CONTINUOUS
 10
-24.408190087099999
 20
10.19642198369999
 30
0.0
  0
VERTEX
  5
968
  8
0
  6
CONTINUOUS
 10
-24.3769784976
 20
10.294061135799989
 30
0.0
  0
VERTEX
  5
969
  8
0
  6
CONTINUOUS
 10
-24.337391431
 20
10.38866392199999
 30
0.0
  0
VERTEX
  5
96A
  8
0
  6
CONTINUOUS
 10
-24.289728455000009
 20
10.4795145826
 30
0.0
  0
VERTEX
  5
96B
  8
0
  6
CONTINUOUS
 10
-24.234350323800001
 20
10.56592588229999
 30
0.0
  0
VERTEX
  5
96C
  8
0
  6
CONTINUOUS
 10
-24.171675946800001
 20
10.647243808899979
 30
0.0
  0
VERTEX
  5
96D
  8
0
  6
CONTINUOUS
 10
-24.102179250599999
 20
10.722852573300001
 30
0.0
  0
VERTEX
  5
96E
  8
0
  6
CONTINUOUS
 10
-24.026385876700001
 20
10.792179740599989
 30
0.0
  0
VERTEX
  5
96F
  8
0
  6
CONTINUOUS
 10
-23.944869520499999
 20
10.854701088000001
 30
0.0
  0
VERTEX
  5
970
  8
0
  6
CONTINUOUS
 10
-23.858247289600001
 20
10.909944071599989
 30
0.0
  0
VERTEX
  5
971
  8
0
  6
CONTINUOUS
 10
-23.767174744799998
 20
10.95749091849998
 30
0.0
  0
VERTEX
  5
972
  8
0
  6
CONTINUOUS
 10
-23.672340850400001
 20
10.996981638699991
 30
0.0
  0
VERTEX
  5
973
  8
0
  6
CONTINUOUS
 10
-23.574463078000001
 20
11.0281172765
 30
0.0
  0
VERTEX
  5
974
  8
0
  6
CONTINUOUS
 10
-23.474281990800002
 20
11.050662195699999
 30
0.0
  0
VERTEX
  5
975
  8
0
  6
CONTINUOUS
 10
-23.3725556399
 20
11.064445862299991
 30
0.0
  0
VERTEX
  5
976
  8
0
  6
CONTINUOUS
 10
-23.270053738800001
 20
11.069363984400001
 30
0.0
  0
SEQEND
  5
977
  8
0
  6
CONTINUOUS
  0
POLYLINE
  5
51D
  8
0
  6
CONTINUOUS
 66
     1
 10
0.0
 20
0.0
 30
0.0
  0
VERTEX
  5
978
  8
0
  6
CONTINUOUS
 10
-30.639032556
 20
12.2391324997
 30
0.0
  0
VERTEX
  5
979
  8
0
  6
CONTINUOUS
 10
-30.724107290900001
 20
12.19978906639999
 30
0.0
  0
VERTEX
  5
97A
  8
0
  6
CONTINUOUS
 10
-30.805037438500001
 20
12.155768794499989
 30
0.0
  0
VERTEX
  5
97B
  8
0
  6
CONTINUOUS
 10
-30.8815748267
 20
12.1073563053
 30
0.0
  0
VERTEX
  5
97C
  8
0
  6
CONTINUOUS
 10
-30.953615464599999
 20
12.054821913499991
 30
0.0
  0
VERTEX
  5
97D
  8
0
  6
CONTINUOUS
 10
-31.020824041400001
 20
11.998500293899991
 30
0.0
  0
VERTEX
  5
97E
  8
0
  6
CONTINUOUS
 10
-31.082659677999999
 20
11.938815833099991
 30
0.0
  0
VERTEX
  5
97F
  8
0
  6
CONTINUOUS
 10
-31.1389683162
 20
11.8761158591
 30
0.0
  0
VERTEX
  5
980
  8
0
  6
CONTINUOUS
 10
-31.189651425499999
 20
11.8107586453
 30
0.0
  0
VERTEX
  5
981
  8
0
  6
CONTINUOUS
 10
-31.234337480099999
 20
11.7432321222
 30
0.0
  0
VERTEX
  5
982
  8
0
  6
CONTINUOUS
 10
-31.272897735600001
 20
11.6739495788
 30
0.0
  0
VERTEX
  5
983
  8
0
  6
CONTINUOUS
 10
-31.305414875499999
 20
11.60322678889999
 30
0.0
  0
VERTEX
  5
984
  8
0
  6
CONTINUOUS
 10
-31.331897263399998
 20
11.531412454999989
 30
0.0
  0
SEQEND
  5
985
  8
0
  6
CONTINUOUS
  0
POLYLINE
  5
51E
  8
0
  6
CONTINUOUS
 66
     1
 10
0.0
 20
0.0
 30
0.0
  0
VERTEX
  5
986
  8
0
  6
CONTINUOUS
 10
-30.8786986241
 20
12.704353856099999
 30
0.0
  0
VERTEX
  5
987
  8
0
  6
CONTINUOUS
 10
-30.788907671
 20
12.74486408029999
 30
0.0
  0
VERTEX
  5
988
  8
0
  6
CONTINUOUS
 10
-30.695703687400002
 20
12.78128668139999
 30
0.0
  0
VERTEX
  5
989
  8
0
  6
CONTINUOUS
 10
-30.599284492199999
 20
12.8134270084
 30
0.0
  0
VERTEX
  5
98A
  8
0
  6
CONTINUOUS
 10
-30.499711642400001
 20
12.84116949449999
 30
0.0
  0
VERTEX
  5
98B
  8
0
  6
CONTINUOUS
 10
-30.397300068300002
 20
12.8642700673
 30
0.0
  0
VERTEX
  5
98C
  8
0
  6
CONTINUOUS
 10
-30.292647669800001
 20
12.882419059299989
 30
0.0
  0
VERTEX
  5
98D
  8
0
  6
CONTINUOUS
 10
-30.186146022999999
 20
12.895472789899991
 30
0.0
  0
VERTEX
  5
98E
  8
0
  6
CONTINUOUS
 10
-30.077927503600002
 20
12.90339515769999
 30
0.0
  0
VERTEX
  5
98F
  8
0
  6
CONTINUOUS
 10
-29.968247760200001
 20
12.906105395100001
 30
0.0
  0
SEQEND
  5
990
  8
0
  6
CONTINUOUS
  0
POLYLINE
  5
51F
  8
0
  6
CONTINUOUS
 66
     1
 10
0.0
 20
0.0
 30
0.0
  0
VERTEX
  5
991
  8
0
  6
CONTINUOUS
 10
-31.0311304216
 20
-12.64272054570001
 30
0.0
  0
VERTEX
  5
992
  8
0
  6
CONTINUOUS
 10
-31.156825889699999
 20
-12.55870902480001
 30
0.0
  0
VERTEX
  5
993
  8
0
  6
CONTINUOUS
 10
-31.2743291733
 20
-12.4655135369
 30
0.0
  0
VERTEX
  5
994
  8
0
  6
CONTINUOUS
 10
-31.382735754999999
 20
-12.36359192320001
 30
0.0
  0
VERTEX
  5
995
  8
0
  6
CONTINUOUS
 10
-31.481328250899999
 20
-12.2528465769
 30
0.0
  0
VERTEX
  5
996
  8
0
  6
CONTINUOUS
 10
-31.568878946000002
 20
-12.1344312203
 30
0.0
  0
VERTEX
  5
997
  8
0
  6
CONTINUOUS
 10
-31.644149852999998
 20
-12.0112089875
 30
0.0
  0
VERTEX
  5
998
  8
0
  6
CONTINUOUS
 10
-31.7067085738
 20
-11.8850064433
 30
0.0
  0
VERTEX
  5
999
  8
0
  6
CONTINUOUS
 10
-31.7564606203
 20
-11.7563145645
 30
0.0
  0
VERTEX
  5
99A
  8
0
  6
CONTINUOUS
 10
-31.7934313262
 20
-11.626535258300001
 30
0.0
  0
SEQEND
  5
99B
  8
0
  6
CONTINUOUS
  0
LINE
  5
520
  8
0
  6
CONTINUOUS
 10
-22.0625
 20
8.1184999999999974
 30
0.0
 11
-22.0625
 21
3.089500000000001
 31
0.0
  0
LINE
  5
521
  8
0
  6
CONTINUOUS
 10
-22.0625
 20
2.8894999999999982
 30
0.0
 11
-22.0625
 21
-2.8894999999999982
 31
0.0
  0
LINE
  5
522
  8
0
  6
CONTINUOUS
 10
-22.0625
 20
-3.089500000000001
 30
0.0
 11
-22.0625
 21
-8.1185000000000045
 31
0.0
  0
POLYLINE
  5
523
  8
0
  6
CONTINUOUS
 66
     1
 10
0.0
 20
0.0
 30
0.0
  0
VERTEX
  5
99C
  8
0
  6
CONTINUOUS
 10
-19.672338706600002
 20
11.38341798389999
 30
0.0
  0
VERTEX
  5
99D
  8
0
  6
CONTINUOUS
 10
-19.671876079699999
 20
11.3845575891
 30
0.0
  0
VERTEX
  5
99E
  8
0
  6
CONTINUOUS
 10
-19.6681750648
 20
11.38676318199999
 30
0.0
  0
VERTEX
  5
99F
  8
0
  6
CONTINUOUS
 10
-19.6605286912
 20
11.388890296999991
 30
0.0
  0
VERTEX
  5
9A0
  8
0
  6
CONTINUOUS
 10
-19.649181302700001
 20
11.390943794599989
 30
0.0
  0
VERTEX
  5
9A1
  8
0
  6
CONTINUOUS
 10
-19.634865930699998
 20
11.392791020500001
 30
0.0
  0
VERTEX
  5
9A2
  8
0
  6
CONTINUOUS
 10
-19.617386626599998
 20
11.394418356599999
 30
0.0
  0
VERTEX
  5
9A3
  8
0
  6
CONTINUOUS
 10
-19.5969393391
 20
11.395839420999989
 30
0.0
  0
VERTEX
  5
9A4
  8
0
  6
CONTINUOUS
 10
-19.574844944900001
 20
11.39696241429999
 30
0.0
  0
VERTEX
  5
9A5
  8
0
  6
CONTINUOUS
 10
-19.551543736500001
 20
11.3977567365
 30
0.0
  0
VERTEX
  5
9A6
  8
0
  6
CONTINUOUS
 10
-19.526595421500001
 20
11.398252987499999
 30
0.0
  0
VERTEX
  5
9A7
  8
0
  6
CONTINUOUS
 10
-19.5
 20
11.398451167399999
 30
0.0
  0
SEQEND
  5
9A8
  8
0
  6
CONTINUOUS
  0
POLYLINE
  5
524
  8
0
  6
CONTINUOUS
 66
     1
 10
0.0
 20
0.0
 30
0.0
  0
VERTEX
  5
9A9
  8
0
  6
CONTINUOUS
 10
-19.3276612933
 20
11.38341798389999
 30
0.0
  0
VERTEX
  5
9AA
  8
0
  6
CONTINUOUS
 10
-19.328123920199999
 20
11.38227837879999
 30
0.0
  0
VERTEX
  5
9AB
  8
0
  6
CONTINUOUS
 10
-19.331824935099998
 20
11.380072785899991
 30
0.0
  0
VERTEX
  5
9AC
  8
0
  6
CONTINUOUS
 10
-19.339471308699999
 20
11.377945670800001
 30
0.0
  0
VERTEX
  5
9AD
  8
0
  6
CONTINUOUS
 10
-19.350818697200001
 20
11.3758921733
 30
0.0
  0
VERTEX
  5
9AE
  8
0
  6
CONTINUOUS
 10
-19.3651340692
 20
11.374044947299989
 30
0.0
  0
VERTEX
  5
9AF
  8
0
  6
CONTINUOUS
 10
-19.3826133733
 20
11.372417611299991
 30
0.0
  0
VERTEX
  5
9B0
  8
0
  6
CONTINUOUS
 10
-19.403060660800001
 20
11.37099654689999
 30
0.0
  0
VERTEX
  5
9B1
  8
0
  6
CONTINUOUS
 10
-19.425155055000001
 20
11.36987355359998
 30
0.0
  0
VERTEX
  5
9B2
  8
0
  6
CONTINUOUS
 10
-19.448456263400001
 20
11.36907923139999
 30
0.0
  0
VERTEX
  5
9B3
  8
0
  6
CONTINUOUS
 10
-19.4734045784
 20
11.36858298029999
 30
0.0
  0
VERTEX
  5
9B4
  8
0
  6
CONTINUOUS
 10
-19.5
 20
11.368384800399991
 30
0.0
  0
SEQEND
  5
9B5
  8
0
  6
CONTINUOUS
  0
POLYLINE
  5
525
  8
0
  6
CONTINUOUS
 66
     1
 10
0.0
 20
0.0
 30
0.0
  0
VERTEX
  5
9B6
  8
0
  6
CONTINUOUS
 10
-30.748838934799998
 20
-12.182978176000001
 30
0.0
  0
VERTEX
  5
9B7
  8
0
  6
CONTINUOUS
 10
-30.674028827699999
 20
-12.2196335579
 30
0.0
  0
VERTEX
  5
9B8
  8
0
  6
CONTINUOUS
 10
-30.595320558600001
 20
-12.252666147299999
 30
0.0
  0
VERTEX
  5
9B9
  8
0
  6
CONTINUOUS
 10
-30.512874842599999
 20
-12.2818096379
 30
0.0
  0
VERTEX
  5
9BA
  8
0
  6
CONTINUOUS
 10
-30.426681483700001
 20
-12.306820256800011
 30
0.0
  0
VERTEX
  5
9BB
  8
0
  6
CONTINUOUS
 10
-30.337131293600009
 20
-12.32741672390001
 30
0.0
  0
VERTEX
  5
9BC
  8
0
  6
CONTINUOUS
 10
-30.245031900400001
 20
-12.3433409539
 30
0.0
  0
VERTEX
  5
9BD
  8
0
  6
CONTINUOUS
 10
-30.1508318799
 20
-12.3544185252
 30
0.0
  0
VERTEX
  5
9BE
  8
0
  6
CONTINUOUS
 10
-30.054604276599999
 20
-12.360501641200001
 30
0.0
  0
VERTEX
  5
9BF
  8
0
  6
CONTINUOUS
 10
-29.956628606799999
 20
-12.361449670000001
 30
0.0
  0
SEQEND
  5
9C0
  8
0
  6
CONTINUOUS
  0
POLYLINE
  5
526
  8
0
  6
CONTINUOUS
 66
     1
 10
0.0
 20
0.0
 30
0.0
  0
VERTEX
  5
9C1
  8
0
  6
CONTINUOUS
 10
-16.422338706600002
 20
11.17198428189999
 30
0.0
  0
VERTEX
  5
9C2
  8
0
  6
CONTINUOUS
 10
-16.421876079699999
 20
11.173123887099999
 30
0.0
  0
VERTEX
  5
9C3
  8
0
  6
CONTINUOUS
 10
-16.4181750648
 20
11.1753294799
 30
0.0
  0
VERTEX
  5
9C4
  8
0
  6
CONTINUOUS
 10
-16.4105286912
 20
11.17745659499999
 30
0.0
  0
VERTEX
  5
9C5
  8
0
  6
CONTINUOUS
 10
-16.399181302700001
 20
11.179510092599999
 30
0.0
  0
VERTEX
  5
9C6
  8
0
  6
CONTINUOUS
 10
-16.384865930699998
 20
11.181357318499989
 30
0.0
  0
VERTEX
  5
9C7
  8
0
  6
CONTINUOUS
 10
-16.367386626599998
 20
11.18298465449999
 30
0.0
  0
VERTEX
  5
9C8
  8
0
  6
CONTINUOUS
 10
-16.3469393391
 20
11.18440571889999
 30
0.0
  0
VERTEX
  5
9C9
  8
0
  6
CONTINUOUS
 10
-16.324844944900001
 20
11.185528712199989
 30
0.0
  0
VERTEX
  5
9CA
  8
0
  6
CONTINUOUS
 10
-16.301543736500001
 20
11.18632303439999
 30
0.0
  0
VERTEX
  5
9CB
  8
0
  6
CONTINUOUS
 10
-16.276595421500001
 20
11.18681928549999
 30
0.0
  0
VERTEX
  5
9CC
  8
0
  6
CONTINUOUS
 10
-16.25
 20
11.1870174654
 30
0.0
  0
SEQEND
  5
9CD
  8
0
  6
CONTINUOUS
  0
POLYLINE
  5
527
  8
0
  6
CONTINUOUS
 66
     1
 10
0.0
 20
0.0
 30
0.0
  0
VERTEX
  5
9CE
  8
0
  6
CONTINUOUS
 10
-16.0776612933
 20
11.17198428189999
 30
0.0
  0
VERTEX
  5
9CF
  8
0
  6
CONTINUOUS
 10
-16.078123920199999
 20
11.1708446767
 30
0.0
  0
VERTEX
  5
9D0
  8
0
  6
CONTINUOUS
 10
-16.081824935099998
 20
11.1686390838
 30
0.0
  0
VERTEX
  5
9D1
  8
0
  6
CONTINUOUS
 10
-16.089471308699999
 20
11.166511968799989
 30
0.0
  0
VERTEX
  5
9D2
  8
0
  6
CONTINUOUS
 10
-16.100818697200001
 20
11.164458471199991
 30
0.0
  0
VERTEX
  5
9D3
  8
0
  6
CONTINUOUS
 10
-16.1151340692
 20
11.162611245300001
 30
0.0
  0
VERTEX
  5
9D4
  8
0
  6
CONTINUOUS
 10
-16.1326133733
 20
11.1609839092
 30
0.0
  0
VERTEX
  5
9D5
  8
0
  6
CONTINUOUS
 10
-16.153060660800001
 20
11.159562844799989
 30
0.0
  0
VERTEX
  5
9D6
  8
0
  6
CONTINUOUS
 10
-16.175155055000001
 20
11.15843985159999
 30
0.0
  0
VERTEX
  5
9D7
  8
0
  6
CONTINUOUS
 10
-16.198456263400001
 20
11.157645529299989
 30
0.0
  0
VERTEX
  5
9D8
  8
0
  6
CONTINUOUS
 10
-16.2234045784
 20
11.1571492783
 30
0.0
  0
VERTEX
  5
9D9
  8
0
  6
CONTINUOUS
 10
-16.25
 20
11.1569510984
 30
0.0
  0
SEQEND
  5
9DA
  8
0
  6
CONTINUOUS
  0
LINE
  5
528
  8
0
  6
CONTINUOUS
 10
-19.307500000000001
 20
8.8684999999999974
 30
0.0
 11
-19.307500000000001
 21
3.089500000000001
 31
0.0
  0
LINE
  5
529
  8
0
  6
CONTINUOUS
 10
-19.307500000000001
 20
2.8894999999999982
 30
0.0
 11
-19.307500000000001
 21
-2.8894999999999982
 31
0.0
  0
LINE
  5
52A
  8
0
  6
CONTINUOUS
 10
-19.307500000000001
 20
-3.089500000000001
 30
0.0
 11
-19.307500000000001
 21
-8.8685000000000045
 31
0.0
  0
LINE
  5
52B
  8
0
  6
CONTINUOUS
 10
-19.107500000000002
 20
8.8684999999999974
 30
0.0
 11
-19.107500000000002
 21
3.089500000000001
 31
0.0
  0
LINE
  5
52C
  8
0
  6
CONTINUOUS
 10
-19.107500000000002
 20
2.8894999999999982
 30
0.0
 11
-19.107500000000002
 21
-2.8894999999999982
 31
0.0
  0
LINE
  5
52D
  8
0
  6
CONTINUOUS
 10
-19.107500000000002
 20
-3.089500000000001
 30
0.0
 11
-19.107500000000002
 21
-8.8685000000000045
 31
0.0
  0
POLYLINE
  5
52E
  8
0
  6
CONTINUOUS
 66
     1
 10
0.0
 20
0.0
 30
0.0
  0
VERTEX
  5
9DB
  8
0
  6
CONTINUOUS
 10
-13.1723387066
 20
11.38341798389999
 30
0.0
  0
VERTEX
  5
9DC
  8
0
  6
CONTINUOUS
 10
-13.171876079700001
 20
11.3845575891
 30
0.0
  0
VERTEX
  5
9DD
  8
0
  6
CONTINUOUS
 10
-13.1681750648
 20
11.38676318199999
 30
0.0
  0
VERTEX
  5
9DE
  8
0
  6
CONTINUOUS
 10
-13.1605286912
 20
11.388890296999991
 30
0.0
  0
VERTEX
  5
9DF
  8
0
  6
CONTINUOUS
 10
-13.149181302700001
 20
11.390943794599989
 30
0.0
  0
VERTEX
  5
9E0
  8
0
  6
CONTINUOUS
 10
-13.1348659307
 20
11.392791020500001
 30
0.0
  0
VERTEX
  5
9E1
  8
0
  6
CONTINUOUS
 10
-13.1173866266
 20
11.394418356599999
 30
0.0
  0
VERTEX
  5
9E2
  8
0
  6
CONTINUOUS
 10
-13.0969393391
 20
11.395839420999989
 30
0.0
  0
VERTEX
  5
9E3
  8
0
  6
CONTINUOUS
 10
-13.074844944900001
 20
11.39696241429999
 30
0.0
  0
VERTEX
  5
9E4
  8
0
  6
CONTINUOUS
 10
-13.051543736499999
 20
11.3977567365
 30
0.0
  0
VERTEX
  5
9E5
  8
0
  6
CONTINUOUS
 10
-13.0265954215
 20
11.398252987499999
 30
0.0
  0
VERTEX
  5
9E6
  8
0
  6
CONTINUOUS
 10
-13.0
 20
11.398451167399999
 30
0.0
  0
SEQEND
  5
9E7
  8
0
  6
CONTINUOUS
  0
POLYLINE
  5
52F
  8
0
  6
CONTINUOUS
 66
     1
 10
0.0
 20
0.0
 30
0.0
  0
VERTEX
  5
9E8
  8
0
  6
CONTINUOUS
 10
-31.8893666978
 20
-16.95031888130001
 30
0.0
  0
VERTEX
  5
9E9
  8
0
  6
CONTINUOUS
 10
-32.028802239000001
 20
-16.94395975230001
 30
0.0
  0
VERTEX
  5
9EA
  8
0
  6
CONTINUOUS
 10
-32.165082282199997
 20
-16.926087512500001
 30
0.0
  0
VERTEX
  5
9EB
  8
0
  6
CONTINUOUS
 10
-32.2982068273
 20
-16.8967021616
 30
0.0
  0
VERTEX
  5
9EC
  8
0
  6
CONTINUOUS
 10
-32.429127101799999
 20
-16.855410729300001
 30
0.0
  0
VERTEX
  5
9ED
  8
0
  6
CONTINUOUS
 10
-32.556891878199998
 20
-16.802606185999998
 30
0.0
  0
VERTEX
  5
9EE
  8
0
  6
CONTINUOUS
 10
-32.678647474400002
 20
-16.739467443500001
 30
0.0
  0
VERTEX
  5
9EF
  8
0
  6
CONTINUOUS
 10
-32.794258695700002
 20
-16.66576183230001
 30
0.0
  0
VERTEX
  5
9F0
  8
0
  6
CONTINUOUS
 10
-32.903860736699997
 20
-16.581722021800001
 30
0.0
  0
VERTEX
  5
9F1
  8
0
  6
CONTINUOUS
 10
-33.005005498599999
 20
-16.489224932100001
 30
0.0
  0
VERTEX
  5
9F2
  8
0
  6
CONTINUOUS
 10
-33.097502588300003
 20
-16.3880801703
 30
0.0
  0
VERTEX
  5
9F3
  8
0
  6
CONTINUOUS
 10
-33.18154239870001
 20
-16.278478129300002
 30
0.0
  0
VERTEX
  5
9F4
  8
0
  6
CONTINUOUS
 10
-33.255248010000003
 20
-16.1628669079
 30
0.0
  0
VERTEX
  5
9F5
  8
0
  6
CONTINUOUS
 10
-33.318386752500011
 20
-16.041111311800009
 30
0.0
  0
VERTEX
  5
9F6
  8
0
  6
CONTINUOUS
 10
-33.371191295800003
 20
-15.913346535300001
 30
0.0
  0
VERTEX
  5
9F7
  8
0
  6
CONTINUOUS
 10
-33.412482728100009
 20
-15.782426260799999
 30
0.0
  0
VERTEX
  5
9F8
  8
0
  6
CONTINUOUS
 10
-33.441868078900001
 20
-15.6493017157
 30
0.0
  0
VERTEX
  5
9F9
  8
0
  6
CONTINUOUS
 10
-33.459740318800002
 20
-15.513021672500001
 30
0.0
  0
VERTEX
  5
9FA
  8
0
  6
CONTINUOUS
 10
-33.466099447799998
 20
-15.3735861313
 30
0.0
  0
SEQEND
  5
9FB
  8
0
  6
CONTINUOUS
  0
POLYLINE
  5
530
  8
0
  6
CONTINUOUS
 66
     1
 10
0.0
 20
0.0
 30
0.0
  0
VERTEX
  5
9FC
  8
0
  6
CONTINUOUS
 10
-24.508859415
 20
-7.6723387066000006
 30
0.0
  0
VERTEX
  5
9FD
  8
0
  6
CONTINUOUS
 10
-24.5095437877
 20
-7.6718760796999979
 30
0.0
  0
VERTEX
  5
9FE
  8
0
  6
CONTINUOUS
 10
-24.5108683234
 20
-7.6681750648000104
 30
0.0
  0
VERTEX
  5
9FF
  8
0
  6
CONTINUOUS
 10
-24.5121457304
 20
-7.6605286911999988
 30
0.0
  0
VERTEX
  5
A00
  8
0
  6
CONTINUOUS
 10
-24.513378927600002
 20
-7.6491813026999997
 30
0.0
  0
VERTEX
  5
A01
  8
0
  6
CONTINUOUS
 10
-24.514488251300001
 20
-7.6348659307000011
 30
0.0
  0
VERTEX
  5
A02
  8
0
  6
CONTINUOUS
 10
-24.5154655236
 20
-7.6173866265999939
 30
0.0
  0
VERTEX
  5
A03
  8
0
  6
CONTINUOUS
 10
-24.516318922500002
 20
-7.5969393391000031
 30
0.0
  0
VERTEX
  5
A04
  8
0
  6
CONTINUOUS
 10
-24.516993319200001
 20
-7.5748449449999953
 30
0.0
  0
VERTEX
  5
A05
  8
0
  6
CONTINUOUS
 10
-24.517470337500001
 20
-7.5515437365000082
 30
0.0
  0
VERTEX
  5
A06
  8
0
  6
CONTINUOUS
 10
-24.517768353600001
 20
-7.526595421500005
 30
0.0
  0
VERTEX
  5
A07
  8
0
  6
CONTINUOUS
 10
-24.5178873676
 20
-7.5
 30
0.0
  0
SEQEND
  5
A08
  8
0
  6
CONTINUOUS
  0
POLYLINE
  5
531
  8
0
  6
CONTINUOUS
 66
     1
 10
0.0
 20
0.0
 30
0.0
  0
VERTEX
  5
A09
  8
0
  6
CONTINUOUS
 10
-24.508859415
 20
-7.3276612932999958
 30
0.0
  0
VERTEX
  5
A0A
  8
0
  6
CONTINUOUS
 10
-24.508175042200001
 20
-7.3281239202000128
 30
0.0
  0
VERTEX
  5
A0B
  8
0
  6
CONTINUOUS
 10
-24.506850506500001
 20
-7.3318249351000011
 30
0.0
  0
VERTEX
  5
A0C
  8
0
  6
CONTINUOUS
 10
-24.505573099500001
 20
-7.3394713086999976
 30
0.0
  0
VERTEX
  5
A0D
  8
0
  6
CONTINUOUS
 10
-24.504339902400002
 20
-7.3508186972000109
 30
0.0
  0
VERTEX
  5
A0E
  8
0
  6
CONTINUOUS
 10
-24.5032305786
 20
-7.3651340691999962
 30
0.0
  0
VERTEX
  5
A0F
  8
0
  6
CONTINUOUS
 10
-24.5022533064
 20
-7.3826133733000026
 30
0.0
  0
VERTEX
  5
A10
  8
0
  6
CONTINUOUS
 10
-24.501399907500002
 20
-7.4030606608000076
 30
0.0
  0
VERTEX
  5
A11
  8
0
  6
CONTINUOUS
 10
-24.500725510700001
 20
-7.4251550550000038
 30
0.0
  0
VERTEX
  5
A12
  8
0
  6
CONTINUOUS
 10
-24.500248492400001
 20
-7.4484562634000042
 30
0.0
  0
VERTEX
  5
A13
  8
0
  6
CONTINUOUS
 10
-24.4999504763
 20
-7.4734045784000074
 30
0.0
  0
VERTEX
  5
A14
  8
0
  6
CONTINUOUS
 10
-24.4998314624
 20
-7.5
 30
0.0
  0
SEQEND
  5
A15
  8
0
  6
CONTINUOUS
  0
LINE
  5
532
  8
0
  6
CONTINUOUS
 10
-16.352499999999999
 20
8.8684999999999974
 30
0.0
 11
-16.352499999999999
 21
3.089500000000001
 31
0.0
  0
LINE
  5
533
  8
0
  6
CONTINUOUS
 10
-16.352499999999999
 20
2.8894999999999982
 30
0.0
 11
-16.352499999999999
 21
-2.8894999999999982
 31
0.0
  0
LINE
  5
534
  8
0
  6
CONTINUOUS
 10
-16.352499999999999
 20
-3.089500000000001
 30
0.0
 11
-16.352499999999999
 21
-8.8685000000000045
 31
0.0
  0
LINE
  5
535
  8
0
  6
CONTINUOUS
 10
-16.1525
 20
8.8684999999999974
 30
0.0
 11
-16.1525
 21
3.089500000000001
 31
0.0
  0
LINE
  5
536
  8
0
  6
CONTINUOUS
 10
-16.1525
 20
2.8894999999999982
 30
0.0
 11
-16.1525
 21
-2.8894999999999982
 31
0.0
  0
LINE
  5
537
  8
0
  6
CONTINUOUS
 10
-16.1525
 20
-3.089500000000001
 30
0.0
 11
-16.1525
 21
-8.8685000000000045
 31
0.0
  0
POLYLINE
  5
538
  8
0
  6
CONTINUOUS
 66
     1
 10
0.0
 20
0.0
 30
0.0
  0
VERTEX
  5
A16
  8
0
  6
CONTINUOUS
 10
-12.8276612933
 20
11.38341798389999
 30
0.0
  0
VERTEX
  5
A17
  8
0
  6
CONTINUOUS
 10
-12.828123920199999
 20
11.38227837879999
 30
0.0
  0
VERTEX
  5
A18
  8
0
  6
CONTINUOUS
 10
-12.8318249351
 20
11.380072785899991
 30
0.0
  0
VERTEX
  5
A19
  8
0
  6
CONTINUOUS
 10
-12.8394713087
 20
11.377945670800001
 30
0.0
  0
VERTEX
  5
A1A
  8
0
  6
CONTINUOUS
 10
-12.850818697199999
 20
11.3758921733
 30
0.0
  0
VERTEX
  5
A1B
  8
0
  6
CONTINUOUS
 10
-12.8651340692
 20
11.374044947299989
 30
0.0
  0
VERTEX
  5
A1C
  8
0
  6
CONTINUOUS
 10
-12.8826133733
 20
11.372417611299991
 30
0.0
  0
VERTEX
  5
A1D
  8
0
  6
CONTINUOUS
 10
-12.9030606608
 20
11.37099654689999
 30
0.0
  0
VERTEX
  5
A1E
  8
0
  6
CONTINUOUS
 10
-12.925155054999999
 20
11.36987355359998
 30
0.0
  0
VERTEX
  5
A1F
  8
0
  6
CONTINUOUS
 10
-12.948456263400001
 20
11.36907923139999
 30
0.0
  0
VERTEX
  5
A20
  8
0
  6
CONTINUOUS
 10
-12.9734045784
 20
11.36858298029999
 30
0.0
  0
VERTEX
  5
A21
  8
0
  6
CONTINUOUS
 10
-13.0
 20
11.368384800399991
 30
0.0
  0
SEQEND
  5
A22
  8
0
  6
CONTINUOUS
  0
LINE
  5
539
  8
0
  6
CONTINUOUS
 10
31.889366697899991
 20
-16.95031888130001
 30
0.0
 11
-31.8893666978
 21
-16.95031888130001
 31
0.0
  0
POLYLINE
  5
53A
  8
0
  6
CONTINUOUS
 66
     1
 10
0.0
 20
0.0
 30
0.0
  0
VERTEX
  5
A23
  8
0
  6
CONTINUOUS
 10
-24.508859415
 20
-2.6723387066000011
 30
0.0
  0
VERTEX
  5
A24
  8
0
  6
CONTINUOUS
 10
-24.5095437877
 20
-2.6718760796999979
 30
0.0
  0
VERTEX
  5
A25
  8
0
  6
CONTINUOUS
 10
-24.5108683234
 20
-2.66817506480001
 30
0.0
  0
VERTEX
  5
A26
  8
0
  6
CONTINUOUS
 10
-24.5121457304
 20
-2.6605286911999988
 30
0.0
  0
VERTEX
  5
A27
  8
0
  6
CONTINUOUS
 10
-24.513378927600002
 20
-2.6491813027000002
 30
0.0
  0
VERTEX
  5
A28
  8
0
  6
CONTINUOUS
 10
-24.514488251300001
 20
-2.6348659307000011
 30
0.0
  0
VERTEX
  5
A29
  8
0
  6
CONTINUOUS
 10
-24.5154655236
 20
-2.6173866265999939
 30
0.0
  0
VERTEX
  5
A2A
  8
0
  6
CONTINUOUS
 10
-24.516318922500002
 20
-2.5969393391000031
 30
0.0
  0
VERTEX
  5
A2B
  8
0
  6
CONTINUOUS
 10
-24.516993319200001
 20
-2.5748449449999948
 30
0.0
  0
VERTEX
  5
A2C
  8
0
  6
CONTINUOUS
 10
-24.517470337500001
 20
-2.5515437365000082
 30
0.0
  0
VERTEX
  5
A2D
  8
0
  6
CONTINUOUS
 10
-24.517768353600001
 20
-2.526595421500005
 30
0.0
  0
VERTEX
  5
A2E
  8
0
  6
CONTINUOUS
 10
-24.5178873676
 20
-2.5
 30
0.0
  0
SEQEND
  5
A2F
  8
0
  6
CONTINUOUS
  0
POLYLINE
  5
53B
  8
0
  6
CONTINUOUS
 66
     1
 10
0.0
 20
0.0
 30
0.0
  0
VERTEX
  5
A30
  8
0
  6
CONTINUOUS
 10
-24.508859415
 20
-2.3276612932999958
 30
0.0
  0
VERTEX
  5
A31
  8
0
  6
CONTINUOUS
 10
-24.508175042200001
 20
-2.3281239202000128
 30
0.0
  0
VERTEX
  5
A32
  8
0
  6
CONTINUOUS
 10
-24.506850506500001
 20
-2.3318249351000011
 30
0.0
  0
VERTEX
  5
A33
  8
0
  6
CONTINUOUS
 10
-24.505573099500001
 20
-2.3394713086999981
 30
0.0
  0
VERTEX
  5
A34
  8
0
  6
CONTINUOUS
 10
-24.504339902400002
 20
-2.3508186972000109
 30
0.0
  0
VERTEX
  5
A35
  8
0
  6
CONTINUOUS
 10
-24.5032305786
 20
-2.3651340691999958
 30
0.0
  0
VERTEX
  5
A36
  8
0
  6
CONTINUOUS
 10
-24.5022533064
 20
-2.382613373300003
 30
0.0
  0
VERTEX
  5
A37
  8
0
  6
CONTINUOUS
 10
-24.501399907500002
 20
-2.403060660800008
 30
0.0
  0
VERTEX
  5
A38
  8
0
  6
CONTINUOUS
 10
-24.500725510700001
 20
-2.4251550550000038
 30
0.0
  0
VERTEX
  5
A39
  8
0
  6
CONTINUOUS
 10
-24.500248492400001
 20
-2.4484562634000042
 30
0.0
  0
VERTEX
  5
A3A
  8
0
  6
CONTINUOUS
 10
-24.4999504763
 20
-2.4734045784000069
 30
0.0
  0
VERTEX
  5
A3B
  8
0
  6
CONTINUOUS
 10
-24.4998314624
 20
-2.5
 30
0.0
  0
SEQEND
  5
A3C
  8
0
  6
CONTINUOUS
  0
LINE
  5
53C
  8
0
  6
CONTINUOUS
 10
-13.397500000000001
 20
8.8684999999999974
 30
0.0
 11
-13.397500000000001
 21
3.089500000000001
 31
0.0
  0
LINE
  5
53D
  8
0
  6
CONTINUOUS
 10
-13.397500000000001
 20
2.8894999999999982
 30
0.0
 11
-13.397500000000001
 21
-2.8894999999999982
 31
0.0
  0
LINE
  5
53E
  8
0
  6
CONTINUOUS
 10
-13.397500000000001
 20
-3.089500000000001
 30
0.0
 11
-13.397500000000001
 21
-8.8685000000000045
 31
0.0
  0
LINE
  5
53F
  8
0
  6
CONTINUOUS
 10
-13.1975
 20
8.8684999999999974
 30
0.0
 11
-13.1975
 21
3.089500000000001
 31
0.0
  0
LINE
  5
540
  8
0
  6
CONTINUOUS
 10
-13.1975
 20
2.8894999999999982
 30
0.0
 11
-13.1975
 21
-2.8894999999999982
 31
0.0
  0
LINE
  5
541
  8
0
  6
CONTINUOUS
 10
-13.1975
 20
-3.089500000000001
 30
0.0
 11
-13.1975
 21
-8.8685000000000045
 31
0.0
  0
POLYLINE
  5
542
  8
0
  6
CONTINUOUS
 66
     1
 10
0.0
 20
0.0
 30
0.0
  0
VERTEX
  5
A3D
  8
0
  6
CONTINUOUS
 10
-19.672338706600002
 20
-11.383417983899999
 30
0.0
  0
VERTEX
  5
A3E
  8
0
  6
CONTINUOUS
 10
-19.671876079699999
 20
-11.382278378700001
 30
0.0
  0
VERTEX
  5
A3F
  8
0
  6
CONTINUOUS
 10
-19.6681750648
 20
-11.380072785799999
 30
0.0
  0
VERTEX
  5
A40
  8
0
  6
CONTINUOUS
 10
-19.6605286912
 20
-11.377945670800001
 30
0.0
  0
VERTEX
  5
A41
  8
0
  6
CONTINUOUS
 10
-19.649181302700001
 20
-11.375892173200009
 30
0.0
  0
VERTEX
  5
A42
  8
0
  6
CONTINUOUS
 10
-19.634865930699998
 20
-11.37404494730001
 30
0.0
  0
VERTEX
  5
A43
  8
0
  6
CONTINUOUS
 10
-19.617386626599998
 20
-11.372417611199999
 30
0.0
  0
VERTEX
  5
A44
  8
0
  6
CONTINUOUS
 10
-19.5969393391
 20
-11.370996546800001
 30
0.0
  0
VERTEX
  5
A45
  8
0
  6
CONTINUOUS
 10
-19.574844944900001
 20
-11.36987355360001
 30
0.0
  0
VERTEX
  5
A46
  8
0
  6
CONTINUOUS
 10
-19.551543736500001
 20
-11.369079231300001
 30
0.0
  0
VERTEX
  5
A47
  8
0
  6
CONTINUOUS
 10
-19.526595421500001
 20
-11.36858298029999
 30
0.0
  0
VERTEX
  5
A48
  8
0
  6
CONTINUOUS
 10
-19.5
 20
-11.368384800399999
 30
0.0
  0
SEQEND
  5
A49
  8
0
  6
CONTINUOUS
  0
POLYLINE
  5
543
  8
0
  6
CONTINUOUS
 66
     1
 10
0.0
 20
0.0
 30
0.0
  0
VERTEX
  5
A4A
  8
0
  6
CONTINUOUS
 10
-19.3276612933
 20
-11.383417983899999
 30
0.0
  0
VERTEX
  5
A4B
  8
0
  6
CONTINUOUS
 10
-19.328123920199999
 20
-11.384557589000011
 30
0.0
  0
VERTEX
  5
A4C
  8
0
  6
CONTINUOUS
 10
-19.331824935099998
 20
-11.38676318190001
 30
0.0
  0
VERTEX
  5
A4D
  8
0
  6
CONTINUOUS
 10
-19.339471308699999
 20
-11.388890297
 30
0.0
  0
VERTEX
  5
A4E
  8
0
  6
CONTINUOUS
 10
-19.350818697200001
 20
-11.3909437945
 30
0.0
  0
VERTEX
  5
A4F
  8
0
  6
CONTINUOUS
 10
-19.3651340692
 20
-11.392791020500001
 30
0.0
  0
VERTEX
  5
A50
  8
0
  6
CONTINUOUS
 10
-19.3826133733
 20
-11.394418356499999
 30
0.0
  0
VERTEX
  5
A51
  8
0
  6
CONTINUOUS
 10
-19.403060660800001
 20
-11.3958394209
 30
0.0
  0
VERTEX
  5
A52
  8
0
  6
CONTINUOUS
 10
-19.425155055000001
 20
-11.396962414200001
 30
0.0
  0
VERTEX
  5
A53
  8
0
  6
CONTINUOUS
 10
-19.448456263400001
 20
-11.3977567364
 30
0.0
  0
VERTEX
  5
A54
  8
0
  6
CONTINUOUS
 10
-19.4734045784
 20
-11.398252987499999
 30
0.0
  0
VERTEX
  5
A55
  8
0
  6
CONTINUOUS
 10
-19.5
 20
-11.398451167399999
 30
0.0
  0
SEQEND
  5
A56
  8
0
  6
CONTINUOUS
  0
POLYLINE
  5
544
  8
0
  6
CONTINUOUS
 66
     1
 10
0.0
 20
0.0
 30
0.0
  0
VERTEX
  5
A57
  8
0
  6
CONTINUOUS
 10
-9.9223387066000015
 20
11.17198428189999
 30
0.0
  0
VERTEX
  5
A58
  8
0
  6
CONTINUOUS
 10
-9.9218760796999987
 20
11.173123887099999
 30
0.0
  0
VERTEX
  5
A59
  8
0
  6
CONTINUOUS
 10
-9.9181750647999998
 20
11.1753294799
 30
0.0
  0
VERTEX
  5
A5A
  8
0
  6
CONTINUOUS
 10
-9.9105286911999997
 20
11.17745659499999
 30
0.0
  0
VERTEX
  5
A5B
  8
0
  6
CONTINUOUS
 10
-9.8991813027000006
 20
11.179510092599999
 30
0.0
  0
VERTEX
  5
A5C
  8
0
  6
CONTINUOUS
 10
-9.8848659307000002
 20
11.181357318499989
 30
0.0
  0
VERTEX
  5
A5D
  8
0
  6
CONTINUOUS
 10
-9.8673866266000019
 20
11.18298465449999
 30
0.0
  0
VERTEX
  5
A5E
  8
0
  6
CONTINUOUS
 10
-9.8469393391000004
 20
11.18440571889999
 30
0.0
  0
VERTEX
  5
A5F
  8
0
  6
CONTINUOUS
 10
-9.8248449449000006
 20
11.185528712199989
 30
0.0
  0
VERTEX
  5
A60
  8
0
  6
CONTINUOUS
 10
-9.8015437365000011
 20
11.18632303439999
 30
0.0
  0
VERTEX
  5
A61
  8
0
  6
CONTINUOUS
 10
-9.7765954215000015
 20
11.18681928549999
 30
0.0
  0
VERTEX
  5
A62
  8
0
  6
CONTINUOUS
 10
-9.75
 20
11.1870174654
 30
0.0
  0
SEQEND
  5
A63
  8
0
  6
CONTINUOUS
  0
POLYLINE
  5
545
  8
0
  6
CONTINUOUS
 66
     1
 10
0.0
 20
0.0
 30
0.0
  0
VERTEX
  5
A64
  8
0
  6
CONTINUOUS
 10
-9.5776612933000003
 20
11.17198428189999
 30
0.0
  0
VERTEX
  5
A65
  8
0
  6
CONTINUOUS
 10
-9.5781239201999995
 20
11.1708446767
 30
0.0
  0
VERTEX
  5
A66
  8
0
  6
CONTINUOUS
 10
-9.5818249351000002
 20
11.1686390838
 30
0.0
  0
VERTEX
  5
A67
  8
0
  6
CONTINUOUS
 10
-9.5894713086999985
 20
11.166511968799989
 30
0.0
  0
VERTEX
  5
A68
  8
0
  6
CONTINUOUS
 10
-9.6008186972000011
 20
11.164458471199991
 30
0.0
  0
VERTEX
  5
A69
  8
0
  6
CONTINUOUS
 10
-9.6151340691999998
 20
11.162611245300001
 30
0.0
  0
VERTEX
  5
A6A
  8
0
  6
CONTINUOUS
 10
-9.6326133732999981
 20
11.1609839092
 30
0.0
  0
VERTEX
  5
A6B
  8
0
  6
CONTINUOUS
 10
-9.6530606608000014
 20
11.159562844799989
 30
0.0
  0
VERTEX
  5
A6C
  8
0
  6
CONTINUOUS
 10
-9.6751550550000012
 20
11.15843985159999
 30
0.0
  0
VERTEX
  5
A6D
  8
0
  6
CONTINUOUS
 10
-9.6984562634000007
 20
11.157645529299989
 30
0.0
  0
VERTEX
  5
A6E
  8
0
  6
CONTINUOUS
 10
-9.7234045784000003
 20
11.1571492783
 30
0.0
  0
VERTEX
  5
A6F
  8
0
  6
CONTINUOUS
 10
-9.75
 20
11.1569510984
 30
0.0
  0
SEQEND
  5
A70
  8
0
  6
CONTINUOUS
  0
POLYLINE
  5
546
  8
0
  6
CONTINUOUS
 66
     1
 10
0.0
 20
0.0
 30
0.0
  0
VERTEX
  5
A71
  8
0
  6
CONTINUOUS
 10
-29.956628606900001
 20
-12.927484546500009
 30
0.0
  0
VERTEX
  5
A72
  8
0
  6
CONTINUOUS
 10
-30.0883388538
 20
-12.923592062499999
 30
0.0
  0
VERTEX
  5
A73
  8
0
  6
CONTINUOUS
 10
-30.218038981500001
 20
-12.91221527940001
 30
0.0
  0
VERTEX
  5
A74
  8
0
  6
CONTINUOUS
 10
-30.345288869099999
 20
-12.893499781999999
 30
0.0
  0
VERTEX
  5
A75
  8
0
  6
CONTINUOUS
 10
-30.469839894700002
 20
-12.867512229200001
 30
0.0
  0
VERTEX
  5
A76
  8
0
  6
CONTINUOUS
 10
-30.591087225799999
 20
-12.834487623999999
 30
0.0
  0
VERTEX
  5
A77
  8
0
  6
CONTINUOUS
 10
-30.7081322883
 20
-12.794945662
 30
0.0
  0
VERTEX
  5
A78
  8
0
  6
CONTINUOUS
 10
-30.820467029300001
 20
-12.749315938800001
 30
0.0
  0
VERTEX
  5
A79
  8
0
  6
CONTINUOUS
 10
-30.927876355199999
 20
-12.6978327742
 30
0.0
  0
VERTEX
  5
A7A
  8
0
  6
CONTINUOUS
 10
-31.0300089391
 20
-12.6408410659
 30
0.0
  0
SEQEND
  5
A7B
  8
0
  6
CONTINUOUS
  0
LINE
  5
547
  8
0
  6
CONTINUOUS
 10
-10.442500000000001
 20
8.8684999999999974
 30
0.0
 11
-10.442500000000001
 21
3.089500000000001
 31
0.0
  0
LINE
  5
548
  8
0
  6
CONTINUOUS
 10
-10.442500000000001
 20
2.8894999999999982
 30
0.0
 11
-10.442500000000001
 21
-2.8894999999999982
 31
0.0
  0
LINE
  5
549
  8
0
  6
CONTINUOUS
 10
-10.442500000000001
 20
-3.089500000000001
 30
0.0
 11
-10.442500000000001
 21
-8.8685000000000045
 31
0.0
  0
LINE
  5
54A
  8
0
  6
CONTINUOUS
 10
-10.2425
 20
8.8684999999999974
 30
0.0
 11
-10.2425
 21
3.089500000000001
 31
0.0
  0
LINE
  5
54B
  8
0
  6
CONTINUOUS
 10
-10.2425
 20
2.8894999999999982
 30
0.0
 11
-10.2425
 21
-2.8894999999999982
 31
0.0
  0
LINE
  5
54C
  8
0
  6
CONTINUOUS
 10
-10.2425
 20
-3.089500000000001
 30
0.0
 11
-10.2425
 21
-8.8685000000000045
 31
0.0
  0
POLYLINE
  5
54D
  8
0
  6
CONTINUOUS
 66
     1
 10
0.0
 20
0.0
 30
0.0
  0
VERTEX
  5
A7C
  8
0
  6
CONTINUOUS
 10
-16.422338706600002
 20
-11.1719842818
 30
0.0
  0
VERTEX
  5
A7D
  8
0
  6
CONTINUOUS
 10
-16.421876079699999
 20
-11.1708446766
 30
0.0
  0
VERTEX
  5
A7E
  8
0
  6
CONTINUOUS
 10
-16.4181750648
 20
-11.1686390838
 30
0.0
  0
VERTEX
  5
A7F
  8
0
  6
CONTINUOUS
 10
-16.4105286912
 20
-11.1665119687
 30
0.0
  0
VERTEX
  5
A80
  8
0
  6
CONTINUOUS
 10
-16.399181302700001
 20
-11.1644584711
 30
0.0
  0
VERTEX
  5
A81
  8
0
  6
CONTINUOUS
 10
-16.384865930699998
 20
-11.162611245200001
 30
0.0
  0
VERTEX
  5
A82
  8
0
  6
CONTINUOUS
 10
-16.367386626599998
 20
-11.1609839091
 30
0.0
  0
VERTEX
  5
A83
  8
0
  6
CONTINUOUS
 10
-16.3469393391
 20
-11.1595628447
 30
0.0
  0
VERTEX
  5
A84
  8
0
  6
CONTINUOUS
 10
-16.324844944900001
 20
-11.158439851500001
 30
0.0
  0
VERTEX
  5
A85
  8
0
  6
CONTINUOUS
 10
-16.301543736500001
 20
-11.1576455293
 30
0.0
  0
VERTEX
  5
A86
  8
0
  6
CONTINUOUS
 10
-16.276595421500001
 20
-11.157149278200009
 30
0.0
  0
VERTEX
  5
A87
  8
0
  6
CONTINUOUS
 10
-16.25
 20
-11.1569510983
 30
0.0
  0
SEQEND
  5
A88
  8
0
  6
CONTINUOUS
  0
POLYLINE
  5
54E
  8
0
  6
CONTINUOUS
 66
     1
 10
0.0
 20
0.0
 30
0.0
  0
VERTEX
  5
A89
  8
0
  6
CONTINUOUS
 10
-16.0776612933
 20
-11.1719842818
 30
0.0
  0
VERTEX
  5
A8A
  8
0
  6
CONTINUOUS
 10
-16.078123920199999
 20
-11.173123886999999
 30
0.0
  0
VERTEX
  5
A8B
  8
0
  6
CONTINUOUS
 10
-16.081824935099998
 20
-11.1753294798
 30
0.0
  0
VERTEX
  5
A8C
  8
0
  6
CONTINUOUS
 10
-16.089471308699999
 20
-11.177456594900001
 30
0.0
  0
VERTEX
  5
A8D
  8
0
  6
CONTINUOUS
 10
-16.100818697200001
 20
-11.179510092499999
 30
0.0
  0
VERTEX
  5
A8E
  8
0
  6
CONTINUOUS
 10
-16.1151340692
 20
-11.1813573184
 30
0.0
  0
VERTEX
  5
A8F
  8
0
  6
CONTINUOUS
 10
-16.1326133733
 20
-11.1829846545
 30
0.0
  0
VERTEX
  5
A90
  8
0
  6
CONTINUOUS
 10
-16.153060660800001
 20
-11.184405718900001
 30
0.0
  0
VERTEX
  5
A91
  8
0
  6
CONTINUOUS
 10
-16.175155055000001
 20
-11.1855287121
 30
0.0
  0
VERTEX
  5
A92
  8
0
  6
CONTINUOUS
 10
-16.198456263400001
 20
-11.186323034300001
 30
0.0
  0
VERTEX
  5
A93
  8
0
  6
CONTINUOUS
 10
-16.2234045784
 20
-11.1868192854
 30
0.0
  0
VERTEX
  5
A94
  8
0
  6
CONTINUOUS
 10
-16.25
 20
-11.1870174653
 30
0.0
  0
SEQEND
  5
A95
  8
0
  6
CONTINUOUS
  0
POLYLINE
  5
54F
  8
0
  6
CONTINUOUS
 66
     1
 10
0.0
 20
0.0
 30
0.0
  0
VERTEX
  5
A96
  8
0
  6
CONTINUOUS
 10
-6.6723387066000006
 20
11.38341798389999
 30
0.0
  0
VERTEX
  5
A97
  8
0
  6
CONTINUOUS
 10
-6.6718760796999979
 20
11.3845575891
 30
0.0
  0
VERTEX
  5
A98
  8
0
  6
CONTINUOUS
 10
-6.6681750647999989
 20
11.38676318199999
 30
0.0
  0
VERTEX
  5
A99
  8
0
  6
CONTINUOUS
 10
-6.6605286911999988
 20
11.388890296999991
 30
0.0
  0
VERTEX
  5
A9A
  8
0
  6
CONTINUOUS
 10
-6.6491813026999997
 20
11.390943794599989
 30
0.0
  0
VERTEX
  5
A9B
  8
0
  6
CONTINUOUS
 10
-6.6348659307000011
 20
11.392791020500001
 30
0.0
  0
VERTEX
  5
A9C
  8
0
  6
CONTINUOUS
 10
-6.617386626600001
 20
11.394418356599999
 30
0.0
  0
VERTEX
  5
A9D
  8
0
  6
CONTINUOUS
 10
-6.5969393391000004
 20
11.395839420999989
 30
0.0
  0
VERTEX
  5
A9E
  8
0
  6
CONTINUOUS
 10
-6.5748449448999997
 20
11.39696241429999
 30
0.0
  0
VERTEX
  5
A9F
  8
0
  6
CONTINUOUS
 10
-6.5515437365000011
 20
11.3977567365
 30
0.0
  0
VERTEX
  5
AA0
  8
0
  6
CONTINUOUS
 10
-6.5265954214999971
 20
11.398252987499999
 30
0.0
  0
VERTEX
  5
AA1
  8
0
  6
CONTINUOUS
 10
-6.5
 20
11.398451167399999
 30
0.0
  0
SEQEND
  5
AA2
  8
0
  6
CONTINUOUS
  0
POLYLINE
  5
550
  8
0
  6
CONTINUOUS
 66
     1
 10
0.0
 20
0.0
 30
0.0
  0
VERTEX
  5
AA3
  8
0
  6
CONTINUOUS
 10
-6.3276612933000003
 20
11.38341798389999
 30
0.0
  0
VERTEX
  5
AA4
  8
0
  6
CONTINUOUS
 10
-6.3281239201999986
 20
11.38227837879999
 30
0.0
  0
VERTEX
  5
AA5
  8
0
  6
CONTINUOUS
 10
-6.3318249351000011
 20
11.380072785899991
 30
0.0
  0
VERTEX
  5
AA6
  8
0
  6
CONTINUOUS
 10
-6.3394713086999976
 20
11.377945670800001
 30
0.0
  0
VERTEX
  5
AA7
  8
0
  6
CONTINUOUS
 10
-6.3508186972000011
 20
11.3758921733
 30
0.0
  0
VERTEX
  5
AA8
  8
0
  6
CONTINUOUS
 10
-6.3651340691999989
 20
11.374044947299989
 30
0.0
  0
VERTEX
  5
AA9
  8
0
  6
CONTINUOUS
 10
-6.382613373299999
 20
11.372417611299991
 30
0.0
  0
VERTEX
  5
AAA
  8
0
  6
CONTINUOUS
 10
-6.4030606608000014
 20
11.37099654689999
 30
0.0
  0
VERTEX
  5
AAB
  8
0
  6
CONTINUOUS
 10
-6.4251550550000012
 20
11.36987355359998
 30
0.0
  0
VERTEX
  5
AAC
  8
0
  6
CONTINUOUS
 10
-6.4484562633999998
 20
11.36907923139999
 30
0.0
  0
VERTEX
  5
AAD
  8
0
  6
CONTINUOUS
 10
-6.4734045784000003
 20
11.36858298029999
 30
0.0
  0
VERTEX
  5
AAE
  8
0
  6
CONTINUOUS
 10
-6.5
 20
11.368384800399991
 30
0.0
  0
SEQEND
  5
AAF
  8
0
  6
CONTINUOUS
  0
POLYLINE
  5
551
  8
0
  6
CONTINUOUS
 66
     1
 10
0.0
 20
0.0
 30
0.0
  0
VERTEX
  5
AB0
  8
0
  6
CONTINUOUS
 10
4.0429719392000001
 20
-12.2249141689
 30
0.0
  0
VERTEX
  5
AB1
  8
0
  6
CONTINUOUS
 10
4.0133309188000013
 20
-12.2291027422
 30
0.0
  0
VERTEX
  5
AB2
  8
0
  6
CONTINUOUS
 10
4.0052318859000016
 20
-12.2304903933
 30
0.0
  0
SEQEND
  5
AB3
  8
0
  6
CONTINUOUS
  0
POLYLINE
  5
552
  8
0
  6
CONTINUOUS
 66
     1
 10
0.0
 20
0.0
 30
0.0
  0
VERTEX
  5
AB4
  8
0
  6
CONTINUOUS
 10
4.0229199416999961
 20
-12.228877672799999
 30
0.0
  0
VERTEX
  5
AB5
  8
0
  6
CONTINUOUS
 10
3.9975327690999971
 20
-12.2326534627
 30
0.0
  0
VERTEX
  5
AB6
  8
0
  6
CONTINUOUS
 10
3.9687817893999968
 20
-12.236059558899999
 30
0.0
  0
VERTEX
  5
AB7
  8
0
  6
CONTINUOUS
 10
3.936536119199999
 20
-12.2390455079
 30
0.0
  0
VERTEX
  5
AB8
  8
0
  6
CONTINUOUS
 10
3.900926641899999
 20
-12.2416617634
 30
0.0
  0
SEQEND
  5
AB9
  8
0
  6
CONTINUOUS
  0
POLYLINE
  5
553
  8
0
  6
CONTINUOUS
 66
     1
 10
0.0
 20
0.0
 30
0.0
  0
VERTEX
  5
ABA
  8
0
  6
CONTINUOUS
 10
-4.0229199416000014
 20
-12.18841891400001
 30
0.0
  0
VERTEX
  5
ABB
  8
0
  6
CONTINUOUS
 10
-3.9975327689999989
 20
-12.184643124200001
 30
0.0
  0
VERTEX
  5
ABC
  8
0
  6
CONTINUOUS
 10
-3.968781789299999
 20
-12.1812370279
 30
0.0
  0
VERTEX
  5
ABD
  8
0
  6
CONTINUOUS
 10
-3.9365361191000008
 20
-12.178251078900001
 30
0.0
  0
VERTEX
  5
ABE
  8
0
  6
CONTINUOUS
 10
-3.9009266417999982
 20
-12.175634823399999
 30
0.0
  0
VERTEX
  5
ABF
  8
0
  6
CONTINUOUS
 10
-3.864317375399998
 20
-12.1734188799
 30
0.0
  0
VERTEX
  5
AC0
  8
0
  6
CONTINUOUS
 10
-3.8270023243
 20
-12.1716365047
 30
0.0
  0
SEQEND
  5
AC1
  8
0
  6
CONTINUOUS
  0
LINE
  5
554
  8
0
  6
CONTINUOUS
 10
3.9956463868000038
 20
-12.231945036300001
 30
0.0
 11
3.9845577754999999
 21
-12.2334410487
 31
0.0
  0
POLYLINE
  5
555
  8
0
  6
CONTINUOUS
 66
     1
 10
0.0
 20
0.0
 30
0.0
  0
VERTEX
  5
AC2
  8
0
  6
CONTINUOUS
 10
4.0302625707000033
 20
-12.22527806730001
 30
0.0
  0
VERTEX
  5
AC3
  8
0
  6
CONTINUOUS
 10
4.0302231714999968
 20
-12.2252828592
 30
0.0
  0
VERTEX
  5
AC4
  8
0
  6
CONTINUOUS
 10
4.0285641262999974
 20
-12.225777370799999
 30
0.0
  0
VERTEX
  5
AC5
  8
0
  6
CONTINUOUS
 10
4.0249311180999987
 20
-12.226708665
 30
0.0
  0
VERTEX
  5
AC6
  8
0
  6
CONTINUOUS
 10
4.0198301272000023
 20
-12.2278400391
 30
0.0
  0
SEQEND
  5
AC7
  8
0
  6
CONTINUOUS
  0
LINE
  5
556
  8
0
  6
CONTINUOUS
 10
3.9718647971999981
 20
-12.234966366100011
 30
0.0
 11
3.9575274916999978
 21
-12.23650136940001
 31
0.0
  0
LINE
  5
557
  8
0
  6
CONTINUOUS
 10
3.9415092666999949
 20
-12.23802764650001
 30
0.0
 11
3.9237504971000021
 21
-12.2395296562
 31
0.0
  0
POLYLINE
  5
558
  8
0
  6
CONTINUOUS
 66
     1
 10
0.0
 20
0.0
 30
0.0
  0
VERTEX
  5
AC8
  8
0
  6
CONTINUOUS
 10
4.0691455123999978
 20
-12.2120793521
 30
0.0
  0
VERTEX
  5
AC9
  8
0
  6
CONTINUOUS
 10
4.0566016660999997
 20
-12.213081107500001
 30
0.0
  0
VERTEX
  5
ACA
  8
0
  6
CONTINUOUS
 10
4.0443782110000006
 20
-12.2160607875
 30
0.0
  0
VERTEX
  5
ACB
  8
0
  6
CONTINUOUS
 10
4.0327873558999983
 20
-12.2209422862
 30
0.0
  0
VERTEX
  5
ACC
  8
0
  6
CONTINUOUS
 10
4.0227953744999994
 20
-12.227182362200001
 30
0.0
  0
SEQEND
  5
ACD
  8
0
  6
CONTINUOUS
  0
POLYLINE
  5
559
  8
0
  6
CONTINUOUS
 66
     1
 10
0.0
 20
0.0
 30
0.0
  0
VERTEX
  5
ACE
  8
0
  6
CONTINUOUS
 10
4.0691455123999978
 20
-12.20521723480001
 30
0.0
  0
VERTEX
  5
ACF
  8
0
  6
CONTINUOUS
 10
4.0566016644999996
 20
-12.2062189905
 30
0.0
  0
VERTEX
  5
AD0
  8
0
  6
CONTINUOUS
 10
4.0443782086999951
 20
-12.209198670999999
 30
0.0
  0
VERTEX
  5
AD1
  8
0
  6
CONTINUOUS
 10
4.0327873538000034
 20
-12.214080169900001
 30
0.0
  0
VERTEX
  5
AD2
  8
0
  6
CONTINUOUS
 10
4.0221251508
 20
-12.220738805200011
 30
0.0
  0
VERTEX
  5
AD3
  8
0
  6
CONTINUOUS
 10
4.0126639311999952
 20
-12.229004503500009
 30
0.0
  0
VERTEX
  5
AD4
  8
0
  6
CONTINUOUS
 10
4.0124583165999956
 20
-12.2292522499
 30
0.0
  0
SEQEND
  5
AD5
  8
0
  6
CONTINUOUS
  0
LINE
  5
55A
  8
0
  6
CONTINUOUS
 10
3.9041539815000021
 20
-12.240994115099999
 30
0.0
 11
3.8827007268000031
 21
-12.242400910300001
 31
0.0
  0
LINE
  5
55B
  8
0
  6
CONTINUOUS
 10
3.900926641899999
 20
-12.2416617634
 30
0.0
 11
3.8593679272999988
 21
-12.243730554100001
 31
0.0
  0
LINE
  5
55C
  8
0
  6
CONTINUOUS
 10
3.8643173755000002
 20
-12.243877706999999
 30
0.0
 11
3.8270023243999982
 21
-12.245660082100001
 31
0.0
  0
LINE
  5
55D
  8
0
  6
CONTINUOUS
 10
3.8340421322999978
 20
-12.2449673508
 30
0.0
 11
3.8067554718000021
 21
-12.246086565000001
 31
0.0
  0
POLYLINE
  5
55E
  8
0
  6
CONTINUOUS
 66
     1
 10
0.0
 20
0.0
 30
0.0
  0
VERTEX
  5
AD6
  8
0
  6
CONTINUOUS
 10
-3.8270023243
 20
-12.1716365047
 30
0.0
  0
VERTEX
  5
AD7
  8
0
  6
CONTINUOUS
 10
-3.7886874842
 20
-12.17025444150001
 30
0.0
  0
VERTEX
  5
AD8
  8
0
  6
CONTINUOUS
 10
-3.7508548595000022
 20
-12.1692035392
 30
0.0
  0
VERTEX
  5
AD9
  8
0
  6
CONTINUOUS
 10
-3.713998451999998
 20
-12.168460747399999
 30
0.0
  0
VERTEX
  5
ADA
  8
0
  6
CONTINUOUS
 10
-3.6776242598999991
 20
-12.168049116400001
 30
0.0
  0
SEQEND
  5
ADB
  8
0
  6
CONTINUOUS
  0
LINE
  5
55F
  8
0
  6
CONTINUOUS
 10
3.8270023243999982
 20
-12.245660082100001
 30
0.0
 11
3.7775457254000031
 21
-12.247063627599999
 31
0.0
  0
LINE
  5
560
  8
0
  6
CONTINUOUS
 10
3.7886874842999978
 20
-12.2470421453
 30
0.0
 11
3.746319275099999
 21
-12.247876596199999
 31
0.0
  0
POLYLINE
  5
561
  8
0
  6
CONTINUOUS
 66
     1
 10
0.0
 20
0.0
 30
0.0
  0
VERTEX
  5
ADC
  8
0
  6
CONTINUOUS
 10
3.750854859599996
 20
-12.248093047599999
 30
0.0
  0
VERTEX
  5
ADD
  8
0
  6
CONTINUOUS
 10
3.7139984520999998
 20
-12.248835839400011
 30
0.0
  0
VERTEX
  5
ADE
  8
0
  6
CONTINUOUS
 10
3.6776242600000009
 20
-12.2492474704
 30
0.0
  0
SEQEND
  5
ADF
  8
0
  6
CONTINUOUS
  0
POLYLINE
  5
562
  8
0
  6
CONTINUOUS
 66
     1
 10
0.0
 20
0.0
 30
0.0
  0
VERTEX
  5
AE0
  8
0
  6
CONTINUOUS
 10
29.956628606900001
 20
-12.361449670000001
 30
0.0
  0
VERTEX
  5
AE1
  8
0
  6
CONTINUOUS
 10
30.054603007400001
 20
-12.360501659200001
 30
0.0
  0
VERTEX
  5
AE2
  8
0
  6
CONTINUOUS
 10
30.150826933400001
 20
-12.3544189384
 30
0.0
  0
VERTEX
  5
AE3
  8
0
  6
CONTINUOUS
 10
30.245020936700001
 20
-12.34334253350001
 30
0.0
  0
VERTEX
  5
AE4
  8
0
  6
CONTINUOUS
 10
30.337108507699991
 20
-12.3274213789
 30
0.0
  0
VERTEX
  5
AE5
  8
0
  6
CONTINUOUS
 10
30.426644902100001
 20
-12.306829860700001
 30
0.0
  0
VERTEX
  5
AE6
  8
0
  6
CONTINUOUS
 10
30.512833111399999
 20
-12.28182298110001
 30
0.0
  0
VERTEX
  5
AE7
  8
0
  6
CONTINUOUS
 10
30.595285345400001
 20
-12.252679425200011
 30
0.0
  0
VERTEX
  5
AE8
  8
0
  6
CONTINUOUS
 10
30.674007740900009
 20
-12.2196427426
 30
0.0
  0
VERTEX
  5
AE9
  8
0
  6
CONTINUOUS
 10
30.7488389349
 20
-12.182978176000001
 30
0.0
  0
SEQEND
  5
AEA
  8
0
  6
CONTINUOUS
  0
LINE
  5
563
  8
0
  6
CONTINUOUS
 10
29.956628606900001
 20
-12.9288164203
 30
0.0
 11
-29.9569593947
 21
-12.9288164203
 31
0.0
  0
LINE
  5
564
  8
0
  6
CONTINUOUS
 10
-29.956628606799999
 20
-12.361449670000001
 30
0.0
 11
29.956628606900001
 21
-12.361449670000001
 31
0.0
  0
LINE
  5
565
  8
0
  6
CONTINUOUS
 10
3.678194245100002
 20
-12.24889034310001
 30
0.0
 11
-3.6417322833999992
 21
-12.249327940500001
 31
0.0
  0
LINE
  5
566
  8
0
  6
CONTINUOUS
 10
-3.6776242598999991
 20
-12.168049116400001
 30
0.0
 11
3.641732283499997
 21
-12.1679686464
 31
0.0
  0
LINE
  5
567
  8
0
  6
CONTINUOUS
 10
23.2700537389
 20
-11.069363984300001
 30
0.0
 11
-23.270053738800001
 21
-11.069363984300001
 31
0.0
  0
POLYLINE
  5
568
  8
0
  6
CONTINUOUS
 66
     1
 10
0.0
 20
0.0
 30
0.0
  0
VERTEX
  5
AEB
  8
0
  6
CONTINUOUS
 10
-3.6417322833999992
 20
-12.2490283576
 30
0.0
  0
VERTEX
  5
AEC
  8
0
  6
CONTINUOUS
 10
-3.6929777598999989
 20
-12.2490325624
 30
0.0
  0
VERTEX
  5
AED
  8
0
  6
CONTINUOUS
 10
-3.7420692893000012
 20
-12.24827222980001
 30
0.0
  0
SEQEND
  5
AEE
  8
0
  6
CONTINUOUS
  0
LINE
  5
569
  8
0
  6
CONTINUOUS
 10
3.641732283499997
 20
-12.1679686464
 30
0.0
 11
3.6929777599999971
 21
-12.16826402440001
 31
0.0
  0
POLYLINE
  5
56A
  8
0
  6
CONTINUOUS
 66
     1
 10
0.0
 20
0.0
 30
0.0
  0
VERTEX
  5
AEF
  8
0
  6
CONTINUOUS
 10
-19.5
 20
-11.398451167399999
 30
0.0
  0
VERTEX
  5
AF0
  8
0
  6
CONTINUOUS
 10
-19.526595421500001
 20
-11.398252987499999
 30
0.0
  0
VERTEX
  5
AF1
  8
0
  6
CONTINUOUS
 10
-19.551543736500001
 20
-11.3977567364
 30
0.0
  0
VERTEX
  5
AF2
  8
0
  6
CONTINUOUS
 10
-19.574844944900001
 20
-11.396962414200001
 30
0.0
  0
VERTEX
  5
AF3
  8
0
  6
CONTINUOUS
 10
-19.5969393391
 20
-11.3958394209
 30
0.0
  0
VERTEX
  5
AF4
  8
0
  6
CONTINUOUS
 10
-19.617386626599998
 20
-11.394418356499999
 30
0.0
  0
VERTEX
  5
AF5
  8
0
  6
CONTINUOUS
 10
-19.634865930699998
 20
-11.392791020500001
 30
0.0
  0
VERTEX
  5
AF6
  8
0
  6
CONTINUOUS
 10
-19.649181302700001
 20
-11.3909437945
 30
0.0
  0
VERTEX
  5
AF7
  8
0
  6
CONTINUOUS
 10
-19.6605286912
 20
-11.388890297
 30
0.0
  0
VERTEX
  5
AF8
  8
0
  6
CONTINUOUS
 10
-19.6681750648
 20
-11.38676318190001
 30
0.0
  0
VERTEX
  5
AF9
  8
0
  6
CONTINUOUS
 10
-19.671876079699999
 20
-11.384557589000011
 30
0.0
  0
VERTEX
  5
AFA
  8
0
  6
CONTINUOUS
 10
-19.672338706600002
 20
-11.383417983899999
 30
0.0
  0
SEQEND
  5
AFB
  8
0
  6
CONTINUOUS
  0
POLYLINE
  5
56B
  8
0
  6
CONTINUOUS
 66
     1
 10
0.0
 20
0.0
 30
0.0
  0
VERTEX
  5
AFC
  8
0
  6
CONTINUOUS
 10
-19.5
 20
-11.368384800399999
 30
0.0
  0
VERTEX
  5
AFD
  8
0
  6
CONTINUOUS
 10
-19.4734045784
 20
-11.36858298029999
 30
0.0
  0
VERTEX
  5
AFE
  8
0
  6
CONTINUOUS
 10
-19.448456263400001
 20
-11.369079231300001
 30
0.0
  0
VERTEX
  5
AFF
  8
0
  6
CONTINUOUS
 10
-19.425155055000001
 20
-11.36987355360001
 30
0.0
  0
VERTEX
  5
B00
  8
0
  6
CONTINUOUS
 10
-19.403060660800001
 20
-11.370996546800001
 30
0.0
  0
VERTEX
  5
B01
  8
0
  6
CONTINUOUS
 10
-19.3826133733
 20
-11.372417611199999
 30
0.0
  0
VERTEX
  5
B02
  8
0
  6
CONTINUOUS
 10
-19.3651340692
 20
-11.37404494730001
 30
0.0
  0
VERTEX
  5
B03
  8
0
  6
CONTINUOUS
 10
-19.350818697200001
 20
-11.375892173200009
 30
0.0
  0
VERTEX
  5
B04
  8
0
  6
CONTINUOUS
 10
-19.339471308699999
 20
-11.377945670800001
 30
0.0
  0
VERTEX
  5
B05
  8
0
  6
CONTINUOUS
 10
-19.331824935099998
 20
-11.380072785799999
 30
0.0
  0
VERTEX
  5
B06
  8
0
  6
CONTINUOUS
 10
-19.328123920199999
 20
-11.382278378700001
 30
0.0
  0
VERTEX
  5
B07
  8
0
  6
CONTINUOUS
 10
-19.3276612933
 20
-11.383417983899999
 30
0.0
  0
SEQEND
  5
B08
  8
0
  6
CONTINUOUS
  0
POLYLINE
  5
56C
  8
0
  6
CONTINUOUS
 66
     1
 10
0.0
 20
0.0
 30
0.0
  0
VERTEX
  5
B09
  8
0
  6
CONTINUOUS
 10
-13.0
 20
-11.398451167399999
 30
0.0
  0
VERTEX
  5
B0A
  8
0
  6
CONTINUOUS
 10
-13.0265954215
 20
-11.398252987499999
 30
0.0
  0
VERTEX
  5
B0B
  8
0
  6
CONTINUOUS
 10
-13.051543736499999
 20
-11.3977567364
 30
0.0
  0
VERTEX
  5
B0C
  8
0
  6
CONTINUOUS
 10
-13.074844944900001
 20
-11.396962414200001
 30
0.0
  0
VERTEX
  5
B0D
  8
0
  6
CONTINUOUS
 10
-13.0969393391
 20
-11.3958394209
 30
0.0
  0
VERTEX
  5
B0E
  8
0
  6
CONTINUOUS
 10
-13.1173866266
 20
-11.394418356499999
 30
0.0
  0
VERTEX
  5
B0F
  8
0
  6
CONTINUOUS
 10
-13.1348659307
 20
-11.392791020500001
 30
0.0
  0
VERTEX
  5
B10
  8
0
  6
CONTINUOUS
 10
-13.149181302700001
 20
-11.3909437945
 30
0.0
  0
VERTEX
  5
B11
  8
0
  6
CONTINUOUS
 10
-13.1605286912
 20
-11.388890297
 30
0.0
  0
VERTEX
  5
B12
  8
0
  6
CONTINUOUS
 10
-13.1681750648
 20
-11.38676318190001
 30
0.0
  0
VERTEX
  5
B13
  8
0
  6
CONTINUOUS
 10
-13.171876079700001
 20
-11.384557589000011
 30
0.0
  0
VERTEX
  5
B14
  8
0
  6
CONTINUOUS
 10
-13.1723387066
 20
-11.383417983899999
 30
0.0
  0
SEQEND
  5
B15
  8
0
  6
CONTINUOUS
  0
POLYLINE
  5
56D
  8
0
  6
CONTINUOUS
 66
     1
 10
0.0
 20
0.0
 30
0.0
  0
VERTEX
  5
B16
  8
0
  6
CONTINUOUS
 10
-13.0
 20
-11.368384800399999
 30
0.0
  0
VERTEX
  5
B17
  8
0
  6
CONTINUOUS
 10
-12.9734045784
 20
-11.36858298029999
 30
0.0
  0
VERTEX
  5
B18
  8
0
  6
CONTINUOUS
 10
-12.948456263400001
 20
-11.369079231300001
 30
0.0
  0
VERTEX
  5
B19
  8
0
  6
CONTINUOUS
 10
-12.925155054999999
 20
-11.36987355360001
 30
0.0
  0
VERTEX
  5
B1A
  8
0
  6
CONTINUOUS
 10
-12.9030606608
 20
-11.370996546800001
 30
0.0
  0
VERTEX
  5
B1B
  8
0
  6
CONTINUOUS
 10
-12.8826133733
 20
-11.372417611199999
 30
0.0
  0
VERTEX
  5
B1C
  8
0
  6
CONTINUOUS
 10
-12.8651340692
 20
-11.37404494730001
 30
0.0
  0
VERTEX
  5
B1D
  8
0
  6
CONTINUOUS
 10
-12.850818697199999
 20
-11.375892173200009
 30
0.0
  0
VERTEX
  5
B1E
  8
0
  6
CONTINUOUS
 10
-12.8394713087
 20
-11.377945670800001
 30
0.0
  0
VERTEX
  5
B1F
  8
0
  6
CONTINUOUS
 10
-12.8318249351
 20
-11.380072785799999
 30
0.0
  0
VERTEX
  5
B20
  8
0
  6
CONTINUOUS
 10
-12.828123920199999
 20
-11.382278378700001
 30
0.0
  0
VERTEX
  5
B21
  8
0
  6
CONTINUOUS
 10
-12.8276612933
 20
-11.383417983899999
 30
0.0
  0
SEQEND
  5
B22
  8
0
  6
CONTINUOUS
  0
POLYLINE
  5
56E
  8
0
  6
CONTINUOUS
 66
     1
 10
0.0
 20
0.0
 30
0.0
  0
VERTEX
  5
B23
  8
0
  6
CONTINUOUS
 10
-6.5
 20
-11.398451167399999
 30
0.0
  0
VERTEX
  5
B24
  8
0
  6
CONTINUOUS
 10
-6.5265954214999971
 20
-11.398252987499999
 30
0.0
  0
VERTEX
  5
B25
  8
0
  6
CONTINUOUS
 10
-6.5515437365000011
 20
-11.3977567364
 30
0.0
  0
VERTEX
  5
B26
  8
0
  6
CONTINUOUS
 10
-6.5748449448999997
 20
-11.396962414200001
 30
0.0
  0
VERTEX
  5
B27
  8
0
  6
CONTINUOUS
 10
-6.5969393391000004
 20
-11.3958394209
 30
0.0
  0
VERTEX
  5
B28
  8
0
  6
CONTINUOUS
 10
-6.617386626600001
 20
-11.394418356499999
 30
0.0
  0
VERTEX
  5
B29
  8
0
  6
CONTINUOUS
 10
-6.6348659307000011
 20
-11.392791020500001
 30
0.0
  0
VERTEX
  5
B2A
  8
0
  6
CONTINUOUS
 10
-6.6491813026999997
 20
-11.3909437945
 30
0.0
  0
VERTEX
  5
B2B
  8
0
  6
CONTINUOUS
 10
-6.6605286911999988
 20
-11.388890297
 30
0.0
  0
VERTEX
  5
B2C
  8
0
  6
CONTINUOUS
 10
-6.6681750647999989
 20
-11.38676318190001
 30
0.0
  0
VERTEX
  5
B2D
  8
0
  6
CONTINUOUS
 10
-6.6718760796999979
 20
-11.384557589000011
 30
0.0
  0
VERTEX
  5
B2E
  8
0
  6
CONTINUOUS
 10
-6.6723387066000006
 20
-11.383417983899999
 30
0.0
  0
SEQEND
  5
B2F
  8
0
  6
CONTINUOUS
  0
POLYLINE
  5
56F
  8
0
  6
CONTINUOUS
 66
     1
 10
0.0
 20
0.0
 30
0.0
  0
VERTEX
  5
B30
  8
0
  6
CONTINUOUS
 10
-6.5
 20
-11.368384800399999
 30
0.0
  0
VERTEX
  5
B31
  8
0
  6
CONTINUOUS
 10
-6.4734045784000003
 20
-11.36858298029999
 30
0.0
  0
VERTEX
  5
B32
  8
0
  6
CONTINUOUS
 10
-6.4484562633999998
 20
-11.369079231300001
 30
0.0
  0
VERTEX
  5
B33
  8
0
  6
CONTINUOUS
 10
-6.4251550550000012
 20
-11.36987355360001
 30
0.0
  0
VERTEX
  5
B34
  8
0
  6
CONTINUOUS
 10
-6.4030606608000014
 20
-11.370996546800001
 30
0.0
  0
VERTEX
  5
B35
  8
0
  6
CONTINUOUS
 10
-6.382613373299999
 20
-11.372417611199999
 30
0.0
  0
VERTEX
  5
B36
  8
0
  6
CONTINUOUS
 10
-6.3651340691999989
 20
-11.37404494730001
 30
0.0
  0
VERTEX
  5
B37
  8
0
  6
CONTINUOUS
 10
-6.3508186972000011
 20
-11.375892173200009
 30
0.0
  0
VERTEX
  5
B38
  8
0
  6
CONTINUOUS
 10
-6.3394713086999976
 20
-11.377945670800001
 30
0.0
  0
VERTEX
  5
B39
  8
0
  6
CONTINUOUS
 10
-6.3318249351000011
 20
-11.380072785799999
 30
0.0
  0
VERTEX
  5
B3A
  8
0
  6
CONTINUOUS
 10
-6.3281239201999986
 20
-11.382278378700001
 30
0.0
  0
VERTEX
  5
B3B
  8
0
  6
CONTINUOUS
 10
-6.3276612933000003
 20
-11.383417983899999
 30
0.0
  0
SEQEND
  5
B3C
  8
0
  6
CONTINUOUS
  0
POLYLINE
  5
570
  8
0
  6
CONTINUOUS
 66
     1
 10
0.0
 20
0.0
 30
0.0
  0
VERTEX
  5
B3D
  8
0
  6
CONTINUOUS
 10
0.0
 20
-11.398451167399999
 30
0.0
  0
VERTEX
  5
B3E
  8
0
  6
CONTINUOUS
 10
-0.0265954215000051
 20
-11.398252987499999
 30
0.0
  0
VERTEX
  5
B3F
  8
0
  6
CONTINUOUS
 10
-0.0515437365000011
 20
-11.3977567364
 30
0.0
  0
VERTEX
  5
B40
  8
0
  6
CONTINUOUS
 10
-0.0748449449000006
 20
-11.396962414200001
 30
0.0
  0
VERTEX
  5
B41
  8
0
  6
CONTINUOUS
 10
-0.096939339100004
 20
-11.3958394209
 30
0.0
  0
VERTEX
  5
B42
  8
0
  6
CONTINUOUS
 10
-0.1173866266000019
 20
-11.394418356499999
 30
0.0
  0
VERTEX
  5
B43
  8
0
  6
CONTINUOUS
 10
-0.134865930700002
 20
-11.392791020500001
 30
0.0
  0
VERTEX
  5
B44
  8
0
  6
CONTINUOUS
 10
-0.1491813027000006
 20
-11.3909437945
 30
0.0
  0
VERTEX
  5
B45
  8
0
  6
CONTINUOUS
 10
-0.1605286911999997
 20
-11.388890297
 30
0.0
  0
VERTEX
  5
B46
  8
0
  6
CONTINUOUS
 10
-0.1681750647999962
 20
-11.38676318190001
 30
0.0
  0
VERTEX
  5
B47
  8
0
  6
CONTINUOUS
 10
-0.1718760796999987
 20
-11.384557589000011
 30
0.0
  0
VERTEX
  5
B48
  8
0
  6
CONTINUOUS
 10
-0.1723387066000015
 20
-11.383417983899999
 30
0.0
  0
SEQEND
  5
B49
  8
0
  6
CONTINUOUS
  0
POLYLINE
  5
571
  8
0
  6
CONTINUOUS
 66
     1
 10
0.0
 20
0.0
 30
0.0
  0
VERTEX
  5
B4A
  8
0
  6
CONTINUOUS
 10
0.0
 20
-11.368384800399999
 30
0.0
  0
VERTEX
  5
B4B
  8
0
  6
CONTINUOUS
 10
0.0265954215999997
 20
-11.36858298029999
 30
0.0
  0
VERTEX
  5
B4C
  8
0
  6
CONTINUOUS
 10
0.0515437365999958
 20
-11.369079231300001
 30
0.0
  0
VERTEX
  5
B4D
  8
0
  6
CONTINUOUS
 10
0.0748449450000024
 20
-11.36987355360001
 30
0.0
  0
VERTEX
  5
B4E
  8
0
  6
CONTINUOUS
 10
0.0969393391999987
 20
-11.370996546800001
 30
0.0
  0
VERTEX
  5
B4F
  8
0
  6
CONTINUOUS
 10
0.1173866266999965
 20
-11.372417611199999
 30
0.0
  0
VERTEX
  5
B50
  8
0
  6
CONTINUOUS
 10
0.1348659308000037
 20
-11.37404494730001
 30
0.0
  0
VERTEX
  5
B51
  8
0
  6
CONTINUOUS
 10
0.1491813028000024
 20
-11.375892173200009
 30
0.0
  0
VERTEX
  5
B52
  8
0
  6
CONTINUOUS
 10
0.1605286913000015
 20
-11.377945670800001
 30
0.0
  0
VERTEX
  5
B53
  8
0
  6
CONTINUOUS
 10
0.168175064899998
 20
-11.380072785799999
 30
0.0
  0
VERTEX
  5
B54
  8
0
  6
CONTINUOUS
 10
0.1718760798000005
 20
-11.382278378700001
 30
0.0
  0
VERTEX
  5
B55
  8
0
  6
CONTINUOUS
 10
0.1723387066999962
 20
-11.383417983899999
 30
0.0
  0
SEQEND
  5
B56
  8
0
  6
CONTINUOUS
  0
POLYLINE
  5
572
  8
0
  6
CONTINUOUS
 66
     1
 10
0.0
 20
0.0
 30
0.0
  0
VERTEX
  5
B57
  8
0
  6
CONTINUOUS
 10
6.5
 20
-11.398451167399999
 30
0.0
  0
VERTEX
  5
B58
  8
0
  6
CONTINUOUS
 10
6.4734045784999941
 20
-11.398252987499999
 30
0.0
  0
VERTEX
  5
B59
  8
0
  6
CONTINUOUS
 10
6.448456263499998
 20
-11.3977567364
 30
0.0
  0
VERTEX
  5
B5A
  8
0
  6
CONTINUOUS
 10
6.4251550550999994
 20
-11.396962414200001
 30
0.0
  0
VERTEX
  5
B5B
  8
0
  6
CONTINUOUS
 10
6.403060660899996
 20
-11.3958394209
 30
0.0
  0
VERTEX
  5
B5C
  8
0
  6
CONTINUOUS
 10
6.3826133733999981
 20
-11.394418356499999
 30
0.0
  0
VERTEX
  5
B5D
  8
0
  6
CONTINUOUS
 10
6.365134069299998
 20
-11.392791020500001
 30
0.0
  0
VERTEX
  5
B5E
  8
0
  6
CONTINUOUS
 10
6.3508186972999994
 20
-11.3909437945
 30
0.0
  0
VERTEX
  5
B5F
  8
0
  6
CONTINUOUS
 10
6.3394713088000003
 20
-11.388890297
 30
0.0
  0
VERTEX
  5
B60
  8
0
  6
CONTINUOUS
 10
6.3318249352000029
 20
-11.38676318190001
 30
0.0
  0
VERTEX
  5
B61
  8
0
  6
CONTINUOUS
 10
6.3281239203000013
 20
-11.384557589000011
 30
0.0
  0
VERTEX
  5
B62
  8
0
  6
CONTINUOUS
 10
6.3276612933999976
 20
-11.383417983899999
 30
0.0
  0
SEQEND
  5
B63
  8
0
  6
CONTINUOUS
  0
POLYLINE
  5
573
  8
0
  6
CONTINUOUS
 66
     1
 10
0.0
 20
0.0
 30
0.0
  0
VERTEX
  5
B64
  8
0
  6
CONTINUOUS
 10
6.5
 20
-11.368384800399999
 30
0.0
  0
VERTEX
  5
B65
  8
0
  6
CONTINUOUS
 10
6.5265954215999988
 20
-11.36858298029999
 30
0.0
  0
VERTEX
  5
B66
  8
0
  6
CONTINUOUS
 10
6.5515437365999949
 20
-11.369079231300001
 30
0.0
  0
VERTEX
  5
B67
  8
0
  6
CONTINUOUS
 10
6.5748449449999953
 20
-11.36987355360001
 30
0.0
  0
VERTEX
  5
B68
  8
0
  6
CONTINUOUS
 10
6.5969393391999978
 20
-11.370996546800001
 30
0.0
  0
VERTEX
  5
B69
  8
0
  6
CONTINUOUS
 10
6.6173866266999957
 20
-11.372417611199999
 30
0.0
  0
VERTEX
  5
B6A
  8
0
  6
CONTINUOUS
 10
6.6348659308000029
 20
-11.37404494730001
 30
0.0
  0
VERTEX
  5
B6B
  8
0
  6
CONTINUOUS
 10
6.6491813028000024
 20
-11.375892173200009
 30
0.0
  0
VERTEX
  5
B6C
  8
0
  6
CONTINUOUS
 10
6.6605286913000006
 20
-11.377945670800001
 30
0.0
  0
VERTEX
  5
B6D
  8
0
  6
CONTINUOUS
 10
6.668175064899998
 20
-11.380072785799999
 30
0.0
  0
VERTEX
  5
B6E
  8
0
  6
CONTINUOUS
 10
6.6718760797999996
 20
-11.382278378700001
 30
0.0
  0
VERTEX
  5
B6F
  8
0
  6
CONTINUOUS
 10
6.6723387067000033
 20
-11.383417983899999
 30
0.0
  0
SEQEND
  5
B70
  8
0
  6
CONTINUOUS
  0
POLYLINE
  5
574
  8
0
  6
CONTINUOUS
 66
     1
 10
0.0
 20
0.0
 30
0.0
  0
VERTEX
  5
B71
  8
0
  6
CONTINUOUS
 10
-16.25
 20
-11.1870174653
 30
0.0
  0
VERTEX
  5
B72
  8
0
  6
CONTINUOUS
 10
-16.276595421500001
 20
-11.1868192854
 30
0.0
  0
VERTEX
  5
B73
  8
0
  6
CONTINUOUS
 10
-16.301543736500001
 20
-11.186323034300001
 30
0.0
  0
VERTEX
  5
B74
  8
0
  6
CONTINUOUS
 10
-16.324844944900001
 20
-11.1855287121
 30
0.0
  0
VERTEX
  5
B75
  8
0
  6
CONTINUOUS
 10
-16.3469393391
 20
-11.184405718900001
 30
0.0
  0
VERTEX
  5
B76
  8
0
  6
CONTINUOUS
 10
-16.367386626599998
 20
-11.1829846545
 30
0.0
  0
VERTEX
  5
B77
  8
0
  6
CONTINUOUS
 10
-16.384865930699998
 20
-11.1813573184
 30
0.0
  0
VERTEX
  5
B78
  8
0
  6
CONTINUOUS
 10
-16.399181302700001
 20
-11.179510092499999
 30
0.0
  0
VERTEX
  5
B79
  8
0
  6
CONTINUOUS
 10
-16.4105286912
 20
-11.177456594900001
 30
0.0
  0
VERTEX
  5
B7A
  8
0
  6
CONTINUOUS
 10
-16.4181750648
 20
-11.1753294798
 30
0.0
  0
VERTEX
  5
B7B
  8
0
  6
CONTINUOUS
 10
-16.421876079699999
 20
-11.173123886999999
 30
0.0
  0
VERTEX
  5
B7C
  8
0
  6
CONTINUOUS
 10
-16.422338706600002
 20
-11.1719842818
 30
0.0
  0
SEQEND
  5
B7D
  8
0
  6
CONTINUOUS
  0
POLYLINE
  5
575
  8
0
  6
CONTINUOUS
 66
     1
 10
0.0
 20
0.0
 30
0.0
  0
VERTEX
  5
B7E
  8
0
  6
CONTINUOUS
 10
13.0
 20
-11.398451167399999
 30
0.0
  0
VERTEX
  5
B7F
  8
0
  6
CONTINUOUS
 10
12.9734045785
 20
-11.398252987499999
 30
0.0
  0
VERTEX
  5
B80
  8
0
  6
CONTINUOUS
 10
12.948456263500001
 20
-11.3977567364
 30
0.0
  0
VERTEX
  5
B81
  8
0
  6
CONTINUOUS
 10
12.925155055099999
 20
-11.396962414200001
 30
0.0
  0
VERTEX
  5
B82
  8
0
  6
CONTINUOUS
 10
12.903060660899991
 20
-11.3958394209
 30
0.0
  0
VERTEX
  5
B83
  8
0
  6
CONTINUOUS
 10
12.8826133734
 20
-11.394418356499999
 30
0.0
  0
VERTEX
  5
B84
  8
0
  6
CONTINUOUS
 10
12.8651340693
 20
-11.392791020500001
 30
0.0
  0
VERTEX
  5
B85
  8
0
  6
CONTINUOUS
 10
12.850818697299999
 20
-11.3909437945
 30
0.0
  0
VERTEX
  5
B86
  8
0
  6
CONTINUOUS
 10
12.8394713088
 20
-11.388890297
 30
0.0
  0
VERTEX
  5
B87
  8
0
  6
CONTINUOUS
 10
12.8318249352
 20
-11.38676318190001
 30
0.0
  0
VERTEX
  5
B88
  8
0
  6
CONTINUOUS
 10
12.828123920299999
 20
-11.384557589000011
 30
0.0
  0
VERTEX
  5
B89
  8
0
  6
CONTINUOUS
 10
12.8276612934
 20
-11.383417983899999
 30
0.0
  0
SEQEND
  5
B8A
  8
0
  6
CONTINUOUS
  0
POLYLINE
  5
576
  8
0
  6
CONTINUOUS
 66
     1
 10
0.0
 20
0.0
 30
0.0
  0
VERTEX
  5
B8B
  8
0
  6
CONTINUOUS
 10
-16.25
 20
-11.1569510983
 30
0.0
  0
VERTEX
  5
B8C
  8
0
  6
CONTINUOUS
 10
-16.2234045784
 20
-11.157149278200009
 30
0.0
  0
VERTEX
  5
B8D
  8
0
  6
CONTINUOUS
 10
-16.198456263400001
 20
-11.1576455293
 30
0.0
  0
VERTEX
  5
B8E
  8
0
  6
CONTINUOUS
 10
-16.175155055000001
 20
-11.158439851500001
 30
0.0
  0
VERTEX
  5
B8F
  8
0
  6
CONTINUOUS
 10
-16.153060660800001
 20
-11.1595628447
 30
0.0
  0
VERTEX
  5
B90
  8
0
  6
CONTINUOUS
 10
-16.1326133733
 20
-11.1609839091
 30
0.0
  0
VERTEX
  5
B91
  8
0
  6
CONTINUOUS
 10
-16.1151340692
 20
-11.162611245200001
 30
0.0
  0
VERTEX
  5
B92
  8
0
  6
CONTINUOUS
 10
-16.100818697200001
 20
-11.1644584711
 30
0.0
  0
VERTEX
  5
B93
  8
0
  6
CONTINUOUS
 10
-16.089471308699999
 20
-11.1665119687
 30
0.0
  0
VERTEX
  5
B94
  8
0
  6
CONTINUOUS
 10
-16.081824935099998
 20
-11.1686390838
 30
0.0
  0
VERTEX
  5
B95
  8
0
  6
CONTINUOUS
 10
-16.078123920199999
 20
-11.1708446766
 30
0.0
  0
VERTEX
  5
B96
  8
0
  6
CONTINUOUS
 10
-16.0776612933
 20
-11.1719842818
 30
0.0
  0
SEQEND
  5
B97
  8
0
  6
CONTINUOUS
  0
POLYLINE
  5
577
  8
0
  6
CONTINUOUS
 66
     1
 10
0.0
 20
0.0
 30
0.0
  0
VERTEX
  5
B98
  8
0
  6
CONTINUOUS
 10
13.0
 20
-11.368384800399999
 30
0.0
  0
VERTEX
  5
B99
  8
0
  6
CONTINUOUS
 10
13.0265954216
 20
-11.36858298029999
 30
0.0
  0
VERTEX
  5
B9A
  8
0
  6
CONTINUOUS
 10
13.051543736599999
 20
-11.369079231300001
 30
0.0
  0
VERTEX
  5
B9B
  8
0
  6
CONTINUOUS
 10
13.07484494499999
 20
-11.36987355360001
 30
0.0
  0
VERTEX
  5
B9C
  8
0
  6
CONTINUOUS
 10
13.0969393392
 20
-11.370996546800001
 30
0.0
  0
VERTEX
  5
B9D
  8
0
  6
CONTINUOUS
 10
13.1173866267
 20
-11.372417611199999
 30
0.0
  0
VERTEX
  5
B9E
  8
0
  6
CONTINUOUS
 10
13.1348659308
 20
-11.37404494730001
 30
0.0
  0
VERTEX
  5
B9F
  8
0
  6
CONTINUOUS
 10
13.149181302800001
 20
-11.375892173200009
 30
0.0
  0
VERTEX
  5
BA0
  8
0
  6
CONTINUOUS
 10
13.1605286913
 20
-11.377945670800001
 30
0.0
  0
VERTEX
  5
BA1
  8
0
  6
CONTINUOUS
 10
13.1681750649
 20
-11.380072785799999
 30
0.0
  0
VERTEX
  5
BA2
  8
0
  6
CONTINUOUS
 10
13.171876079800001
 20
-11.382278378700001
 30
0.0
  0
VERTEX
  5
BA3
  8
0
  6
CONTINUOUS
 10
13.1723387067
 20
-11.383417983899999
 30
0.0
  0
SEQEND
  5
BA4
  8
0
  6
CONTINUOUS
  0
POLYLINE
  5
578
  8
0
  6
CONTINUOUS
 66
     1
 10
0.0
 20
0.0
 30
0.0
  0
VERTEX
  5
BA5
  8
0
  6
CONTINUOUS
 10
-9.75
 20
-11.1870174653
 30
0.0
  0
VERTEX
  5
BA6
  8
0
  6
CONTINUOUS
 10
-9.7765954215000015
 20
-11.1868192854
 30
0.0
  0
VERTEX
  5
BA7
  8
0
  6
CONTINUOUS
 10
-9.8015437365000011
 20
-11.186323034300001
 30
0.0
  0
VERTEX
  5
BA8
  8
0
  6
CONTINUOUS
 10
-9.8248449449000006
 20
-11.1855287121
 30
0.0
  0
VERTEX
  5
BA9
  8
0
  6
CONTINUOUS
 10
-9.8469393391000004
 20
-11.184405718900001
 30
0.0
  0
VERTEX
  5
BAA
  8
0
  6
CONTINUOUS
 10
-9.8673866266000019
 20
-11.1829846545
 30
0.0
  0
VERTEX
  5
BAB
  8
0
  6
CONTINUOUS
 10
-9.8848659307000002
 20
-11.1813573184
 30
0.0
  0
VERTEX
  5
BAC
  8
0
  6
CONTINUOUS
 10
-9.8991813027000006
 20
-11.179510092499999
 30
0.0
  0
VERTEX
  5
BAD
  8
0
  6
CONTINUOUS
 10
-9.9105286911999997
 20
-11.177456594900001
 30
0.0
  0
VERTEX
  5
BAE
  8
0
  6
CONTINUOUS
 10
-9.9181750647999998
 20
-11.1753294798
 30
0.0
  0
VERTEX
  5
BAF
  8
0
  6
CONTINUOUS
 10
-9.9218760796999987
 20
-11.173123886999999
 30
0.0
  0
VERTEX
  5
BB0
  8
0
  6
CONTINUOUS
 10
-9.9223387066000015
 20
-11.1719842818
 30
0.0
  0
SEQEND
  5
BB1
  8
0
  6
CONTINUOUS
  0
POLYLINE
  5
579
  8
0
  6
CONTINUOUS
 66
     1
 10
0.0
 20
0.0
 30
0.0
  0
VERTEX
  5
BB2
  8
0
  6
CONTINUOUS
 10
19.5
 20
-11.398451167399999
 30
0.0
  0
VERTEX
  5
BB3
  8
0
  6
CONTINUOUS
 10
19.473404578499999
 20
-11.398252987499999
 30
0.0
  0
VERTEX
  5
BB4
  8
0
  6
CONTINUOUS
 10
19.448456263499999
 20
-11.3977567364
 30
0.0
  0
VERTEX
  5
BB5
  8
0
  6
CONTINUOUS
 10
19.425155055099999
 20
-11.396962414200001
 30
0.0
  0
VERTEX
  5
BB6
  8
0
  6
CONTINUOUS
 10
19.403060660899989
 20
-11.3958394209
 30
0.0
  0
VERTEX
  5
BB7
  8
0
  6
CONTINUOUS
 10
19.382613373400002
 20
-11.394418356499999
 30
0.0
  0
VERTEX
  5
BB8
  8
0
  6
CONTINUOUS
 10
19.365134069300002
 20
-11.392791020500001
 30
0.0
  0
VERTEX
  5
BB9
  8
0
  6
CONTINUOUS
 10
19.350818697299999
 20
-11.3909437945
 30
0.0
  0
VERTEX
  5
BBA
  8
0
  6
CONTINUOUS
 10
19.3394713088
 20
-11.388890297
 30
0.0
  0
VERTEX
  5
BBB
  8
0
  6
CONTINUOUS
 10
19.3318249352
 20
-11.38676318190001
 30
0.0
  0
VERTEX
  5
BBC
  8
0
  6
CONTINUOUS
 10
19.328123920300001
 20
-11.384557589000011
 30
0.0
  0
VERTEX
  5
BBD
  8
0
  6
CONTINUOUS
 10
19.327661293399998
 20
-11.383417983899999
 30
0.0
  0
SEQEND
  5
BBE
  8
0
  6
CONTINUOUS
  0
POLYLINE
  5
57A
  8
0
  6
CONTINUOUS
 66
     1
 10
0.0
 20
0.0
 30
0.0
  0
VERTEX
  5
BBF
  8
0
  6
CONTINUOUS
 10
-9.75
 20
-11.1569510983
 30
0.0
  0
VERTEX
  5
BC0
  8
0
  6
CONTINUOUS
 10
-9.7234045784000003
 20
-11.157149278200009
 30
0.0
  0
VERTEX
  5
BC1
  8
0
  6
CONTINUOUS
 10
-9.6984562634000007
 20
-11.1576455293
 30
0.0
  0
VERTEX
  5
BC2
  8
0
  6
CONTINUOUS
 10
-9.6751550550000012
 20
-11.158439851500001
 30
0.0
  0
VERTEX
  5
BC3
  8
0
  6
CONTINUOUS
 10
-9.6530606608000014
 20
-11.1595628447
 30
0.0
  0
VERTEX
  5
BC4
  8
0
  6
CONTINUOUS
 10
-9.6326133732999981
 20
-11.1609839091
 30
0.0
  0
VERTEX
  5
BC5
  8
0
  6
CONTINUOUS
 10
-9.6151340691999998
 20
-11.162611245200001
 30
0.0
  0
VERTEX
  5
BC6
  8
0
  6
CONTINUOUS
 10
-9.6008186972000011
 20
-11.1644584711
 30
0.0
  0
VERTEX
  5
BC7
  8
0
  6
CONTINUOUS
 10
-9.5894713086999985
 20
-11.1665119687
 30
0.0
  0
VERTEX
  5
BC8
  8
0
  6
CONTINUOUS
 10
-9.5818249351000002
 20
-11.1686390838
 30
0.0
  0
VERTEX
  5
BC9
  8
0
  6
CONTINUOUS
 10
-9.5781239201999995
 20
-11.1708446766
 30
0.0
  0
VERTEX
  5
BCA
  8
0
  6
CONTINUOUS
 10
-9.5776612933000003
 20
-11.1719842818
 30
0.0
  0
SEQEND
  5
BCB
  8
0
  6
CONTINUOUS
  0
POLYLINE
  5
57B
  8
0
  6
CONTINUOUS
 66
     1
 10
0.0
 20
0.0
 30
0.0
  0
VERTEX
  5
BCC
  8
0
  6
CONTINUOUS
 10
19.5
 20
-11.368384800399999
 30
0.0
  0
VERTEX
  5
BCD
  8
0
  6
CONTINUOUS
 10
19.5265954216
 20
-11.36858298029999
 30
0.0
  0
VERTEX
  5
BCE
  8
0
  6
CONTINUOUS
 10
19.551543736599999
 20
-11.369079231300001
 30
0.0
  0
VERTEX
  5
BCF
  8
0
  6
CONTINUOUS
 10
19.574844944999992
 20
-11.36987355360001
 30
0.0
  0
VERTEX
  5
BD0
  8
0
  6
CONTINUOUS
 10
19.596939339199999
 20
-11.370996546800001
 30
0.0
  0
VERTEX
  5
BD1
  8
0
  6
CONTINUOUS
 10
19.6173866267
 20
-11.372417611199999
 30
0.0
  0
VERTEX
  5
BD2
  8
0
  6
CONTINUOUS
 10
19.6348659308
 20
-11.37404494730001
 30
0.0
  0
VERTEX
  5
BD3
  8
0
  6
CONTINUOUS
 10
19.649181302799999
 20
-11.375892173200009
 30
0.0
  0
VERTEX
  5
BD4
  8
0
  6
CONTINUOUS
 10
19.660528691300001
 20
-11.377945670800001
 30
0.0
  0
VERTEX
  5
BD5
  8
0
  6
CONTINUOUS
 10
19.668175064900002
 20
-11.380072785799999
 30
0.0
  0
VERTEX
  5
BD6
  8
0
  6
CONTINUOUS
 10
19.671876079800001
 20
-11.382278378700001
 30
0.0
  0
VERTEX
  5
BD7
  8
0
  6
CONTINUOUS
 10
19.6723387067
 20
-11.383417983899999
 30
0.0
  0
SEQEND
  5
BD8
  8
0
  6
CONTINUOUS
  0
POLYLINE
  5
57C
  8
0
  6
CONTINUOUS
 66
     1
 10
0.0
 20
0.0
 30
0.0
  0
VERTEX
  5
BD9
  8
0
  6
CONTINUOUS
 10
-3.25
 20
-11.1870174653
 30
0.0
  0
VERTEX
  5
BDA
  8
0
  6
CONTINUOUS
 10
-3.276595421500001
 20
-11.1868192854
 30
0.0
  0
VERTEX
  5
BDB
  8
0
  6
CONTINUOUS
 10
-3.3015437365000011
 20
-11.186323034300001
 30
0.0
  0
VERTEX
  5
BDC
  8
0
  6
CONTINUOUS
 10
-3.3248449449000002
 20
-11.1855287121
 30
0.0
  0
VERTEX
  5
BDD
  8
0
  6
CONTINUOUS
 10
-3.3469393391
 20
-11.184405718900001
 30
0.0
  0
VERTEX
  5
BDE
  8
0
  6
CONTINUOUS
 10
-3.367386626600001
 20
-11.1829846545
 30
0.0
  0
VERTEX
  5
BDF
  8
0
  6
CONTINUOUS
 10
-3.3848659307000011
 20
-11.1813573184
 30
0.0
  0
VERTEX
  5
BE0
  8
0
  6
CONTINUOUS
 10
-3.3991813027000002
 20
-11.179510092499999
 30
0.0
  0
VERTEX
  5
BE1
  8
0
  6
CONTINUOUS
 10
-3.4105286911999988
 20
-11.177456594900001
 30
0.0
  0
VERTEX
  5
BE2
  8
0
  6
CONTINUOUS
 10
-3.4181750647999989
 20
-11.1753294798
 30
0.0
  0
VERTEX
  5
BE3
  8
0
  6
CONTINUOUS
 10
-3.4218760796999979
 20
-11.173123886999999
 30
0.0
  0
VERTEX
  5
BE4
  8
0
  6
CONTINUOUS
 10
-3.4223387066000011
 20
-11.1719842818
 30
0.0
  0
SEQEND
  5
BE5
  8
0
  6
CONTINUOUS
  0
POLYLINE
  5
57D
  8
0
  6
CONTINUOUS
 66
     1
 10
0.0
 20
0.0
 30
0.0
  0
VERTEX
  5
BE6
  8
0
  6
CONTINUOUS
 10
-3.25
 20
-11.1569510983
 30
0.0
  0
VERTEX
  5
BE7
  8
0
  6
CONTINUOUS
 10
-3.2234045783999998
 20
-11.157149278200009
 30
0.0
  0
VERTEX
  5
BE8
  8
0
  6
CONTINUOUS
 10
-3.1984562634000002
 20
-11.1576455293
 30
0.0
  0
VERTEX
  5
BE9
  8
0
  6
CONTINUOUS
 10
-3.1751550549999972
 20
-11.158439851500001
 30
0.0
  0
VERTEX
  5
BEA
  8
0
  6
CONTINUOUS
 10
-3.1530606608000009
 20
-11.1595628447
 30
0.0
  0
VERTEX
  5
BEB
  8
0
  6
CONTINUOUS
 10
-3.132613373299999
 20
-11.1609839091
 30
0.0
  0
VERTEX
  5
BEC
  8
0
  6
CONTINUOUS
 10
-3.1151340691999989
 20
-11.162611245200001
 30
0.0
  0
VERTEX
  5
BED
  8
0
  6
CONTINUOUS
 10
-3.1008186971999971
 20
-11.1644584711
 30
0.0
  0
VERTEX
  5
BEE
  8
0
  6
CONTINUOUS
 10
-3.0894713086999981
 20
-11.1665119687
 30
0.0
  0
VERTEX
  5
BEF
  8
0
  6
CONTINUOUS
 10
-3.0818249351000011
 20
-11.1686390838
 30
0.0
  0
VERTEX
  5
BF0
  8
0
  6
CONTINUOUS
 10
-3.078123920199999
 20
-11.1708446766
 30
0.0
  0
VERTEX
  5
BF1
  8
0
  6
CONTINUOUS
 10
-3.0776612932999998
 20
-11.1719842818
 30
0.0
  0
SEQEND
  5
BF2
  8
0
  6
CONTINUOUS
  0
POLYLINE
  5
57E
  8
0
  6
CONTINUOUS
 66
     1
 10
0.0
 20
0.0
 30
0.0
  0
VERTEX
  5
BF3
  8
0
  6
CONTINUOUS
 10
3.25
 20
-11.1870174653
 30
0.0
  0
VERTEX
  5
BF4
  8
0
  6
CONTINUOUS
 10
3.2234045784999941
 20
-11.1868192854
 30
0.0
  0
VERTEX
  5
BF5
  8
0
  6
CONTINUOUS
 10
3.198456263499998
 20
-11.186323034300001
 30
0.0
  0
VERTEX
  5
BF6
  8
0
  6
CONTINUOUS
 10
3.175155055099999
 20
-11.1855287121
 30
0.0
  0
VERTEX
  5
BF7
  8
0
  6
CONTINUOUS
 10
3.153060660899996
 20
-11.184405718900001
 30
0.0
  0
VERTEX
  5
BF8
  8
0
  6
CONTINUOUS
 10
3.1326133733999981
 20
-11.1829846545
 30
0.0
  0
VERTEX
  5
BF9
  8
0
  6
CONTINUOUS
 10
3.115134069299998
 20
-11.1813573184
 30
0.0
  0
VERTEX
  5
BFA
  8
0
  6
CONTINUOUS
 10
3.1008186972999989
 20
-11.179510092499999
 30
0.0
  0
VERTEX
  5
BFB
  8
0
  6
CONTINUOUS
 10
3.0894713087999999
 20
-11.177456594900001
 30
0.0
  0
VERTEX
  5
BFC
  8
0
  6
CONTINUOUS
 10
3.0818249352000029
 20
-11.1753294798
 30
0.0
  0
VERTEX
  5
BFD
  8
0
  6
CONTINUOUS
 10
3.0781239203000008
 20
-11.173123886999999
 30
0.0
  0
VERTEX
  5
BFE
  8
0
  6
CONTINUOUS
 10
3.0776612933999981
 20
-11.1719842818
 30
0.0
  0
SEQEND
  5
BFF
  8
0
  6
CONTINUOUS
  0
POLYLINE
  5
57F
  8
0
  6
CONTINUOUS
 66
     1
 10
0.0
 20
0.0
 30
0.0
  0
VERTEX
  5
C00
  8
0
  6
CONTINUOUS
 10
3.25
 20
-11.1569510983
 30
0.0
  0
VERTEX
  5
C01
  8
0
  6
CONTINUOUS
 10
3.2765954215999988
 20
-11.157149278200009
 30
0.0
  0
VERTEX
  5
C02
  8
0
  6
CONTINUOUS
 10
3.3015437365999949
 20
-11.1576455293
 30
0.0
  0
VERTEX
  5
C03
  8
0
  6
CONTINUOUS
 10
3.3248449450000019
 20
-11.158439851500001
 30
0.0
  0
VERTEX
  5
C04
  8
0
  6
CONTINUOUS
 10
3.3469393391999982
 20
-11.1595628447
 30
0.0
  0
VERTEX
  5
C05
  8
0
  6
CONTINUOUS
 10
3.3673866266999961
 20
-11.1609839091
 30
0.0
  0
VERTEX
  5
C06
  8
0
  6
CONTINUOUS
 10
3.3848659308000029
 20
-11.162611245200001
 30
0.0
  0
VERTEX
  5
C07
  8
0
  6
CONTINUOUS
 10
3.399181302800002
 20
-11.1644584711
 30
0.0
  0
VERTEX
  5
C08
  8
0
  6
CONTINUOUS
 10
3.410528691300001
 20
-11.1665119687
 30
0.0
  0
VERTEX
  5
C09
  8
0
  6
CONTINUOUS
 10
3.418175064899998
 20
-11.1686390838
 30
0.0
  0
VERTEX
  5
C0A
  8
0
  6
CONTINUOUS
 10
3.4218760798000001
 20
-11.1708446766
 30
0.0
  0
VERTEX
  5
C0B
  8
0
  6
CONTINUOUS
 10
3.4223387066999962
 20
-11.1719842818
 30
0.0
  0
SEQEND
  5
C0C
  8
0
  6
CONTINUOUS
  0
POLYLINE
  5
580
  8
0
  6
CONTINUOUS
 66
     1
 10
0.0
 20
0.0
 30
0.0
  0
VERTEX
  5
C0D
  8
0
  6
CONTINUOUS
 10
9.75
 20
-11.1870174653
 30
0.0
  0
VERTEX
  5
C0E
  8
0
  6
CONTINUOUS
 10
9.7234045784999932
 20
-11.1868192854
 30
0.0
  0
VERTEX
  5
C0F
  8
0
  6
CONTINUOUS
 10
9.6984562634999971
 20
-11.186323034300001
 30
0.0
  0
VERTEX
  5
C10
  8
0
  6
CONTINUOUS
 10
9.6751550550999994
 20
-11.1855287121
 30
0.0
  0
VERTEX
  5
C11
  8
0
  6
CONTINUOUS
 10
9.653060660899996
 20
-11.184405718900001
 30
0.0
  0
VERTEX
  5
C12
  8
0
  6
CONTINUOUS
 10
9.6326133733999981
 20
-11.1829846545
 30
0.0
  0
VERTEX
  5
C13
  8
0
  6
CONTINUOUS
 10
9.615134069299998
 20
-11.1813573184
 30
0.0
  0
VERTEX
  5
C14
  8
0
  6
CONTINUOUS
 10
9.6008186972999994
 20
-11.179510092499999
 30
0.0
  0
VERTEX
  5
C15
  8
0
  6
CONTINUOUS
 10
9.5894713088000003
 20
-11.177456594900001
 30
0.0
  0
VERTEX
  5
C16
  8
0
  6
CONTINUOUS
 10
9.5818249352000038
 20
-11.1753294798
 30
0.0
  0
VERTEX
  5
C17
  8
0
  6
CONTINUOUS
 10
9.5781239203000013
 20
-11.173123886999999
 30
0.0
  0
VERTEX
  5
C18
  8
0
  6
CONTINUOUS
 10
9.5776612933999985
 20
-11.1719842818
 30
0.0
  0
SEQEND
  5
C19
  8
0
  6
CONTINUOUS
  0
POLYLINE
  5
581
  8
0
  6
CONTINUOUS
 66
     1
 10
0.0
 20
0.0
 30
0.0
  0
VERTEX
  5
C1A
  8
0
  6
CONTINUOUS
 10
9.75
 20
-11.1569510983
 30
0.0
  0
VERTEX
  5
C1B
  8
0
  6
CONTINUOUS
 10
9.7765954215999997
 20
-11.157149278200009
 30
0.0
  0
VERTEX
  5
C1C
  8
0
  6
CONTINUOUS
 10
9.8015437365999958
 20
-11.1576455293
 30
0.0
  0
VERTEX
  5
C1D
  8
0
  6
CONTINUOUS
 10
9.8248449449999953
 20
-11.158439851500001
 30
0.0
  0
VERTEX
  5
C1E
  8
0
  6
CONTINUOUS
 10
9.8469393391999986
 20
-11.1595628447
 30
0.0
  0
VERTEX
  5
C1F
  8
0
  6
CONTINUOUS
 10
9.8673866266999966
 20
-11.1609839091
 30
0.0
  0
VERTEX
  5
C20
  8
0
  6
CONTINUOUS
 10
9.8848659308000038
 20
-11.162611245200001
 30
0.0
  0
VERTEX
  5
C21
  8
0
  6
CONTINUOUS
 10
9.8991813028000024
 20
-11.1644584711
 30
0.0
  0
VERTEX
  5
C22
  8
0
  6
CONTINUOUS
 10
9.9105286913000015
 20
-11.1665119687
 30
0.0
  0
VERTEX
  5
C23
  8
0
  6
CONTINUOUS
 10
9.918175064899998
 20
-11.1686390838
 30
0.0
  0
VERTEX
  5
C24
  8
0
  6
CONTINUOUS
 10
9.9218760798000005
 20
-11.1708446766
 30
0.0
  0
VERTEX
  5
C25
  8
0
  6
CONTINUOUS
 10
9.9223387067000033
 20
-11.1719842818
 30
0.0
  0
SEQEND
  5
C26
  8
0
  6
CONTINUOUS
  0
POLYLINE
  5
582
  8
0
  6
CONTINUOUS
 66
     1
 10
0.0
 20
0.0
 30
0.0
  0
VERTEX
  5
C27
  8
0
  6
CONTINUOUS
 10
16.25
 20
-11.1870174653
 30
0.0
  0
VERTEX
  5
C28
  8
0
  6
CONTINUOUS
 10
16.223404578499999
 20
-11.1868192854
 30
0.0
  0
VERTEX
  5
C29
  8
0
  6
CONTINUOUS
 10
16.198456263499999
 20
-11.186323034300001
 30
0.0
  0
VERTEX
  5
C2A
  8
0
  6
CONTINUOUS
 10
16.175155055099999
 20
-11.1855287121
 30
0.0
  0
VERTEX
  5
C2B
  8
0
  6
CONTINUOUS
 10
16.153060660899989
 20
-11.184405718900001
 30
0.0
  0
VERTEX
  5
C2C
  8
0
  6
CONTINUOUS
 10
16.132613373400002
 20
-11.1829846545
 30
0.0
  0
VERTEX
  5
C2D
  8
0
  6
CONTINUOUS
 10
16.115134069300002
 20
-11.1813573184
 30
0.0
  0
VERTEX
  5
C2E
  8
0
  6
CONTINUOUS
 10
16.100818697299999
 20
-11.179510092499999
 30
0.0
  0
VERTEX
  5
C2F
  8
0
  6
CONTINUOUS
 10
16.0894713088
 20
-11.177456594900001
 30
0.0
  0
VERTEX
  5
C30
  8
0
  6
CONTINUOUS
 10
16.0818249352
 20
-11.1753294798
 30
0.0
  0
VERTEX
  5
C31
  8
0
  6
CONTINUOUS
 10
16.078123920300001
 20
-11.173123886999999
 30
0.0
  0
VERTEX
  5
C32
  8
0
  6
CONTINUOUS
 10
16.077661293399998
 20
-11.1719842818
 30
0.0
  0
SEQEND
  5
C33
  8
0
  6
CONTINUOUS
  0
POLYLINE
  5
583
  8
0
  6
CONTINUOUS
 66
     1
 10
0.0
 20
0.0
 30
0.0
  0
VERTEX
  5
C34
  8
0
  6
CONTINUOUS
 10
16.25
 20
-11.1569510983
 30
0.0
  0
VERTEX
  5
C35
  8
0
  6
CONTINUOUS
 10
16.2765954216
 20
-11.157149278200009
 30
0.0
  0
VERTEX
  5
C36
  8
0
  6
CONTINUOUS
 10
16.301543736599999
 20
-11.1576455293
 30
0.0
  0
VERTEX
  5
C37
  8
0
  6
CONTINUOUS
 10
16.324844944999992
 20
-11.158439851500001
 30
0.0
  0
VERTEX
  5
C38
  8
0
  6
CONTINUOUS
 10
16.346939339199999
 20
-11.1595628447
 30
0.0
  0
VERTEX
  5
C39
  8
0
  6
CONTINUOUS
 10
16.3673866267
 20
-11.1609839091
 30
0.0
  0
VERTEX
  5
C3A
  8
0
  6
CONTINUOUS
 10
16.3848659308
 20
-11.162611245200001
 30
0.0
  0
VERTEX
  5
C3B
  8
0
  6
CONTINUOUS
 10
16.399181302799999
 20
-11.1644584711
 30
0.0
  0
VERTEX
  5
C3C
  8
0
  6
CONTINUOUS
 10
16.410528691300001
 20
-11.1665119687
 30
0.0
  0
VERTEX
  5
C3D
  8
0
  6
CONTINUOUS
 10
16.418175064899991
 20
-11.1686390838
 30
0.0
  0
VERTEX
  5
C3E
  8
0
  6
CONTINUOUS
 10
16.421876079800001
 20
-11.1708446766
 30
0.0
  0
VERTEX
  5
C3F
  8
0
  6
CONTINUOUS
 10
16.4223387067
 20
-11.1719842818
 30
0.0
  0
SEQEND
  5
C40
  8
0
  6
CONTINUOUS
  0
POLYLINE
  5
584
  8
0
  6
CONTINUOUS
 66
     1
 10
0.0
 20
0.0
 30
0.0
  0
VERTEX
  5
C41
  8
0
  6
CONTINUOUS
 10
19.5
 20
-11.1335358839
 30
0.0
  0
VERTEX
  5
C42
  8
0
  6
CONTINUOUS
 10
19.4843106989
 20
-11.133393734700009
 30
0.0
  0
VERTEX
  5
C43
  8
0
  6
CONTINUOUS
 10
19.469907811799999
 20
-11.133057406000001
 30
0.0
  0
VERTEX
  5
C44
  8
0
  6
CONTINUOUS
 10
19.456791338599999
 20
-11.132526898
 30
0.0
  0
VERTEX
  5
C45
  8
0
  6
CONTINUOUS
 10
19.44464737269999
 20
-11.1317748538
 30
0.0
  0
VERTEX
  5
C46
  8
0
  6
CONTINUOUS
 10
19.433789820699999
 20
-11.1308286302
 30
0.0
  0
VERTEX
  5
C47
  8
0
  6
CONTINUOUS
 10
19.425160403100001
 20
-11.129770297
 30
0.0
  0
VERTEX
  5
C48
  8
0
  6
CONTINUOUS
 10
19.418958128900002
 20
-11.128589841100011
 30
0.0
  0
VERTEX
  5
C49
  8
0
  6
CONTINUOUS
 10
19.414983989100001
 20
-11.1272972756
 30
0.0
  0
VERTEX
  5
C4A
  8
0
  6
CONTINUOUS
 10
19.413582677200001
 20
-11.126004710200011
 30
0.0
  0
SEQEND
  5
C4B
  8
0
  6
CONTINUOUS
  0
POLYLINE
  5
585
  8
0
  6
CONTINUOUS
 66
     1
 10
0.0
 20
0.0
 30
0.0
  0
VERTEX
  5
C4C
  8
0
  6
CONTINUOUS
 10
19.5
 20
-11.1184735364
 30
0.0
  0
VERTEX
  5
C4D
  8
0
  6
CONTINUOUS
 10
19.515689301199998
 20
-11.1186156856
 30
0.0
  0
VERTEX
  5
C4E
  8
0
  6
CONTINUOUS
 10
19.530092188299999
 20
-11.1189520143
 30
0.0
  0
VERTEX
  5
C4F
  8
0
  6
CONTINUOUS
 10
19.5432086615
 20
-11.1194825224
 30
0.0
  0
VERTEX
  5
C50
  8
0
  6
CONTINUOUS
 10
19.555352627399991
 20
-11.12023456650001
 30
0.0
  0
VERTEX
  5
C51
  8
0
  6
CONTINUOUS
 10
19.566210179399999
 20
-11.1211807901
 30
0.0
  0
VERTEX
  5
C52
  8
0
  6
CONTINUOUS
 10
19.574839597
 20
-11.1222391233
 30
0.0
  0
VERTEX
  5
C53
  8
0
  6
CONTINUOUS
 10
19.5810418712
 20
-11.1234195792
 30
0.0
  0
VERTEX
  5
C54
  8
0
  6
CONTINUOUS
 10
19.585016011
 20
-11.1247121447
 30
0.0
  0
VERTEX
  5
C55
  8
0
  6
CONTINUOUS
 10
19.586417322900001
 20
-11.126004710200011
 30
0.0
  0
SEQEND
  5
C56
  8
0
  6
CONTINUOUS
  0
LINE
  5
586
  8
0
  6
CONTINUOUS
 10
-3.6760414407000002
 20
-12.248906186299999
 30
0.0
 11
-3.7089661179999989
 21
-12.248556905899999
 31
0.0
  0
POLYLINE
  5
587
  8
0
  6
CONTINUOUS
 66
     1
 10
0.0
 20
0.0
 30
0.0
  0
VERTEX
  5
C57
  8
0
  6
CONTINUOUS
 10
3.6929777599999971
 20
-12.16826402440001
 30
0.0
  0
VERTEX
  5
C58
  8
0
  6
CONTINUOUS
 10
3.7420692893999989
 20
-12.169024357
 30
0.0
  0
VERTEX
  5
C59
  8
0
  6
CONTINUOUS
 10
3.7890068717999981
 20
-12.1702496442
 30
0.0
  0
VERTEX
  5
C5A
  8
0
  6
CONTINUOUS
 10
3.8344865550999989
 20
-12.17199715350001
 30
0.0
  0
SEQEND
  5
C5B
  8
0
  6
CONTINUOUS
  0
POLYLINE
  5
588
  8
0
  6
CONTINUOUS
 66
     1
 10
0.0
 20
0.0
 30
0.0
  0
VERTEX
  5
C5C
  8
0
  6
CONTINUOUS
 10
-3.7403254502999981
 20
-12.2480067016
 30
0.0
  0
VERTEX
  5
C5D
  8
0
  6
CONTINUOUS
 10
-3.7890068716999989
 20
-12.24704694260001
 30
0.0
  0
VERTEX
  5
C5E
  8
0
  6
CONTINUOUS
 10
-3.834486554999998
 20
-12.2452994333
 30
0.0
  0
SEQEND
  5
C5F
  8
0
  6
CONTINUOUS
  0
LINE
  5
589
  8
0
  6
CONTINUOUS
 10
-3.769929236199999
 20
-12.247283287300011
 30
0.0
 11
-3.7977347045000012
 21
-12.246411724
 31
0.0
  0
LINE
  5
58A
  8
0
  6
CONTINUOUS
 10
-3.8238289573000008
 20
-12.2454109086
 30
0.0
 11
-3.8481775007999981
 21
-12.244301997499999
 31
0.0
  0
POLYLINE
  5
58B
  8
0
  6
CONTINUOUS
 66
     1
 10
0.0
 20
0.0
 30
0.0
  0
VERTEX
  5
C60
  8
0
  6
CONTINUOUS
 10
-23.270053738800001
 20
-11.069363984300001
 30
0.0
  0
VERTEX
  5
C61
  8
0
  6
CONTINUOUS
 10
-23.3725556399
 20
-11.064445862199999
 30
0.0
  0
VERTEX
  5
C62
  8
0
  6
CONTINUOUS
 10
-23.474281990800002
 20
-11.050662195599999
 30
0.0
  0
VERTEX
  5
C63
  8
0
  6
CONTINUOUS
 10
-23.574463078000001
 20
-11.0281172765
 30
0.0
  0
VERTEX
  5
C64
  8
0
  6
CONTINUOUS
 10
-23.672340850400001
 20
-10.996981638699999
 30
0.0
  0
VERTEX
  5
C65
  8
0
  6
CONTINUOUS
 10
-23.767174744799998
 20
-10.9574909184
 30
0.0
  0
VERTEX
  5
C66
  8
0
  6
CONTINUOUS
 10
-23.858247289600001
 20
-10.909944071500011
 30
0.0
  0
VERTEX
  5
C67
  8
0
  6
CONTINUOUS
 10
-23.944869520499999
 20
-10.854701088000001
 30
0.0
  0
VERTEX
  5
C68
  8
0
  6
CONTINUOUS
 10
-24.026385876700001
 20
-10.7921797405
 30
0.0
  0
VERTEX
  5
C69
  8
0
  6
CONTINUOUS
 10
-24.102179250599999
 20
-10.72285257320001
 30
0.0
  0
VERTEX
  5
C6A
  8
0
  6
CONTINUOUS
 10
-24.171675946800001
 20
-10.647243808800001
 30
0.0
  0
VERTEX
  5
C6B
  8
0
  6
CONTINUOUS
 10
-24.234350323800001
 20
-10.5659258822
 30
0.0
  0
VERTEX
  5
C6C
  8
0
  6
CONTINUOUS
 10
-24.289728455000009
 20
-10.4795145826
 30
0.0
  0
VERTEX
  5
C6D
  8
0
  6
CONTINUOUS
 10
-24.337391431
 20
-10.388663921899999
 30
0.0
  0
VERTEX
  5
C6E
  8
0
  6
CONTINUOUS
 10
-24.3769784976
 20
-10.29406113570001
 30
0.0
  0
VERTEX
  5
C6F
  8
0
  6
CONTINUOUS
 10
-24.408190087099999
 20
-10.196421983700001
 30
0.0
  0
VERTEX
  5
C70
  8
0
  6
CONTINUOUS
 10
-24.430790027099999
 20
-10.09648523610001
 30
0.0
  0
VERTEX
  5
C71
  8
0
  6
CONTINUOUS
 10
-24.4446073274
 20
-9.9950070842000045
 30
0.0
  0
VERTEX
  5
C72
  8
0
  6
CONTINUOUS
 10
-24.4495374412
 20
-9.8927553651000082
 30
0.0
  0
SEQEND
  5
C73
  8
0
  6
CONTINUOUS
  0
LINE
  5
58C
  8
0
  6
CONTINUOUS
 10
-3.834486554999998
 20
-12.2452994333
 30
0.0
 11
-3.8778122912999988
 21
-12.243086969400011
 31
0.0
  0
POLYLINE
  5
58D
  8
0
  6
CONTINUOUS
 66
     1
 10
0.0
 20
0.0
 30
0.0
  0
VERTEX
  5
C74
  8
0
  6
CONTINUOUS
 10
3.8344865550999989
 20
-12.17199715350001
 30
0.0
  0
VERTEX
  5
C75
  8
0
  6
CONTINUOUS
 10
3.8778122913999971
 20
-12.174209617400001
 30
0.0
  0
VERTEX
  5
C76
  8
0
  6
CONTINUOUS
 10
3.9168959363000009
 20
-12.1767152334
 30
0.0
  0
VERTEX
  5
C77
  8
0
  6
CONTINUOUS
 10
3.9511585532000022
 20
-12.1795254078
 30
0.0
  0
VERTEX
  5
C78
  8
0
  6
CONTINUOUS
 10
3.9811790786999941
 20
-12.1826287342
 30
0.0
  0
VERTEX
  5
C79
  8
0
  6
CONTINUOUS
 10
4.0066061786999958
 20
-12.185819191100011
 30
0.0
  0
VERTEX
  5
C7A
  8
0
  6
CONTINUOUS
 10
4.027058248000003
 20
-12.189071156400001
 30
0.0
  0
VERTEX
  5
C7B
  8
0
  6
CONTINUOUS
 10
4.0429168918000036
 20
-12.1924102522
 30
0.0
  0
VERTEX
  5
C7C
  8
0
  6
CONTINUOUS
 10
4.0549755919999981
 20
-12.195707323400001
 30
0.0
  0
VERTEX
  5
C7D
  8
0
  6
CONTINUOUS
 10
4.0634988424000014
 20
-12.1989193184
 30
0.0
  0
VERTEX
  5
C7E
  8
0
  6
CONTINUOUS
 10
4.0682221491999959
 20
-12.2020892888
 30
0.0
  0
VERTEX
  5
C7F
  8
0
  6
CONTINUOUS
 10
4.0691455123999978
 20
-12.20521723480001
 30
0.0
  0
SEQEND
  5
C80
  8
0
  6
CONTINUOUS
  0
POLYLINE
  5
58E
  8
0
  6
CONTINUOUS
 66
     1
 10
0.0
 20
0.0
 30
0.0
  0
VERTEX
  5
C81
  8
0
  6
CONTINUOUS
 10
-3.870749947900002
 20
-12.2431062451
 30
0.0
  0
VERTEX
  5
C82
  8
0
  6
CONTINUOUS
 10
-3.9168959361999991
 20
-12.2405813534
 30
0.0
  0
VERTEX
  5
C83
  8
0
  6
CONTINUOUS
 10
-3.9511585531
 20
-12.237771179099999
 30
0.0
  0
VERTEX
  5
C84
  8
0
  6
CONTINUOUS
 10
-3.9811790785999999
 20
-12.234667852599999
 30
0.0
  0
VERTEX
  5
C85
  8
0
  6
CONTINUOUS
 10
-4.006606178600002
 20
-12.23147739570001
 30
0.0
  0
VERTEX
  5
C86
  8
0
  6
CONTINUOUS
 10
-4.0270582479000012
 20
-12.2282254304
 30
0.0
  0
VERTEX
  5
C87
  8
0
  6
CONTINUOUS
 10
-4.0429168916999991
 20
-12.224886334700001
 30
0.0
  0
VERTEX
  5
C88
  8
0
  6
CONTINUOUS
 10
-4.054975591899999
 20
-12.2215892634
 30
0.0
  0
VERTEX
  5
C89
  8
0
  6
CONTINUOUS
 10
-4.0634988422999987
 20
-12.218377268399999
 30
0.0
  0
VERTEX
  5
C8A
  8
0
  6
CONTINUOUS
 10
-4.0682221491000021
 20
-12.215207297999999
 30
0.0
  0
SEQEND
  5
C8B
  8
0
  6
CONTINUOUS
  0
POLYLINE
  5
58F
  8
0
  6
CONTINUOUS
 66
     1
 10
0.0
 20
0.0
 30
0.0
  0
VERTEX
  5
C8C
  8
0
  6
CONTINUOUS
 10
-3.891650571900001
 20
-12.241837015
 30
0.0
  0
VERTEX
  5
C8D
  8
0
  6
CONTINUOUS
 10
-3.9108950074000002
 20
-12.2405111353
 30
0.0
  0
VERTEX
  5
C8E
  8
0
  6
CONTINUOUS
 10
-3.9284971342000001
 20
-12.239145749800009
 30
0.0
  0
VERTEX
  5
C8F
  8
0
  6
CONTINUOUS
 10
-3.9445521146
 20
-12.23775123690001
 30
0.0
  0
VERTEX
  5
C90
  8
0
  6
CONTINUOUS
 10
-3.959104077100001
 20
-12.2363410308
 30
0.0
  0
VERTEX
  5
C91
  8
0
  6
CONTINUOUS
 10
-3.9721860937999969
 20
-12.234929848000011
 30
0.0
  0
VERTEX
  5
C92
  8
0
  6
CONTINUOUS
 10
-3.9838607147999978
 20
-12.233529554000009
 30
0.0
  0
VERTEX
  5
C93
  8
0
  6
CONTINUOUS
 10
-3.9941942298000011
 20
-12.2321511982
 30
0.0
  0
VERTEX
  5
C94
  8
0
  6
CONTINUOUS
 10
-4.0032173883999986
 20
-12.2308109492
 30
0.0
  0
VERTEX
  5
C95
  8
0
  6
CONTINUOUS
 10
-4.0109189304999999
 20
-12.229534387899999
 30
0.0
  0
VERTEX
  5
C96
  8
0
  6
CONTINUOUS
 10
-4.0174054781999997
 20
-12.228330306
 30
0.0
  0
VERTEX
  5
C97
  8
0
  6
CONTINUOUS
 10
-4.0226747375
 20
-12.22722863029999
 30
0.0
  0
VERTEX
  5
C98
  8
0
  6
CONTINUOUS
 10
-4.0265375318999999
 20
-12.226314210100011
 30
0.0
  0
SEQEND
  5
C99
  8
0
  6
CONTINUOUS
  0
POLYLINE
  5
590
  8
0
  6
CONTINUOUS
 66
     1
 10
0.0
 20
0.0
 30
0.0
  0
VERTEX
  5
C9A
  8
0
  6
CONTINUOUS
 10
-4.0691455123000004
 20
-12.2120793521
 30
0.0
  0
VERTEX
  5
C9B
  8
0
  6
CONTINUOUS
 10
-4.0566016643999978
 20
-12.213081107800001
 30
0.0
  0
VERTEX
  5
C9C
  8
0
  6
CONTINUOUS
 10
-4.0443782086000013
 20
-12.2160607883
 30
0.0
  0
VERTEX
  5
C9D
  8
0
  6
CONTINUOUS
 10
-4.0327873537000007
 20
-12.2209422873
 30
0.0
  0
VERTEX
  5
C9E
  8
0
  6
CONTINUOUS
 10
-4.0227497036999997
 20
-12.22721088390001
 30
0.0
  0
SEQEND
  5
C9F
  8
0
  6
CONTINUOUS
  0
POLYLINE
  5
591
  8
0
  6
CONTINUOUS
 66
     1
 10
0.0
 20
0.0
 30
0.0
  0
VERTEX
  5
CA0
  8
0
  6
CONTINUOUS
 10
-4.0691455123000004
 20
-12.20521723480001
 30
0.0
  0
VERTEX
  5
CA1
  8
0
  6
CONTINUOUS
 10
-4.0566016659999979
 20
-12.206218990200011
 30
0.0
  0
VERTEX
  5
CA2
  8
0
  6
CONTINUOUS
 10
-4.0443782108999988
 20
-12.20919867020001
 30
0.0
  0
VERTEX
  5
CA3
  8
0
  6
CONTINUOUS
 10
-4.0327873558
 20
-12.214080168900001
 30
0.0
  0
VERTEX
  5
CA4
  8
0
  6
CONTINUOUS
 10
-4.0221251516000001
 20
-12.2207388046
 30
0.0
  0
VERTEX
  5
CA5
  8
0
  6
CONTINUOUS
 10
-4.0126639304999996
 20
-12.229004504100001
 30
0.0
  0
VERTEX
  5
CA6
  8
0
  6
CONTINUOUS
 10
-4.0124618625000004
 20
-12.2292479772
 30
0.0
  0
SEQEND
  5
CA7
  8
0
  6
CONTINUOUS
  0
LINE
  5
592
  8
0
  6
CONTINUOUS
 10
-4.0265375318999999
 20
-12.226314210100011
 30
0.0
 11
-4.0291714427
 21
-12.225603933
 31
0.0
  0
POLYLINE
  5
593
  8
0
  6
CONTINUOUS
 66
     1
 10
0.0
 20
0.0
 30
0.0
  0
VERTEX
  5
CA8
  8
0
  6
CONTINUOUS
 10
-24.508859415
 20
2.3276612933999981
 30
0.0
  0
VERTEX
  5
CA9
  8
0
  6
CONTINUOUS
 10
-24.5095437877
 20
2.3281239203000008
 30
0.0
  0
VERTEX
  5
CAA
  8
0
  6
CONTINUOUS
 10
-24.5108683234
 20
2.3318249351999891
 30
0.0
  0
VERTEX
  5
CAB
  8
0
  6
CONTINUOUS
 10
-24.5121457304
 20
2.3394713087999999
 30
0.0
  0
VERTEX
  5
CAC
  8
0
  6
CONTINUOUS
 10
-24.513378927600002
 20
2.3508186972999989
 30
0.0
  0
VERTEX
  5
CAD
  8
0
  6
CONTINUOUS
 10
-24.514488251300001
 20
2.365134069299998
 30
0.0
  0
VERTEX
  5
CAE
  8
0
  6
CONTINUOUS
 10
-24.5154655236
 20
2.3826133734000048
 30
0.0
  0
VERTEX
  5
CAF
  8
0
  6
CONTINUOUS
 10
-24.516318922500002
 20
2.403060660899996
 30
0.0
  0
VERTEX
  5
CB0
  8
0
  6
CONTINUOUS
 10
-24.516993319200001
 20
2.4251550550000038
 30
0.0
  0
VERTEX
  5
CB1
  8
0
  6
CONTINUOUS
 10
-24.517470337500001
 20
2.4484562634999909
 30
0.0
  0
VERTEX
  5
CB2
  8
0
  6
CONTINUOUS
 10
-24.517768353600001
 20
2.4734045784999941
 30
0.0
  0
VERTEX
  5
CB3
  8
0
  6
CONTINUOUS
 10
-24.5178873676
 20
2.5
 30
0.0
  0
SEQEND
  5
CB4
  8
0
  6
CONTINUOUS
  0
POLYLINE
  5
594
  8
0
  6
CONTINUOUS
 66
     1
 10
0.0
 20
0.0
 30
0.0
  0
VERTEX
  5
CB5
  8
0
  6
CONTINUOUS
 10
-24.508859415
 20
2.6723387067000028
 30
0.0
  0
VERTEX
  5
CB6
  8
0
  6
CONTINUOUS
 10
-24.508175042200001
 20
2.6718760797999859
 30
0.0
  0
VERTEX
  5
CB7
  8
0
  6
CONTINUOUS
 10
-24.506850506500001
 20
2.668175064899998
 30
0.0
  0
VERTEX
  5
CB8
  8
0
  6
CONTINUOUS
 10
-24.505573099500001
 20
2.660528691300001
 30
0.0
  0
VERTEX
  5
CB9
  8
0
  6
CONTINUOUS
 10
-24.504339902400002
 20
2.6491813027999882
 30
0.0
  0
VERTEX
  5
CBA
  8
0
  6
CONTINUOUS
 10
-24.5032305786
 20
2.6348659308000029
 30
0.0
  0
VERTEX
  5
CBB
  8
0
  6
CONTINUOUS
 10
-24.5022533064
 20
2.6173866266999961
 30
0.0
  0
VERTEX
  5
CBC
  8
0
  6
CONTINUOUS
 10
-24.501399907500002
 20
2.5969393391999911
 30
0.0
  0
VERTEX
  5
CBD
  8
0
  6
CONTINUOUS
 10
-24.500725510700001
 20
2.5748449449999948
 30
0.0
  0
VERTEX
  5
CBE
  8
0
  6
CONTINUOUS
 10
-24.500248492400001
 20
2.5515437365999949
 30
0.0
  0
VERTEX
  5
CBF
  8
0
  6
CONTINUOUS
 10
-24.4999504763
 20
2.5265954215999922
 30
0.0
  0
VERTEX
  5
CC0
  8
0
  6
CONTINUOUS
 10
-24.4998314624
 20
2.5
 30
0.0
  0
SEQEND
  5
CC1
  8
0
  6
CONTINUOUS
  0
LINE
  5
595
  8
0
  6
CONTINUOUS
 10
-7.4874999999999998
 20
8.8684999999999974
 30
0.0
 11
-7.4874999999999998
 21
3.089500000000001
 31
0.0
  0
LINE
  5
596
  8
0
  6
CONTINUOUS
 10
-7.4874999999999998
 20
2.8894999999999982
 30
0.0
 11
-7.4874999999999998
 21
-2.8894999999999982
 31
0.0
  0
LINE
  5
597
  8
0
  6
CONTINUOUS
 10
-7.4874999999999998
 20
-3.089500000000001
 30
0.0
 11
-7.4874999999999998
 21
-8.8685000000000045
 31
0.0
  0
LINE
  5
598
  8
0
  6
CONTINUOUS
 10
-7.2875000000000014
 20
8.8684999999999974
 30
0.0
 11
-7.2875000000000014
 21
3.089500000000001
 31
0.0
  0
LINE
  5
599
  8
0
  6
CONTINUOUS
 10
-7.2875000000000014
 20
2.8894999999999982
 30
0.0
 11
-7.2875000000000014
 21
-2.8894999999999982
 31
0.0
  0
LINE
  5
59A
  8
0
  6
CONTINUOUS
 10
-7.2875000000000014
 20
-3.089500000000001
 30
0.0
 11
-7.2875000000000014
 21
-8.8685000000000045
 31
0.0
  0
POLYLINE
  5
59B
  8
0
  6
CONTINUOUS
 66
     1
 10
0.0
 20
0.0
 30
0.0
  0
VERTEX
  5
CC2
  8
0
  6
CONTINUOUS
 10
-13.1723387066
 20
-11.383417983899999
 30
0.0
  0
VERTEX
  5
CC3
  8
0
  6
CONTINUOUS
 10
-13.171876079700001
 20
-11.382278378700001
 30
0.0
  0
VERTEX
  5
CC4
  8
0
  6
CONTINUOUS
 10
-13.1681750648
 20
-11.380072785799999
 30
0.0
  0
VERTEX
  5
CC5
  8
0
  6
CONTINUOUS
 10
-13.1605286912
 20
-11.377945670800001
 30
0.0
  0
VERTEX
  5
CC6
  8
0
  6
CONTINUOUS
 10
-13.149181302700001
 20
-11.375892173200009
 30
0.0
  0
VERTEX
  5
CC7
  8
0
  6
CONTINUOUS
 10
-13.1348659307
 20
-11.37404494730001
 30
0.0
  0
VERTEX
  5
CC8
  8
0
  6
CONTINUOUS
 10
-13.1173866266
 20
-11.372417611199999
 30
0.0
  0
VERTEX
  5
CC9
  8
0
  6
CONTINUOUS
 10
-13.0969393391
 20
-11.370996546800001
 30
0.0
  0
VERTEX
  5
CCA
  8
0
  6
CONTINUOUS
 10
-13.074844944900001
 20
-11.36987355360001
 30
0.0
  0
VERTEX
  5
CCB
  8
0
  6
CONTINUOUS
 10
-13.051543736499999
 20
-11.369079231300001
 30
0.0
  0
VERTEX
  5
CCC
  8
0
  6
CONTINUOUS
 10
-13.0265954215
 20
-11.36858298029999
 30
0.0
  0
VERTEX
  5
CCD
  8
0
  6
CONTINUOUS
 10
-13.0
 20
-11.368384800399999
 30
0.0
  0
SEQEND
  5
CCE
  8
0
  6
CONTINUOUS
  0
POLYLINE
  5
59C
  8
0
  6
CONTINUOUS
 66
     1
 10
0.0
 20
0.0
 30
0.0
  0
VERTEX
  5
CCF
  8
0
  6
CONTINUOUS
 10
-12.8276612933
 20
-11.383417983899999
 30
0.0
  0
VERTEX
  5
CD0
  8
0
  6
CONTINUOUS
 10
-12.828123920199999
 20
-11.384557589000011
 30
0.0
  0
VERTEX
  5
CD1
  8
0
  6
CONTINUOUS
 10
-12.8318249351
 20
-11.38676318190001
 30
0.0
  0
VERTEX
  5
CD2
  8
0
  6
CONTINUOUS
 10
-12.8394713087
 20
-11.388890297
 30
0.0
  0
VERTEX
  5
CD3
  8
0
  6
CONTINUOUS
 10
-12.850818697199999
 20
-11.3909437945
 30
0.0
  0
VERTEX
  5
CD4
  8
0
  6
CONTINUOUS
 10
-12.8651340692
 20
-11.392791020500001
 30
0.0
  0
VERTEX
  5
CD5
  8
0
  6
CONTINUOUS
 10
-12.8826133733
 20
-11.394418356499999
 30
0.0
  0
VERTEX
  5
CD6
  8
0
  6
CONTINUOUS
 10
-12.9030606608
 20
-11.3958394209
 30
0.0
  0
VERTEX
  5
CD7
  8
0
  6
CONTINUOUS
 10
-12.925155054999999
 20
-11.396962414200001
 30
0.0
  0
VERTEX
  5
CD8
  8
0
  6
CONTINUOUS
 10
-12.948456263400001
 20
-11.3977567364
 30
0.0
  0
VERTEX
  5
CD9
  8
0
  6
CONTINUOUS
 10
-12.9734045784
 20
-11.398252987499999
 30
0.0
  0
VERTEX
  5
CDA
  8
0
  6
CONTINUOUS
 10
-13.0
 20
-11.398451167399999
 30
0.0
  0
SEQEND
  5
CDB
  8
0
  6
CONTINUOUS
  0
POLYLINE
  5
59D
  8
0
  6
CONTINUOUS
 66
     1
 10
0.0
 20
0.0
 30
0.0
  0
VERTEX
  5
CDC
  8
0
  6
CONTINUOUS
 10
-3.4223387066000011
 20
11.17198428189999
 30
0.0
  0
VERTEX
  5
CDD
  8
0
  6
CONTINUOUS
 10
-3.4218760796999979
 20
11.173123887099999
 30
0.0
  0
VERTEX
  5
CDE
  8
0
  6
CONTINUOUS
 10
-3.4181750647999989
 20
11.1753294799
 30
0.0
  0
VERTEX
  5
CDF
  8
0
  6
CONTINUOUS
 10
-3.4105286911999988
 20
11.17745659499999
 30
0.0
  0
VERTEX
  5
CE0
  8
0
  6
CONTINUOUS
 10
-3.3991813027000002
 20
11.179510092599999
 30
0.0
  0
VERTEX
  5
CE1
  8
0
  6
CONTINUOUS
 10
-3.3848659307000011
 20
11.181357318499989
 30
0.0
  0
VERTEX
  5
CE2
  8
0
  6
CONTINUOUS
 10
-3.367386626600001
 20
11.18298465449999
 30
0.0
  0
VERTEX
  5
CE3
  8
0
  6
CONTINUOUS
 10
-3.3469393391
 20
11.18440571889999
 30
0.0
  0
VERTEX
  5
CE4
  8
0
  6
CONTINUOUS
 10
-3.3248449449000002
 20
11.185528712199989
 30
0.0
  0
VERTEX
  5
CE5
  8
0
  6
CONTINUOUS
 10
-3.3015437365000011
 20
11.18632303439999
 30
0.0
  0
VERTEX
  5
CE6
  8
0
  6
CONTINUOUS
 10
-3.276595421500001
 20
11.18681928549999
 30
0.0
  0
VERTEX
  5
CE7
  8
0
  6
CONTINUOUS
 10
-3.25
 20
11.1870174654
 30
0.0
  0
SEQEND
  5
CE8
  8
0
  6
CONTINUOUS
  0
POLYLINE
  5
59E
  8
0
  6
CONTINUOUS
 66
     1
 10
0.0
 20
0.0
 30
0.0
  0
VERTEX
  5
CE9
  8
0
  6
CONTINUOUS
 10
-3.0776612932999998
 20
11.17198428189999
 30
0.0
  0
VERTEX
  5
CEA
  8
0
  6
CONTINUOUS
 10
-3.078123920199999
 20
11.1708446767
 30
0.0
  0
VERTEX
  5
CEB
  8
0
  6
CONTINUOUS
 10
-3.0818249351000011
 20
11.1686390838
 30
0.0
  0
VERTEX
  5
CEC
  8
0
  6
CONTINUOUS
 10
-3.0894713086999981
 20
11.166511968799989
 30
0.0
  0
VERTEX
  5
CED
  8
0
  6
CONTINUOUS
 10
-3.1008186971999971
 20
11.164458471199991
 30
0.0
  0
VERTEX
  5
CEE
  8
0
  6
CONTINUOUS
 10
-3.1151340691999989
 20
11.162611245300001
 30
0.0
  0
VERTEX
  5
CEF
  8
0
  6
CONTINUOUS
 10
-3.132613373299999
 20
11.1609839092
 30
0.0
  0
VERTEX
  5
CF0
  8
0
  6
CONTINUOUS
 10
-3.1530606608000009
 20
11.159562844799989
 30
0.0
  0
VERTEX
  5
CF1
  8
0
  6
CONTINUOUS
 10
-3.1751550549999972
 20
11.15843985159999
 30
0.0
  0
VERTEX
  5
CF2
  8
0
  6
CONTINUOUS
 10
-3.1984562634000002
 20
11.157645529299989
 30
0.0
  0
VERTEX
  5
CF3
  8
0
  6
CONTINUOUS
 10
-3.2234045783999998
 20
11.1571492783
 30
0.0
  0
VERTEX
  5
CF4
  8
0
  6
CONTINUOUS
 10
-3.25
 20
11.1569510984
 30
0.0
  0
SEQEND
  5
CF5
  8
0
  6
CONTINUOUS
  0
LINE
  5
59F
  8
0
  6
CONTINUOUS
 10
-21.3125
 20
-8.8685000000000045
 30
0.0
 11
-19.307500000000001
 21
-8.8685000000000045
 31
0.0
  0
LINE
  5
5A0
  8
0
  6
CONTINUOUS
 10
-19.107500000000002
 20
-8.8685000000000045
 30
0.0
 11
-16.352499999999999
 21
-8.8685000000000045
 31
0.0
  0
LINE
  5
5A1
  8
0
  6
CONTINUOUS
 10
-16.1525
 20
-8.8685000000000045
 30
0.0
 11
-13.397500000000001
 21
-8.8685000000000045
 31
0.0
  0
LINE
  5
5A2
  8
0
  6
CONTINUOUS
 10
-13.1975
 20
-8.8685000000000045
 30
0.0
 11
-10.442500000000001
 21
-8.8685000000000045
 31
0.0
  0
LINE
  5
5A3
  8
0
  6
CONTINUOUS
 10
-10.2425
 20
-8.8685000000000045
 30
0.0
 11
-7.4874999999999998
 21
-8.8685000000000045
 31
0.0
  0
LINE
  5
5A4
  8
0
  6
CONTINUOUS
 10
-7.2875000000000014
 20
-8.8685000000000045
 30
0.0
 11
-4.532499999999998
 21
-8.8685000000000045
 31
0.0
  0
LINE
  5
5A5
  8
0
  6
CONTINUOUS
 10
-4.3324999999999987
 20
-8.8685000000000045
 30
0.0
 11
-1.5774999999999999
 21
-8.8685000000000045
 31
0.0
  0
LINE
  5
5A6
  8
0
  6
CONTINUOUS
 10
-1.3774999999999971
 20
-8.8685000000000045
 30
0.0
 11
1.3774999999999971
 21
-8.8685000000000045
 31
0.0
  0
LINE
  5
5A7
  8
0
  6
CONTINUOUS
 10
1.5774999999999999
 20
-8.8685000000000045
 30
0.0
 11
4.332499999999996
 21
-8.8685000000000045
 31
0.0
  0
LINE
  5
5A8
  8
0
  6
CONTINUOUS
 10
4.532499999999998
 20
-8.8685000000000045
 30
0.0
 11
7.2875000000000014
 21
-8.8685000000000045
 31
0.0
  0
LINE
  5
5A9
  8
0
  6
CONTINUOUS
 10
7.4874999999999972
 20
-8.8685000000000045
 30
0.0
 11
10.242499999999991
 21
-8.8685000000000045
 31
0.0
  0
LINE
  5
5AA
  8
0
  6
CONTINUOUS
 10
10.44249999999999
 20
-8.8685000000000045
 30
0.0
 11
13.1975
 21
-8.8685000000000045
 31
0.0
  0
LINE
  5
5AB
  8
0
  6
CONTINUOUS
 10
13.39749999999999
 20
-8.8685000000000045
 30
0.0
 11
16.152499999999989
 21
-8.8685000000000045
 31
0.0
  0
LINE
  5
5AC
  8
0
  6
CONTINUOUS
 10
16.352499999999999
 20
-8.8685000000000045
 30
0.0
 11
19.107500000000002
 21
-8.8685000000000045
 31
0.0
  0
LINE
  5
5AD
  8
0
  6
CONTINUOUS
 10
19.30749999999999
 20
-8.8685000000000045
 30
0.0
 11
21.3125
 21
-8.8685000000000045
 31
0.0
  0
POLYLINE
  5
5AE
  8
0
  6
CONTINUOUS
 66
     1
 10
0.0
 20
0.0
 30
0.0
  0
VERTEX
  5
CF6
  8
0
  6
CONTINUOUS
 10
-26.498088104899999
 20
-7.6723387066000006
 30
0.0
  0
VERTEX
  5
CF7
  8
0
  6
CONTINUOUS
 10
-26.504315626900009
 20
-7.6718760796999979
 30
0.0
  0
VERTEX
  5
CF8
  8
0
  6
CONTINUOUS
 10
-26.516368378399999
 20
-7.6681750648000104
 30
0.0
  0
VERTEX
  5
CF9
  8
0
  6
CONTINUOUS
 10
-26.527992277700001
 20
-7.6605286911999988
 30
0.0
  0
VERTEX
  5
CFA
  8
0
  6
CONTINUOUS
 10
-26.539213884600009
 20
-7.6491813026999997
 30
0.0
  0
VERTEX
  5
CFB
  8
0
  6
CONTINUOUS
 10
-26.549308292999999
 20
-7.6348659307000011
 30
0.0
  0
VERTEX
  5
CFC
  8
0
  6
CONTINUOUS
 10
-26.5582010844
 20
-7.6173866265999939
 30
0.0
  0
VERTEX
  5
CFD
  8
0
  6
CONTINUOUS
 10
-26.5659666773
 20
-7.5969393391000031
 30
0.0
  0
VERTEX
  5
CFE
  8
0
  6
CONTINUOUS
 10
-26.572103421200001
 20
-7.5748449449999953
 30
0.0
  0
VERTEX
  5
CFF
  8
0
  6
CONTINUOUS
 10
-26.5764440992
 20
-7.5515437365000082
 30
0.0
  0
VERTEX
  5
D00
  8
0
  6
CONTINUOUS
 10
-26.579155928199999
 20
-7.526595421500005
 30
0.0
  0
VERTEX
  5
D01
  8
0
  6
CONTINUOUS
 10
-26.580238908199998
 20
-7.5
 30
0.0
  0
SEQEND
  5
D02
  8
0
  6
CONTINUOUS
  0
POLYLINE
  5
5AF
  8
0
  6
CONTINUOUS
 66
     1
 10
0.0
 20
0.0
 30
0.0
  0
VERTEX
  5
D03
  8
0
  6
CONTINUOUS
 10
-26.498088104899999
 20
-7.3276612932999958
 30
0.0
  0
VERTEX
  5
D04
  8
0
  6
CONTINUOUS
 10
-26.491860582899999
 20
-7.3281239202000128
 30
0.0
  0
VERTEX
  5
D05
  8
0
  6
CONTINUOUS
 10
-26.479807831399999
 20
-7.3318249351000011
 30
0.0
  0
VERTEX
  5
D06
  8
0
  6
CONTINUOUS
 10
-26.468183932100001
 20
-7.3394713086999976
 30
0.0
  0
VERTEX
  5
D07
  8
0
  6
CONTINUOUS
 10
-26.456962325199999
 20
-7.3508186972000109
 30
0.0
  0
VERTEX
  5
D08
  8
0
  6
CONTINUOUS
 10
-26.446867916799999
 20
-7.3651340691999962
 30
0.0
  0
VERTEX
  5
D09
  8
0
  6
CONTINUOUS
 10
-26.437975125400001
 20
-7.3826133733000026
 30
0.0
  0
VERTEX
  5
D0A
  8
0
  6
CONTINUOUS
 10
-26.430209532500001
 20
-7.4030606608000076
 30
0.0
  0
VERTEX
  5
D0B
  8
0
  6
CONTINUOUS
 10
-26.4240727886
 20
-7.4251550550000038
 30
0.0
  0
VERTEX
  5
D0C
  8
0
  6
CONTINUOUS
 10
-26.419732110599998
 20
-7.4484562634000042
 30
0.0
  0
VERTEX
  5
D0D
  8
0
  6
CONTINUOUS
 10
-26.417020281599999
 20
-7.4734045784000074
 30
0.0
  0
VERTEX
  5
D0E
  8
0
  6
CONTINUOUS
 10
-26.4159373016
 20
-7.5
 30
0.0
  0
SEQEND
  5
D0F
  8
0
  6
CONTINUOUS
  0
POLYLINE
  5
5B0
  8
0
  6
CONTINUOUS
 66
     1
 10
0.0
 20
0.0
 30
0.0
  0
VERTEX
  5
D10
  8
0
  6
CONTINUOUS
 10
-9.9223387066000015
 20
-11.1719842818
 30
0.0
  0
VERTEX
  5
D11
  8
0
  6
CONTINUOUS
 10
-9.9218760796999987
 20
-11.1708446766
 30
0.0
  0
VERTEX
  5
D12
  8
0
  6
CONTINUOUS
 10
-9.9181750647999998
 20
-11.1686390838
 30
0.0
  0
VERTEX
  5
D13
  8
0
  6
CONTINUOUS
 10
-9.9105286911999997
 20
-11.1665119687
 30
0.0
  0
VERTEX
  5
D14
  8
0
  6
CONTINUOUS
 10
-9.8991813027000006
 20
-11.1644584711
 30
0.0
  0
VERTEX
  5
D15
  8
0
  6
CONTINUOUS
 10
-9.8848659307000002
 20
-11.162611245200001
 30
0.0
  0
VERTEX
  5
D16
  8
0
  6
CONTINUOUS
 10
-9.8673866266000019
 20
-11.1609839091
 30
0.0
  0
VERTEX
  5
D17
  8
0
  6
CONTINUOUS
 10
-9.8469393391000004
 20
-11.1595628447
 30
0.0
  0
VERTEX
  5
D18
  8
0
  6
CONTINUOUS
 10
-9.8248449449000006
 20
-11.158439851500001
 30
0.0
  0
VERTEX
  5
D19
  8
0
  6
CONTINUOUS
 10
-9.8015437365000011
 20
-11.1576455293
 30
0.0
  0
VERTEX
  5
D1A
  8
0
  6
CONTINUOUS
 10
-9.7765954215000015
 20
-11.157149278200009
 30
0.0
  0
VERTEX
  5
D1B
  8
0
  6
CONTINUOUS
 10
-9.75
 20
-11.1569510983
 30
0.0
  0
SEQEND
  5
D1C
  8
0
  6
CONTINUOUS
  0
POLYLINE
  5
5B1
  8
0
  6
CONTINUOUS
 66
     1
 10
0.0
 20
0.0
 30
0.0
  0
VERTEX
  5
D1D
  8
0
  6
CONTINUOUS
 10
-9.5776612933000003
 20
-11.1719842818
 30
0.0
  0
VERTEX
  5
D1E
  8
0
  6
CONTINUOUS
 10
-9.5781239201999995
 20
-11.173123886999999
 30
0.0
  0
VERTEX
  5
D1F
  8
0
  6
CONTINUOUS
 10
-9.5818249351000002
 20
-11.1753294798
 30
0.0
  0
VERTEX
  5
D20
  8
0
  6
CONTINUOUS
 10
-9.5894713086999985
 20
-11.177456594900001
 30
0.0
  0
VERTEX
  5
D21
  8
0
  6
CONTINUOUS
 10
-9.6008186972000011
 20
-11.179510092499999
 30
0.0
  0
VERTEX
  5
D22
  8
0
  6
CONTINUOUS
 10
-9.6151340691999998
 20
-11.1813573184
 30
0.0
  0
VERTEX
  5
D23
  8
0
  6
CONTINUOUS
 10
-9.6326133732999981
 20
-11.1829846545
 30
0.0
  0
VERTEX
  5
D24
  8
0
  6
CONTINUOUS
 10
-9.6530606608000014
 20
-11.184405718900001
 30
0.0
  0
VERTEX
  5
D25
  8
0
  6
CONTINUOUS
 10
-9.6751550550000012
 20
-11.1855287121
 30
0.0
  0
VERTEX
  5
D26
  8
0
  6
CONTINUOUS
 10
-9.6984562634000007
 20
-11.186323034300001
 30
0.0
  0
VERTEX
  5
D27
  8
0
  6
CONTINUOUS
 10
-9.7234045784000003
 20
-11.1868192854
 30
0.0
  0
VERTEX
  5
D28
  8
0
  6
CONTINUOUS
 10
-9.75
 20
-11.1870174653
 30
0.0
  0
SEQEND
  5
D29
  8
0
  6
CONTINUOUS
  0
POLYLINE
  5
5B2
  8
0
  6
CONTINUOUS
 66
     1
 10
0.0
 20
0.0
 30
0.0
  0
VERTEX
  5
D2A
  8
0
  6
CONTINUOUS
 10
-0.1723387066000015
 20
11.38341798389999
 30
0.0
  0
VERTEX
  5
D2B
  8
0
  6
CONTINUOUS
 10
-0.1718760796999987
 20
11.3845575891
 30
0.0
  0
VERTEX
  5
D2C
  8
0
  6
CONTINUOUS
 10
-0.1681750647999962
 20
11.38676318199999
 30
0.0
  0
VERTEX
  5
D2D
  8
0
  6
CONTINUOUS
 10
-0.1605286911999997
 20
11.388890296999991
 30
0.0
  0
VERTEX
  5
D2E
  8
0
  6
CONTINUOUS
 10
-0.1491813027000006
 20
11.390943794599989
 30
0.0
  0
VERTEX
  5
D2F
  8
0
  6
CONTINUOUS
 10
-0.134865930700002
 20
11.392791020500001
 30
0.0
  0
VERTEX
  5
D30
  8
0
  6
CONTINUOUS
 10
-0.1173866266000019
 20
11.394418356599999
 30
0.0
  0
VERTEX
  5
D31
  8
0
  6
CONTINUOUS
 10
-0.096939339100004
 20
11.395839420999989
 30
0.0
  0
VERTEX
  5
D32
  8
0
  6
CONTINUOUS
 10
-0.0748449449000006
 20
11.39696241429999
 30
0.0
  0
VERTEX
  5
D33
  8
0
  6
CONTINUOUS
 10
-0.0515437365000011
 20
11.3977567365
 30
0.0
  0
VERTEX
  5
D34
  8
0
  6
CONTINUOUS
 10
-0.0265954215000051
 20
11.398252987499999
 30
0.0
  0
VERTEX
  5
D35
  8
0
  6
CONTINUOUS
 10
0.0
 20
11.398451167399999
 30
0.0
  0
SEQEND
  5
D36
  8
0
  6
CONTINUOUS
  0
POLYLINE
  5
5B3
  8
0
  6
CONTINUOUS
 66
     1
 10
0.0
 20
0.0
 30
0.0
  0
VERTEX
  5
D37
  8
0
  6
CONTINUOUS
 10
-25.1891051723
 20
-5.1723387066000006
 30
0.0
  0
VERTEX
  5
D38
  8
0
  6
CONTINUOUS
 10
-25.195332694299999
 20
-5.1718760796999979
 30
0.0
  0
VERTEX
  5
D39
  8
0
  6
CONTINUOUS
 10
-25.2073854458
 20
-5.1681750648000104
 30
0.0
  0
VERTEX
  5
D3A
  8
0
  6
CONTINUOUS
 10
-25.2190093452
 20
-5.1605286911999988
 30
0.0
  0
VERTEX
  5
D3B
  8
0
  6
CONTINUOUS
 10
-25.230230951999999
 20
-5.1491813026999997
 30
0.0
  0
VERTEX
  5
D3C
  8
0
  6
CONTINUOUS
 10
-25.2403253604
 20
-5.1348659307000011
 30
0.0
  0
VERTEX
  5
D3D
  8
0
  6
CONTINUOUS
 10
-25.249218151800001
 20
-5.1173866265999939
 30
0.0
  0
VERTEX
  5
D3E
  8
0
  6
CONTINUOUS
 10
-25.256983744700001
 20
-5.0969393391000031
 30
0.0
  0
VERTEX
  5
D3F
  8
0
  6
CONTINUOUS
 10
-25.263120488599998
 20
-5.0748449449999953
 30
0.0
  0
VERTEX
  5
D40
  8
0
  6
CONTINUOUS
 10
-25.2674611666
 20
-5.0515437365000082
 30
0.0
  0
VERTEX
  5
D41
  8
0
  6
CONTINUOUS
 10
-25.270172995700001
 20
-5.026595421500005
 30
0.0
  0
VERTEX
  5
D42
  8
0
  6
CONTINUOUS
 10
-25.271255975700001
 20
-5.0
 30
0.0
  0
SEQEND
  5
D43
  8
0
  6
CONTINUOUS
  0
POLYLINE
  5
5B4
  8
0
  6
CONTINUOUS
 66
     1
 10
0.0
 20
0.0
 30
0.0
  0
VERTEX
  5
D44
  8
0
  6
CONTINUOUS
 10
-25.1891051723
 20
-4.8276612932999958
 30
0.0
  0
VERTEX
  5
D45
  8
0
  6
CONTINUOUS
 10
-25.1828776503
 20
-4.8281239202000128
 30
0.0
  0
VERTEX
  5
D46
  8
0
  6
CONTINUOUS
 10
-25.170824898900001
 20
-4.8318249351000011
 30
0.0
  0
VERTEX
  5
D47
  8
0
  6
CONTINUOUS
 10
-25.159200999500001
 20
-4.8394713086999976
 30
0.0
  0
VERTEX
  5
D48
  8
0
  6
CONTINUOUS
 10
-25.1479793926
 20
-4.8508186972000109
 30
0.0
  0
VERTEX
  5
D49
  8
0
  6
CONTINUOUS
 10
-25.137884984199999
 20
-4.8651340691999962
 30
0.0
  0
VERTEX
  5
D4A
  8
0
  6
CONTINUOUS
 10
-25.1289921929
 20
-4.8826133733000026
 30
0.0
  0
VERTEX
  5
D4B
  8
0
  6
CONTINUOUS
 10
-25.1212266
 20
-4.9030606608000076
 30
0.0
  0
VERTEX
  5
D4C
  8
0
  6
CONTINUOUS
 10
-25.115089856099999
 20
-4.9251550550000038
 30
0.0
  0
VERTEX
  5
D4D
  8
0
  6
CONTINUOUS
 10
-25.110749177999999
 20
-4.9484562634000042
 30
0.0
  0
VERTEX
  5
D4E
  8
0
  6
CONTINUOUS
 10
-25.108037349
 20
-4.9734045784000074
 30
0.0
  0
VERTEX
  5
D4F
  8
0
  6
CONTINUOUS
 10
-25.106954369
 20
-5.0
 30
0.0
  0
SEQEND
  5
D50
  8
0
  6
CONTINUOUS
  0
POLYLINE
  5
5B5
  8
0
  6
CONTINUOUS
 66
     1
 10
0.0
 20
0.0
 30
0.0
  0
VERTEX
  5
D51
  8
0
  6
CONTINUOUS
 10
-24.508859415
 20
7.3276612933999976
 30
0.0
  0
VERTEX
  5
D52
  8
0
  6
CONTINUOUS
 10
-24.5095437877
 20
7.3281239203000013
 30
0.0
  0
VERTEX
  5
D53
  8
0
  6
CONTINUOUS
 10
-24.5108683234
 20
7.3318249351999887
 30
0.0
  0
VERTEX
  5
D54
  8
0
  6
CONTINUOUS
 10
-24.5121457304
 20
7.3394713088000003
 30
0.0
  0
VERTEX
  5
D55
  8
0
  6
CONTINUOUS
 10
-24.513378927600002
 20
7.3508186972999994
 30
0.0
  0
VERTEX
  5
D56
  8
0
  6
CONTINUOUS
 10
-24.514488251300001
 20
7.365134069299998
 30
0.0
  0
VERTEX
  5
D57
  8
0
  6
CONTINUOUS
 10
-24.5154655236
 20
7.3826133734000052
 30
0.0
  0
VERTEX
  5
D58
  8
0
  6
CONTINUOUS
 10
-24.516318922500002
 20
7.403060660899996
 30
0.0
  0
VERTEX
  5
D59
  8
0
  6
CONTINUOUS
 10
-24.516993319200001
 20
7.4251550550000038
 30
0.0
  0
VERTEX
  5
D5A
  8
0
  6
CONTINUOUS
 10
-24.517470337500001
 20
7.4484562634999909
 30
0.0
  0
VERTEX
  5
D5B
  8
0
  6
CONTINUOUS
 10
-24.517768353600001
 20
7.4734045784999941
 30
0.0
  0
VERTEX
  5
D5C
  8
0
  6
CONTINUOUS
 10
-24.5178873676
 20
7.5
 30
0.0
  0
SEQEND
  5
D5D
  8
0
  6
CONTINUOUS
  0
POLYLINE
  5
5B6
  8
0
  6
CONTINUOUS
 66
     1
 10
0.0
 20
0.0
 30
0.0
  0
VERTEX
  5
D5E
  8
0
  6
CONTINUOUS
 10
-24.508859415
 20
7.6723387067000033
 30
0.0
  0
VERTEX
  5
D5F
  8
0
  6
CONTINUOUS
 10
-24.508175042200001
 20
7.6718760797999863
 30
0.0
  0
VERTEX
  5
D60
  8
0
  6
CONTINUOUS
 10
-24.506850506500001
 20
7.668175064899998
 30
0.0
  0
VERTEX
  5
D61
  8
0
  6
CONTINUOUS
 10
-24.505573099500001
 20
7.6605286913000006
 30
0.0
  0
VERTEX
  5
D62
  8
0
  6
CONTINUOUS
 10
-24.504339902400002
 20
7.6491813027999882
 30
0.0
  0
VERTEX
  5
D63
  8
0
  6
CONTINUOUS
 10
-24.5032305786
 20
7.6348659308000029
 30
0.0
  0
VERTEX
  5
D64
  8
0
  6
CONTINUOUS
 10
-24.5022533064
 20
7.6173866266999957
 30
0.0
  0
VERTEX
  5
D65
  8
0
  6
CONTINUOUS
 10
-24.501399907500002
 20
7.5969393391999906
 30
0.0
  0
VERTEX
  5
D66
  8
0
  6
CONTINUOUS
 10
-24.500725510700001
 20
7.5748449449999953
 30
0.0
  0
VERTEX
  5
D67
  8
0
  6
CONTINUOUS
 10
-24.500248492400001
 20
7.5515437365999949
 30
0.0
  0
VERTEX
  5
D68
  8
0
  6
CONTINUOUS
 10
-24.4999504763
 20
7.5265954215999917
 30
0.0
  0
VERTEX
  5
D69
  8
0
  6
CONTINUOUS
 10
-24.4998314624
 20
7.5
 30
0.0
  0
SEQEND
  5
D6A
  8
0
  6
CONTINUOUS
  0
LINE
  5
5B7
  8
0
  6
CONTINUOUS
 10
-4.0682221491000021
 20
-12.215207297999999
 30
0.0
 11
-4.0691455123000004
 21
-12.2120793521
 31
0.0
  0
LINE
  5
5B8
  8
0
  6
CONTINUOUS
 10
-4.532499999999998
 20
8.8684999999999974
 30
0.0
 11
-4.532499999999998
 21
3.089500000000001
 31
0.0
  0
LINE
  5
5B9
  8
0
  6
CONTINUOUS
 10
-4.532499999999998
 20
2.8894999999999982
 30
0.0
 11
-4.532499999999998
 21
-2.8894999999999982
 31
0.0
  0
LINE
  5
5BA
  8
0
  6
CONTINUOUS
 10
-4.532499999999998
 20
-3.089500000000001
 30
0.0
 11
-4.532499999999998
 21
-8.8685000000000045
 31
0.0
  0
LINE
  5
5BB
  8
0
  6
CONTINUOUS
 10
-4.3324999999999987
 20
8.8684999999999974
 30
0.0
 11
-4.3324999999999987
 21
3.089500000000001
 31
0.0
  0
LINE
  5
5BC
  8
0
  6
CONTINUOUS
 10
-4.3324999999999987
 20
2.8894999999999982
 30
0.0
 11
-4.3324999999999987
 21
-2.8894999999999982
 31
0.0
  0
LINE
  5
5BD
  8
0
  6
CONTINUOUS
 10
-4.3324999999999987
 20
-3.089500000000001
 30
0.0
 11
-4.3324999999999987
 21
-8.8685000000000045
 31
0.0
  0
LINE
  5
5BE
  8
0
  6
CONTINUOUS
 10
-4.0691455123000004
 20
-12.2120793521
 30
0.0
 11
-4.0691455123000004
 21
-12.20521723480001
 31
0.0
  0
LINE
  5
5BF
  8
0
  6
CONTINUOUS
 10
-3.6417322833999992
 20
-12.1679686464
 30
0.0
 11
-3.6417322833999992
 21
-12.2490283576
 31
0.0
  0
POLYLINE
  5
5C0
  8
0
  6
CONTINUOUS
 66
     1
 10
0.0
 20
0.0
 30
0.0
  0
VERTEX
  5
D6B
  8
0
  6
CONTINUOUS
 10
0.1723387066999962
 20
11.38341798389999
 30
0.0
  0
VERTEX
  5
D6C
  8
0
  6
CONTINUOUS
 10
0.1718760798000005
 20
11.38227837879999
 30
0.0
  0
VERTEX
  5
D6D
  8
0
  6
CONTINUOUS
 10
0.168175064899998
 20
11.380072785899991
 30
0.0
  0
VERTEX
  5
D6E
  8
0
  6
CONTINUOUS
 10
0.1605286913000015
 20
11.377945670800001
 30
0.0
  0
VERTEX
  5
D6F
  8
0
  6
CONTINUOUS
 10
0.1491813028000024
 20
11.3758921733
 30
0.0
  0
VERTEX
  5
D70
  8
0
  6
CONTINUOUS
 10
0.1348659308000037
 20
11.374044947299989
 30
0.0
  0
VERTEX
  5
D71
  8
0
  6
CONTINUOUS
 10
0.1173866266999965
 20
11.372417611299991
 30
0.0
  0
VERTEX
  5
D72
  8
0
  6
CONTINUOUS
 10
0.0969393391999987
 20
11.37099654689999
 30
0.0
  0
VERTEX
  5
D73
  8
0
  6
CONTINUOUS
 10
0.0748449450000024
 20
11.36987355359998
 30
0.0
  0
VERTEX
  5
D74
  8
0
  6
CONTINUOUS
 10
0.0515437365999958
 20
11.36907923139999
 30
0.0
  0
VERTEX
  5
D75
  8
0
  6
CONTINUOUS
 10
0.0265954215999997
 20
11.36858298029999
 30
0.0
  0
VERTEX
  5
D76
  8
0
  6
CONTINUOUS
 10
0.0
 20
11.368384800399991
 30
0.0
  0
SEQEND
  5
D77
  8
0
  6
CONTINUOUS
  0
POLYLINE
  5
5C1
  8
0
  6
CONTINUOUS
 66
     1
 10
0.0
 20
0.0
 30
0.0
  0
VERTEX
  5
D78
  8
0
  6
CONTINUOUS
 10
-6.6723387066000006
 20
-11.383417983899999
 30
0.0
  0
VERTEX
  5
D79
  8
0
  6
CONTINUOUS
 10
-6.6718760796999979
 20
-11.382278378700001
 30
0.0
  0
VERTEX
  5
D7A
  8
0
  6
CONTINUOUS
 10
-6.6681750647999989
 20
-11.380072785799999
 30
0.0
  0
VERTEX
  5
D7B
  8
0
  6
CONTINUOUS
 10
-6.6605286911999988
 20
-11.377945670800001
 30
0.0
  0
VERTEX
  5
D7C
  8
0
  6
CONTINUOUS
 10
-6.6491813026999997
 20
-11.375892173200009
 30
0.0
  0
VERTEX
  5
D7D
  8
0
  6
CONTINUOUS
 10
-6.6348659307000011
 20
-11.37404494730001
 30
0.0
  0
VERTEX
  5
D7E
  8
0
  6
CONTINUOUS
 10
-6.617386626600001
 20
-11.372417611199999
 30
0.0
  0
VERTEX
  5
D7F
  8
0
  6
CONTINUOUS
 10
-6.5969393391000004
 20
-11.370996546800001
 30
0.0
  0
VERTEX
  5
D80
  8
0
  6
CONTINUOUS
 10
-6.5748449448999997
 20
-11.36987355360001
 30
0.0
  0
VERTEX
  5
D81
  8
0
  6
CONTINUOUS
 10
-6.5515437365000011
 20
-11.369079231300001
 30
0.0
  0
VERTEX
  5
D82
  8
0
  6
CONTINUOUS
 10
-6.5265954214999971
 20
-11.36858298029999
 30
0.0
  0
VERTEX
  5
D83
  8
0
  6
CONTINUOUS
 10
-6.5
 20
-11.368384800399999
 30
0.0
  0
SEQEND
  5
D84
  8
0
  6
CONTINUOUS
  0
POLYLINE
  5
5C2
  8
0
  6
CONTINUOUS
 66
     1
 10
0.0
 20
0.0
 30
0.0
  0
VERTEX
  5
D85
  8
0
  6
CONTINUOUS
 10
26.498088105000001
 20
-7.6723387066000006
 30
0.0
  0
VERTEX
  5
D86
  8
0
  6
CONTINUOUS
 10
26.491860583000001
 20
-7.6718760796999979
 30
0.0
  0
VERTEX
  5
D87
  8
0
  6
CONTINUOUS
 10
26.479807831500001
 20
-7.6681750648000104
 30
0.0
  0
VERTEX
  5
D88
  8
0
  6
CONTINUOUS
 10
26.468183932199999
 20
-7.6605286911999988
 30
0.0
  0
VERTEX
  5
D89
  8
0
  6
CONTINUOUS
 10
26.456962325300001
 20
-7.6491813026999997
 30
0.0
  0
VERTEX
  5
D8A
  8
0
  6
CONTINUOUS
 10
26.4468679169
 20
-7.6348659307000011
 30
0.0
  0
VERTEX
  5
D8B
  8
0
  6
CONTINUOUS
 10
26.4379751255
 20
-7.6173866265999939
 30
0.0
  0
VERTEX
  5
D8C
  8
0
  6
CONTINUOUS
 10
26.43020953260001
 20
-7.5969393391000031
 30
0.0
  0
VERTEX
  5
D8D
  8
0
  6
CONTINUOUS
 10
26.424072788699998
 20
-7.5748449449999953
 30
0.0
  0
VERTEX
  5
D8E
  8
0
  6
CONTINUOUS
 10
26.4197321107
 20
-7.5515437365000082
 30
0.0
  0
VERTEX
  5
D8F
  8
0
  6
CONTINUOUS
 10
26.417020281700001
 20
-7.526595421500005
 30
0.0
  0
VERTEX
  5
D90
  8
0
  6
CONTINUOUS
 10
26.415937301700001
 20
-7.5
 30
0.0
  0
SEQEND
  5
D91
  8
0
  6
CONTINUOUS
  0
POLYLINE
  5
5C3
  8
0
  6
CONTINUOUS
 66
     1
 10
0.0
 20
0.0
 30
0.0
  0
VERTEX
  5
D92
  8
0
  6
CONTINUOUS
 10
26.498088105000001
 20
-7.3276612932999958
 30
0.0
  0
VERTEX
  5
D93
  8
0
  6
CONTINUOUS
 10
26.504315627000011
 20
-7.3281239202000128
 30
0.0
  0
VERTEX
  5
D94
  8
0
  6
CONTINUOUS
 10
26.516368378500012
 20
-7.3318249351000011
 30
0.0
  0
VERTEX
  5
D95
  8
0
  6
CONTINUOUS
 10
26.527992277799999
 20
-7.3394713086999976
 30
0.0
  0
VERTEX
  5
D96
  8
0
  6
CONTINUOUS
 10
26.539213884700011
 20
-7.3508186972000109
 30
0.0
  0
VERTEX
  5
D97
  8
0
  6
CONTINUOUS
 10
26.549308293100001
 20
-7.3651340691999962
 30
0.0
  0
VERTEX
  5
D98
  8
0
  6
CONTINUOUS
 10
26.558201084499999
 20
-7.3826133733000026
 30
0.0
  0
VERTEX
  5
D99
  8
0
  6
CONTINUOUS
 10
26.565966677399999
 20
-7.4030606608000076
 30
0.0
  0
VERTEX
  5
D9A
  8
0
  6
CONTINUOUS
 10
26.5721034213
 20
-7.4251550550000038
 30
0.0
  0
VERTEX
  5
D9B
  8
0
  6
CONTINUOUS
 10
26.576444099300002
 20
-7.4484562634000042
 30
0.0
  0
VERTEX
  5
D9C
  8
0
  6
CONTINUOUS
 10
26.579155928300011
 20
-7.4734045784000074
 30
0.0
  0
VERTEX
  5
D9D
  8
0
  6
CONTINUOUS
 10
26.5802389083
 20
-7.5
 30
0.0
  0
SEQEND
  5
D9E
  8
0
  6
CONTINUOUS
  0
LINE
  5
5C4
  8
0
  6
CONTINUOUS
 10
-1.5774999999999999
 20
8.8684999999999974
 30
0.0
 11
-1.5774999999999999
 21
3.089500000000001
 31
0.0
  0
LINE
  5
5C5
  8
0
  6
CONTINUOUS
 10
-1.5774999999999999
 20
-3.089500000000001
 30
0.0
 11
-1.5774999999999999
 21
-8.8685000000000045
 31
0.0
  0
LINE
  5
5C6
  8
0
  6
CONTINUOUS
 10
-1.3774999999999971
 20
8.8684999999999974
 30
0.0
 11
-1.3774999999999971
 21
3.127382826799987
 31
0.0
  0
LINE
  5
5C7
  8
0
  6
CONTINUOUS
 10
-1.3774999999999971
 20
-3.127382826699999
 30
0.0
 11
-1.3774999999999971
 21
-8.8685000000000045
 31
0.0
  0
POLYLINE
  5
5C8
  8
0
  6
CONTINUOUS
 66
     1
 10
0.0
 20
0.0
 30
0.0
  0
VERTEX
  5
D9F
  8
0
  6
CONTINUOUS
 10
-6.3276612933000003
 20
-11.383417983899999
 30
0.0
  0
VERTEX
  5
DA0
  8
0
  6
CONTINUOUS
 10
-6.3281239201999986
 20
-11.384557589000011
 30
0.0
  0
VERTEX
  5
DA1
  8
0
  6
CONTINUOUS
 10
-6.3318249351000011
 20
-11.38676318190001
 30
0.0
  0
VERTEX
  5
DA2
  8
0
  6
CONTINUOUS
 10
-6.3394713086999976
 20
-11.388890297
 30
0.0
  0
VERTEX
  5
DA3
  8
0
  6
CONTINUOUS
 10
-6.3508186972000011
 20
-11.3909437945
 30
0.0
  0
VERTEX
  5
DA4
  8
0
  6
CONTINUOUS
 10
-6.3651340691999989
 20
-11.392791020500001
 30
0.0
  0
VERTEX
  5
DA5
  8
0
  6
CONTINUOUS
 10
-6.382613373299999
 20
-11.394418356499999
 30
0.0
  0
VERTEX
  5
DA6
  8
0
  6
CONTINUOUS
 10
-6.4030606608000014
 20
-11.3958394209
 30
0.0
  0
VERTEX
  5
DA7
  8
0
  6
CONTINUOUS
 10
-6.4251550550000012
 20
-11.396962414200001
 30
0.0
  0
VERTEX
  5
DA8
  8
0
  6
CONTINUOUS
 10
-6.4484562633999998
 20
-11.3977567364
 30
0.0
  0
VERTEX
  5
DA9
  8
0
  6
CONTINUOUS
 10
-6.4734045784000003
 20
-11.398252987499999
 30
0.0
  0
VERTEX
  5
DAA
  8
0
  6
CONTINUOUS
 10
-6.5
 20
-11.398451167399999
 30
0.0
  0
SEQEND
  5
DAB
  8
0
  6
CONTINUOUS
  0
POLYLINE
  5
5C9
  8
0
  6
CONTINUOUS
 66
     1
 10
0.0
 20
0.0
 30
0.0
  0
VERTEX
  5
DAC
  8
0
  6
CONTINUOUS
 10
3.0776612933999981
 20
11.17198428189999
 30
0.0
  0
VERTEX
  5
DAD
  8
0
  6
CONTINUOUS
 10
3.0781239203000008
 20
11.173123887099999
 30
0.0
  0
VERTEX
  5
DAE
  8
0
  6
CONTINUOUS
 10
3.0818249352000029
 20
11.1753294799
 30
0.0
  0
VERTEX
  5
DAF
  8
0
  6
CONTINUOUS
 10
3.0894713087999999
 20
11.17745659499999
 30
0.0
  0
VERTEX
  5
DB0
  8
0
  6
CONTINUOUS
 10
3.1008186972999989
 20
11.179510092599999
 30
0.0
  0
VERTEX
  5
DB1
  8
0
  6
CONTINUOUS
 10
3.115134069299998
 20
11.181357318499989
 30
0.0
  0
VERTEX
  5
DB2
  8
0
  6
CONTINUOUS
 10
3.1326133733999981
 20
11.18298465449999
 30
0.0
  0
VERTEX
  5
DB3
  8
0
  6
CONTINUOUS
 10
3.153060660899996
 20
11.18440571889999
 30
0.0
  0
VERTEX
  5
DB4
  8
0
  6
CONTINUOUS
 10
3.175155055099999
 20
11.185528712199989
 30
0.0
  0
VERTEX
  5
DB5
  8
0
  6
CONTINUOUS
 10
3.198456263499998
 20
11.18632303439999
 30
0.0
  0
VERTEX
  5
DB6
  8
0
  6
CONTINUOUS
 10
3.2234045784999941
 20
11.18681928549999
 30
0.0
  0
VERTEX
  5
DB7
  8
0
  6
CONTINUOUS
 10
3.25
 20
11.1870174654
 30
0.0
  0
SEQEND
  5
DB8
  8
0
  6
CONTINUOUS
  0
POLYLINE
  5
5CA
  8
0
  6
CONTINUOUS
 66
     1
 10
0.0
 20
0.0
 30
0.0
  0
VERTEX
  5
DB9
  8
0
  6
CONTINUOUS
 10
3.4223387066999962
 20
11.17198428189999
 30
0.0
  0
VERTEX
  5
DBA
  8
0
  6
CONTINUOUS
 10
3.4218760798000001
 20
11.1708446767
 30
0.0
  0
VERTEX
  5
DBB
  8
0
  6
CONTINUOUS
 10
3.418175064899998
 20
11.1686390838
 30
0.0
  0
VERTEX
  5
DBC
  8
0
  6
CONTINUOUS
 10
3.410528691300001
 20
11.166511968799989
 30
0.0
  0
VERTEX
  5
DBD
  8
0
  6
CONTINUOUS
 10
3.399181302800002
 20
11.164458471199991
 30
0.0
  0
VERTEX
  5
DBE
  8
0
  6
CONTINUOUS
 10
3.3848659308000029
 20
11.162611245300001
 30
0.0
  0
VERTEX
  5
DBF
  8
0
  6
CONTINUOUS
 10
3.3673866266999961
 20
11.1609839092
 30
0.0
  0
VERTEX
  5
DC0
  8
0
  6
CONTINUOUS
 10
3.3469393391999982
 20
11.159562844799989
 30
0.0
  0
VERTEX
  5
DC1
  8
0
  6
CONTINUOUS
 10
3.3248449450000019
 20
11.15843985159999
 30
0.0
  0
VERTEX
  5
DC2
  8
0
  6
CONTINUOUS
 10
3.3015437365999949
 20
11.157645529299989
 30
0.0
  0
VERTEX
  5
DC3
  8
0
  6
CONTINUOUS
 10
3.2765954215999988
 20
11.1571492783
 30
0.0
  0
VERTEX
  5
DC4
  8
0
  6
CONTINUOUS
 10
3.25
 20
11.1569510984
 30
0.0
  0
SEQEND
  5
DC5
  8
0
  6
CONTINUOUS
  0
LINE
  5
5CB
  8
0
  6
CONTINUOUS
 10
-22.0625
 20
-3.089500000000001
 30
0.0
 11
-19.307500000000001
 21
-3.089500000000001
 31
0.0
  0
LINE
  5
5CC
  8
0
  6
CONTINUOUS
 10
-19.107500000000002
 20
-3.089500000000001
 30
0.0
 11
-16.352499999999999
 21
-3.089500000000001
 31
0.0
  0
LINE
  5
5CD
  8
0
  6
CONTINUOUS
 10
-16.1525
 20
-3.089500000000001
 30
0.0
 11
-13.397500000000001
 21
-3.089500000000001
 31
0.0
  0
LINE
  5
5CE
  8
0
  6
CONTINUOUS
 10
-13.1975
 20
-3.089500000000001
 30
0.0
 11
-10.442500000000001
 21
-3.089500000000001
 31
0.0
  0
LINE
  5
5CF
  8
0
  6
CONTINUOUS
 10
-10.2425
 20
-3.089500000000001
 30
0.0
 11
-7.4874999999999998
 21
-3.089500000000001
 31
0.0
  0
LINE
  5
5D0
  8
0
  6
CONTINUOUS
 10
-7.2875000000000014
 20
-3.089500000000001
 30
0.0
 11
-4.532499999999998
 21
-3.089500000000001
 31
0.0
  0
LINE
  5
5D1
  8
0
  6
CONTINUOUS
 10
-4.3324999999999987
 20
-3.089500000000001
 30
0.0
 11
-1.5774999999999999
 21
-3.089500000000001
 31
0.0
  0
LINE
  5
5D2
  8
0
  6
CONTINUOUS
 10
1.5774999999999999
 20
-3.089500000000001
 30
0.0
 11
4.332499999999996
 21
-3.089500000000001
 31
0.0
  0
LINE
  5
5D3
  8
0
  6
CONTINUOUS
 10
4.532499999999998
 20
-3.089500000000001
 30
0.0
 11
7.2875000000000014
 21
-3.089500000000001
 31
0.0
  0
LINE
  5
5D4
  8
0
  6
CONTINUOUS
 10
7.4874999999999972
 20
-3.089500000000001
 30
0.0
 11
10.242499999999991
 21
-3.089500000000001
 31
0.0
  0
LINE
  5
5D5
  8
0
  6
CONTINUOUS
 10
10.44249999999999
 20
-3.089500000000001
 30
0.0
 11
13.1975
 21
-3.089500000000001
 31
0.0
  0
LINE
  5
5D6
  8
0
  6
CONTINUOUS
 10
13.39749999999999
 20
-3.089500000000001
 30
0.0
 11
16.152499999999989
 21
-3.089500000000001
 31
0.0
  0
LINE
  5
5D7
  8
0
  6
CONTINUOUS
 10
16.352499999999999
 20
-3.089500000000001
 30
0.0
 11
19.107500000000002
 21
-3.089500000000001
 31
0.0
  0
LINE
  5
5D8
  8
0
  6
CONTINUOUS
 10
19.30749999999999
 20
-3.089500000000001
 30
0.0
 11
22.0625
 21
-3.089500000000001
 31
0.0
  0
LINE
  5
5D9
  8
0
  6
CONTINUOUS
 10
-22.0625
 20
-2.8894999999999982
 30
0.0
 11
-19.307500000000001
 21
-2.8894999999999982
 31
0.0
  0
LINE
  5
5DA
  8
0
  6
CONTINUOUS
 10
-19.107500000000002
 20
-2.8894999999999982
 30
0.0
 11
-16.352499999999999
 21
-2.8894999999999982
 31
0.0
  0
LINE
  5
5DB
  8
0
  6
CONTINUOUS
 10
-16.1525
 20
-2.8894999999999982
 30
0.0
 11
-13.397500000000001
 21
-2.8894999999999982
 31
0.0
  0
LINE
  5
5DC
  8
0
  6
CONTINUOUS
 10
-13.1975
 20
-2.8894999999999982
 30
0.0
 11
-10.442500000000001
 21
-2.8894999999999982
 31
0.0
  0
LINE
  5
5DD
  8
0
  6
CONTINUOUS
 10
-10.2425
 20
-2.8894999999999982
 30
0.0
 11
-7.4874999999999998
 21
-2.8894999999999982
 31
0.0
  0
LINE
  5
5DE
  8
0
  6
CONTINUOUS
 10
-7.2875000000000014
 20
-2.8894999999999982
 30
0.0
 11
-4.532499999999998
 21
-2.8894999999999982
 31
0.0
  0
LINE
  5
5DF
  8
0
  6
CONTINUOUS
 10
-4.3324999999999987
 20
-2.8894999999999982
 30
0.0
 11
-1.8245052329000011
 21
-2.8894999999999982
 31
0.0
  0
LINE
  5
5E0
  8
0
  6
CONTINUOUS
 10
1.824505232999996
 20
-2.8894999999999982
 30
0.0
 11
4.332499999999996
 21
-2.8894999999999982
 31
0.0
  0
LINE
  5
5E1
  8
0
  6
CONTINUOUS
 10
4.532499999999998
 20
-2.8894999999999982
 30
0.0
 11
7.2875000000000014
 21
-2.8894999999999982
 31
0.0
  0
LINE
  5
5E2
  8
0
  6
CONTINUOUS
 10
7.4874999999999972
 20
-2.8894999999999982
 30
0.0
 11
10.242499999999991
 21
-2.8894999999999982
 31
0.0
  0
LINE
  5
5E3
  8
0
  6
CONTINUOUS
 10
10.44249999999999
 20
-2.8894999999999982
 30
0.0
 11
13.1975
 21
-2.8894999999999982
 31
0.0
  0
LINE
  5
5E4
  8
0
  6
CONTINUOUS
 10
13.39749999999999
 20
-2.8894999999999982
 30
0.0
 11
16.152499999999989
 21
-2.8894999999999982
 31
0.0
  0
LINE
  5
5E5
  8
0
  6
CONTINUOUS
 10
16.352499999999999
 20
-2.8894999999999982
 30
0.0
 11
19.107500000000002
 21
-2.8894999999999982
 31
0.0
  0
LINE
  5
5E6
  8
0
  6
CONTINUOUS
 10
19.30749999999999
 20
-2.8894999999999982
 30
0.0
 11
22.0625
 21
-2.8894999999999982
 31
0.0
  0
POLYLINE
  5
5E7
  8
0
  6
CONTINUOUS
 66
     1
 10
0.0
 20
0.0
 30
0.0
  0
VERTEX
  5
DC6
  8
0
  6
CONTINUOUS
 10
25.189105172400001
 20
-5.1723387066000006
 30
0.0
  0
VERTEX
  5
DC7
  8
0
  6
CONTINUOUS
 10
25.182877650399998
 20
-5.1718760796999979
 30
0.0
  0
VERTEX
  5
DC8
  8
0
  6
CONTINUOUS
 10
25.170824898999999
 20
-5.1681750648000104
 30
0.0
  0
VERTEX
  5
DC9
  8
0
  6
CONTINUOUS
 10
25.159200999599999
 20
-5.1605286911999988
 30
0.0
  0
VERTEX
  5
DCA
  8
0
  6
CONTINUOUS
 10
25.147979392700002
 20
-5.1491813026999997
 30
0.0
  0
VERTEX
  5
DCB
  8
0
  6
CONTINUOUS
 10
25.137884984300001
 20
-5.1348659307000011
 30
0.0
  0
VERTEX
  5
DCC
  8
0
  6
CONTINUOUS
 10
25.128992192999998
 20
-5.1173866265999939
 30
0.0
  0
VERTEX
  5
DCD
  8
0
  6
CONTINUOUS
 10
25.121226600100002
 20
-5.0969393391000031
 30
0.0
  0
VERTEX
  5
DCE
  8
0
  6
CONTINUOUS
 10
25.115089856200001
 20
-5.0748449449999953
 30
0.0
  0
VERTEX
  5
DCF
  8
0
  6
CONTINUOUS
 10
25.110749178100001
 20
-5.0515437365000082
 30
0.0
  0
VERTEX
  5
DD0
  8
0
  6
CONTINUOUS
 10
25.108037349100002
 20
-5.026595421500005
 30
0.0
  0
VERTEX
  5
DD1
  8
0
  6
CONTINUOUS
 10
25.106954369099999
 20
-5.0
 30
0.0
  0
SEQEND
  5
DD2
  8
0
  6
CONTINUOUS
  0
POLYLINE
  5
5E8
  8
0
  6
CONTINUOUS
 66
     1
 10
0.0
 20
0.0
 30
0.0
  0
VERTEX
  5
DD3
  8
0
  6
CONTINUOUS
 10
25.189105172400001
 20
-4.8276612932999958
 30
0.0
  0
VERTEX
  5
DD4
  8
0
  6
CONTINUOUS
 10
25.195332694400001
 20
-4.8281239202000128
 30
0.0
  0
VERTEX
  5
DD5
  8
0
  6
CONTINUOUS
 10
25.207385445900002
 20
-4.8318249351000011
 30
0.0
  0
VERTEX
  5
DD6
  8
0
  6
CONTINUOUS
 10
25.219009345300002
 20
-4.8394713086999976
 30
0.0
  0
VERTEX
  5
DD7
  8
0
  6
CONTINUOUS
 10
25.230230952100001
 20
-4.8508186972000109
 30
0.0
  0
VERTEX
  5
DD8
  8
0
  6
CONTINUOUS
 10
25.240325360500002
 20
-4.8651340691999962
 30
0.0
  0
VERTEX
  5
DD9
  8
0
  6
CONTINUOUS
 10
25.249218151899999
 20
-4.8826133733000026
 30
0.0
  0
VERTEX
  5
DDA
  8
0
  6
CONTINUOUS
 10
25.256983744799999
 20
-4.9030606608000076
 30
0.0
  0
VERTEX
  5
DDB
  8
0
  6
CONTINUOUS
 10
25.2631204887
 20
-4.9251550550000038
 30
0.0
  0
VERTEX
  5
DDC
  8
0
  6
CONTINUOUS
 10
25.267461166699999
 20
-4.9484562634000042
 30
0.0
  0
VERTEX
  5
DDD
  8
0
  6
CONTINUOUS
 10
25.27017299580001
 20
-4.9734045784000074
 30
0.0
  0
VERTEX
  5
DDE
  8
0
  6
CONTINUOUS
 10
25.271255975799999
 20
-5.0
 30
0.0
  0
SEQEND
  5
DDF
  8
0
  6
CONTINUOUS
  0
POLYLINE
  5
5E9
  8
0
  6
CONTINUOUS
 66
     1
 10
0.0
 20
0.0
 30
0.0
  0
VERTEX
  5
DE0
  8
0
  6
CONTINUOUS
 10
-25.1891051723
 20
-0.1723387066000015
 30
0.0
  0
VERTEX
  5
DE1
  8
0
  6
CONTINUOUS
 10
-25.195332694299999
 20
-0.1718760796999987
 30
0.0
  0
VERTEX
  5
DE2
  8
0
  6
CONTINUOUS
 10
-25.2073854458
 20
-0.1681750648000104
 30
0.0
  0
VERTEX
  5
DE3
  8
0
  6
CONTINUOUS
 10
-25.2190093452
 20
-0.1605286911999997
 30
0.0
  0
VERTEX
  5
DE4
  8
0
  6
CONTINUOUS
 10
-25.230230951999999
 20
-0.1491813027000006
 30
0.0
  0
VERTEX
  5
DE5
  8
0
  6
CONTINUOUS
 10
-25.2403253604
 20
-0.134865930700002
 30
0.0
  0
VERTEX
  5
DE6
  8
0
  6
CONTINUOUS
 10
-25.249218151800001
 20
-0.1173866265999948
 30
0.0
  0
VERTEX
  5
DE7
  8
0
  6
CONTINUOUS
 10
-25.256983744700001
 20
-0.096939339100004
 30
0.0
  0
VERTEX
  5
DE8
  8
0
  6
CONTINUOUS
 10
-25.263120488599998
 20
-0.0748449449999953
 30
0.0
  0
VERTEX
  5
DE9
  8
0
  6
CONTINUOUS
 10
-25.2674611666
 20
-0.0515437365000082
 30
0.0
  0
VERTEX
  5
DEA
  8
0
  6
CONTINUOUS
 10
-25.270172995700001
 20
-0.0265954215000051
 30
0.0
  0
VERTEX
  5
DEB
  8
0
  6
CONTINUOUS
 10
-25.271255975700001
 20
0.0
 30
0.0
  0
SEQEND
  5
DEC
  8
0
  6
CONTINUOUS
  0
POLYLINE
  5
5EA
  8
0
  6
CONTINUOUS
 66
     1
 10
0.0
 20
0.0
 30
0.0
  0
VERTEX
  5
DED
  8
0
  6
CONTINUOUS
 10
-25.1891051723
 20
0.1723387067000033
 30
0.0
  0
VERTEX
  5
DEE
  8
0
  6
CONTINUOUS
 10
-25.1828776503
 20
0.1718760797999863
 30
0.0
  0
VERTEX
  5
DEF
  8
0
  6
CONTINUOUS
 10
-25.170824898900001
 20
0.168175064899998
 30
0.0
  0
VERTEX
  5
DF0
  8
0
  6
CONTINUOUS
 10
-25.159200999500001
 20
0.1605286913000015
 30
0.0
  0
VERTEX
  5
DF1
  8
0
  6
CONTINUOUS
 10
-25.1479793926
 20
0.1491813027999882
 30
0.0
  0
VERTEX
  5
DF2
  8
0
  6
CONTINUOUS
 10
-25.137884984199999
 20
0.1348659308000037
 30
0.0
  0
VERTEX
  5
DF3
  8
0
  6
CONTINUOUS
 10
-25.1289921929
 20
0.1173866266999965
 30
0.0
  0
VERTEX
  5
DF4
  8
0
  6
CONTINUOUS
 10
-25.1212266
 20
0.0969393391999916
 30
0.0
  0
VERTEX
  5
DF5
  8
0
  6
CONTINUOUS
 10
-25.115089856099999
 20
0.0748449449999953
 30
0.0
  0
VERTEX
  5
DF6
  8
0
  6
CONTINUOUS
 10
-25.110749177999999
 20
0.0515437365999958
 30
0.0
  0
VERTEX
  5
DF7
  8
0
  6
CONTINUOUS
 10
-25.108037349
 20
0.0265954215999926
 30
0.0
  0
VERTEX
  5
DF8
  8
0
  6
CONTINUOUS
 10
-25.106954369
 20
0.0
 30
0.0
  0
SEQEND
  5
DF9
  8
0
  6
CONTINUOUS
  0
LINE
  5
5EB
  8
0
  6
CONTINUOUS
 10
1.3774999999999971
 20
-8.8685000000000045
 30
0.0
 11
1.3774999999999971
 21
-3.127382826699999
 31
0.0
  0
LINE
  5
5EC
  8
0
  6
CONTINUOUS
 10
1.3774999999999971
 20
3.127382826799987
 30
0.0
 11
1.3774999999999971
 21
8.8684999999999974
 31
0.0
  0
LINE
  5
5ED
  8
0
  6
CONTINUOUS
 10
1.5774999999999999
 20
-8.8685000000000045
 30
0.0
 11
1.5774999999999999
 21
-3.089500000000001
 31
0.0
  0
LINE
  5
5EE
  8
0
  6
CONTINUOUS
 10
1.5774999999999999
 20
3.089500000000001
 30
0.0
 11
1.5774999999999999
 21
8.8684999999999974
 31
0.0
  0
POLYLINE
  5
5EF
  8
0
  6
CONTINUOUS
 66
     1
 10
0.0
 20
0.0
 30
0.0
  0
VERTEX
  5
DFA
  8
0
  6
CONTINUOUS
 10
-3.4223387066000011
 20
-11.1719842818
 30
0.0
  0
VERTEX
  5
DFB
  8
0
  6
CONTINUOUS
 10
-3.4218760796999979
 20
-11.1708446766
 30
0.0
  0
VERTEX
  5
DFC
  8
0
  6
CONTINUOUS
 10
-3.4181750647999989
 20
-11.1686390838
 30
0.0
  0
VERTEX
  5
DFD
  8
0
  6
CONTINUOUS
 10
-3.4105286911999988
 20
-11.1665119687
 30
0.0
  0
VERTEX
  5
DFE
  8
0
  6
CONTINUOUS
 10
-3.3991813027000002
 20
-11.1644584711
 30
0.0
  0
VERTEX
  5
DFF
  8
0
  6
CONTINUOUS
 10
-3.3848659307000011
 20
-11.162611245200001
 30
0.0
  0
VERTEX
  5
E00
  8
0
  6
CONTINUOUS
 10
-3.367386626600001
 20
-11.1609839091
 30
0.0
  0
VERTEX
  5
E01
  8
0
  6
CONTINUOUS
 10
-3.3469393391
 20
-11.1595628447
 30
0.0
  0
VERTEX
  5
E02
  8
0
  6
CONTINUOUS
 10
-3.3248449449000002
 20
-11.158439851500001
 30
0.0
  0
VERTEX
  5
E03
  8
0
  6
CONTINUOUS
 10
-3.3015437365000011
 20
-11.1576455293
 30
0.0
  0
VERTEX
  5
E04
  8
0
  6
CONTINUOUS
 10
-3.276595421500001
 20
-11.157149278200009
 30
0.0
  0
VERTEX
  5
E05
  8
0
  6
CONTINUOUS
 10
-3.25
 20
-11.1569510983
 30
0.0
  0
SEQEND
  5
E06
  8
0
  6
CONTINUOUS
  0
POLYLINE
  5
5F0
  8
0
  6
CONTINUOUS
 66
     1
 10
0.0
 20
0.0
 30
0.0
  0
VERTEX
  5
E07
  8
0
  6
CONTINUOUS
 10
-3.0776612932999998
 20
-11.1719842818
 30
0.0
  0
VERTEX
  5
E08
  8
0
  6
CONTINUOUS
 10
-3.078123920199999
 20
-11.173123886999999
 30
0.0
  0
VERTEX
  5
E09
  8
0
  6
CONTINUOUS
 10
-3.0818249351000011
 20
-11.1753294798
 30
0.0
  0
VERTEX
  5
E0A
  8
0
  6
CONTINUOUS
 10
-3.0894713086999981
 20
-11.177456594900001
 30
0.0
  0
VERTEX
  5
E0B
  8
0
  6
CONTINUOUS
 10
-3.1008186971999971
 20
-11.179510092499999
 30
0.0
  0
VERTEX
  5
E0C
  8
0
  6
CONTINUOUS
 10
-3.1151340691999989
 20
-11.1813573184
 30
0.0
  0
VERTEX
  5
E0D
  8
0
  6
CONTINUOUS
 10
-3.132613373299999
 20
-11.1829846545
 30
0.0
  0
VERTEX
  5
E0E
  8
0
  6
CONTINUOUS
 10
-3.1530606608000009
 20
-11.184405718900001
 30
0.0
  0
VERTEX
  5
E0F
  8
0
  6
CONTINUOUS
 10
-3.1751550549999972
 20
-11.1855287121
 30
0.0
  0
VERTEX
  5
E10
  8
0
  6
CONTINUOUS
 10
-3.1984562634000002
 20
-11.186323034300001
 30
0.0
  0
VERTEX
  5
E11
  8
0
  6
CONTINUOUS
 10
-3.2234045783999998
 20
-11.1868192854
 30
0.0
  0
VERTEX
  5
E12
  8
0
  6
CONTINUOUS
 10
-3.25
 20
-11.1870174653
 30
0.0
  0
SEQEND
  5
E13
  8
0
  6
CONTINUOUS
  0
POLYLINE
  5
5F1
  8
0
  6
CONTINUOUS
 66
     1
 10
0.0
 20
0.0
 30
0.0
  0
VERTEX
  5
E14
  8
0
  6
CONTINUOUS
 10
6.3276612933999976
 20
11.38341798389999
 30
0.0
  0
VERTEX
  5
E15
  8
0
  6
CONTINUOUS
 10
6.3281239203000013
 20
11.3845575891
 30
0.0
  0
VERTEX
  5
E16
  8
0
  6
CONTINUOUS
 10
6.3318249352000029
 20
11.38676318199999
 30
0.0
  0
VERTEX
  5
E17
  8
0
  6
CONTINUOUS
 10
6.3394713088000003
 20
11.388890296999991
 30
0.0
  0
VERTEX
  5
E18
  8
0
  6
CONTINUOUS
 10
6.3508186972999994
 20
11.390943794599989
 30
0.0
  0
VERTEX
  5
E19
  8
0
  6
CONTINUOUS
 10
6.365134069299998
 20
11.392791020500001
 30
0.0
  0
VERTEX
  5
E1A
  8
0
  6
CONTINUOUS
 10
6.3826133733999981
 20
11.394418356599999
 30
0.0
  0
VERTEX
  5
E1B
  8
0
  6
CONTINUOUS
 10
6.403060660899996
 20
11.395839420999989
 30
0.0
  0
VERTEX
  5
E1C
  8
0
  6
CONTINUOUS
 10
6.4251550550999994
 20
11.39696241429999
 30
0.0
  0
VERTEX
  5
E1D
  8
0
  6
CONTINUOUS
 10
6.448456263499998
 20
11.3977567365
 30
0.0
  0
VERTEX
  5
E1E
  8
0
  6
CONTINUOUS
 10
6.4734045784999941
 20
11.398252987499999
 30
0.0
  0
VERTEX
  5
E1F
  8
0
  6
CONTINUOUS
 10
6.5
 20
11.398451167399999
 30
0.0
  0
SEQEND
  5
E20
  8
0
  6
CONTINUOUS
  0
POLYLINE
  5
5F2
  8
0
  6
CONTINUOUS
 66
     1
 10
0.0
 20
0.0
 30
0.0
  0
VERTEX
  5
E21
  8
0
  6
CONTINUOUS
 10
6.6723387067000033
 20
11.38341798389999
 30
0.0
  0
VERTEX
  5
E22
  8
0
  6
CONTINUOUS
 10
6.6718760797999996
 20
11.38227837879999
 30
0.0
  0
VERTEX
  5
E23
  8
0
  6
CONTINUOUS
 10
6.668175064899998
 20
11.380072785899991
 30
0.0
  0
VERTEX
  5
E24
  8
0
  6
CONTINUOUS
 10
6.6605286913000006
 20
11.377945670800001
 30
0.0
  0
VERTEX
  5
E25
  8
0
  6
CONTINUOUS
 10
6.6491813028000024
 20
11.3758921733
 30
0.0
  0
VERTEX
  5
E26
  8
0
  6
CONTINUOUS
 10
6.6348659308000029
 20
11.374044947299989
 30
0.0
  0
VERTEX
  5
E27
  8
0
  6
CONTINUOUS
 10
6.6173866266999957
 20
11.372417611299991
 30
0.0
  0
VERTEX
  5
E28
  8
0
  6
CONTINUOUS
 10
6.5969393391999978
 20
11.37099654689999
 30
0.0
  0
VERTEX
  5
E29
  8
0
  6
CONTINUOUS
 10
6.5748449449999953
 20
11.36987355359998
 30
0.0
  0
VERTEX
  5
E2A
  8
0
  6
CONTINUOUS
 10
6.5515437365999949
 20
11.36907923139999
 30
0.0
  0
VERTEX
  5
E2B
  8
0
  6
CONTINUOUS
 10
6.5265954215999988
 20
11.36858298029999
 30
0.0
  0
VERTEX
  5
E2C
  8
0
  6
CONTINUOUS
 10
6.5
 20
11.368384800399991
 30
0.0
  0
SEQEND
  5
E2D
  8
0
  6
CONTINUOUS
  0
LINE
  5
5F3
  8
0
  6
CONTINUOUS
 10
3.641732283499997
 20
-12.1679686464
 30
0.0
 11
3.641732283499997
 21
-12.2490283576
 31
0.0
  0
LINE
  5
5F4
  8
0
  6
CONTINUOUS
 10
4.0691455123999978
 20
-12.20521723480001
 30
0.0
 11
4.0691455123999978
 21
-12.2120793521
 31
0.0
  0
LINE
  5
5F5
  8
0
  6
CONTINUOUS
 10
4.332499999999996
 20
-8.8685000000000045
 30
0.0
 11
4.332499999999996
 21
-3.089500000000001
 31
0.0
  0
LINE
  5
5F6
  8
0
  6
CONTINUOUS
 10
4.332499999999996
 20
-2.8894999999999982
 30
0.0
 11
4.332499999999996
 21
2.8894999999999982
 31
0.0
  0
LINE
  5
5F7
  8
0
  6
CONTINUOUS
 10
4.332499999999996
 20
3.089500000000001
 30
0.0
 11
4.332499999999996
 21
8.8684999999999974
 31
0.0
  0
LINE
  5
5F8
  8
0
  6
CONTINUOUS
 10
4.532499999999998
 20
-8.8685000000000045
 30
0.0
 11
4.532499999999998
 21
-3.089500000000001
 31
0.0
  0
LINE
  5
5F9
  8
0
  6
CONTINUOUS
 10
4.532499999999998
 20
-2.8894999999999982
 30
0.0
 11
4.532499999999998
 21
2.8894999999999982
 31
0.0
  0
LINE
  5
5FA
  8
0
  6
CONTINUOUS
 10
4.532499999999998
 20
3.089500000000001
 30
0.0
 11
4.532499999999998
 21
8.8684999999999974
 31
0.0
  0
POLYLINE
  5
5FB
  8
0
  6
CONTINUOUS
 66
     1
 10
0.0
 20
0.0
 30
0.0
  0
VERTEX
  5
E2E
  8
0
  6
CONTINUOUS
 10
-0.1723387066000015
 20
-11.383417983899999
 30
0.0
  0
VERTEX
  5
E2F
  8
0
  6
CONTINUOUS
 10
-0.1718760796999987
 20
-11.382278378700001
 30
0.0
  0
VERTEX
  5
E30
  8
0
  6
CONTINUOUS
 10
-0.1681750647999962
 20
-11.380072785799999
 30
0.0
  0
VERTEX
  5
E31
  8
0
  6
CONTINUOUS
 10
-0.1605286911999997
 20
-11.377945670800001
 30
0.0
  0
VERTEX
  5
E32
  8
0
  6
CONTINUOUS
 10
-0.1491813027000006
 20
-11.375892173200009
 30
0.0
  0
VERTEX
  5
E33
  8
0
  6
CONTINUOUS
 10
-0.134865930700002
 20
-11.37404494730001
 30
0.0
  0
VERTEX
  5
E34
  8
0
  6
CONTINUOUS
 10
-0.1173866266000019
 20
-11.372417611199999
 30
0.0
  0
VERTEX
  5
E35
  8
0
  6
CONTINUOUS
 10
-0.096939339100004
 20
-11.370996546800001
 30
0.0
  0
VERTEX
  5
E36
  8
0
  6
CONTINUOUS
 10
-0.0748449449000006
 20
-11.36987355360001
 30
0.0
  0
VERTEX
  5
E37
  8
0
  6
CONTINUOUS
 10
-0.0515437365000011
 20
-11.369079231300001
 30
0.0
  0
VERTEX
  5
E38
  8
0
  6
CONTINUOUS
 10
-0.0265954215000051
 20
-11.36858298029999
 30
0.0
  0
VERTEX
  5
E39
  8
0
  6
CONTINUOUS
 10
0.0
 20
-11.368384800399999
 30
0.0
  0
SEQEND
  5
E3A
  8
0
  6
CONTINUOUS
  0
POLYLINE
  5
5FC
  8
0
  6
CONTINUOUS
 66
     1
 10
0.0
 20
0.0
 30
0.0
  0
VERTEX
  5
E3B
  8
0
  6
CONTINUOUS
 10
0.1723387066999962
 20
-11.383417983899999
 30
0.0
  0
VERTEX
  5
E3C
  8
0
  6
CONTINUOUS
 10
0.1718760798000005
 20
-11.384557589000011
 30
0.0
  0
VERTEX
  5
E3D
  8
0
  6
CONTINUOUS
 10
0.168175064899998
 20
-11.38676318190001
 30
0.0
  0
VERTEX
  5
E3E
  8
0
  6
CONTINUOUS
 10
0.1605286913000015
 20
-11.388890297
 30
0.0
  0
VERTEX
  5
E3F
  8
0
  6
CONTINUOUS
 10
0.1491813028000024
 20
-11.3909437945
 30
0.0
  0
VERTEX
  5
E40
  8
0
  6
CONTINUOUS
 10
0.1348659308000037
 20
-11.392791020500001
 30
0.0
  0
VERTEX
  5
E41
  8
0
  6
CONTINUOUS
 10
0.1173866266999965
 20
-11.394418356499999
 30
0.0
  0
VERTEX
  5
E42
  8
0
  6
CONTINUOUS
 10
0.0969393391999987
 20
-11.3958394209
 30
0.0
  0
VERTEX
  5
E43
  8
0
  6
CONTINUOUS
 10
0.0748449450000024
 20
-11.396962414200001
 30
0.0
  0
VERTEX
  5
E44
  8
0
  6
CONTINUOUS
 10
0.0515437365999958
 20
-11.3977567364
 30
0.0
  0
VERTEX
  5
E45
  8
0
  6
CONTINUOUS
 10
0.0265954215999997
 20
-11.398252987499999
 30
0.0
  0
VERTEX
  5
E46
  8
0
  6
CONTINUOUS
 10
0.0
 20
-11.398451167399999
 30
0.0
  0
SEQEND
  5
E47
  8
0
  6
CONTINUOUS
  0
POLYLINE
  5
5FD
  8
0
  6
CONTINUOUS
 66
     1
 10
0.0
 20
0.0
 30
0.0
  0
VERTEX
  5
E48
  8
0
  6
CONTINUOUS
 10
9.5776612933999985
 20
11.17198428189999
 30
0.0
  0
VERTEX
  5
E49
  8
0
  6
CONTINUOUS
 10
9.5781239203000013
 20
11.173123887099999
 30
0.0
  0
VERTEX
  5
E4A
  8
0
  6
CONTINUOUS
 10
9.5818249352000038
 20
11.1753294799
 30
0.0
  0
VERTEX
  5
E4B
  8
0
  6
CONTINUOUS
 10
9.5894713088000003
 20
11.17745659499999
 30
0.0
  0
VERTEX
  5
E4C
  8
0
  6
CONTINUOUS
 10
9.6008186972999994
 20
11.179510092599999
 30
0.0
  0
VERTEX
  5
E4D
  8
0
  6
CONTINUOUS
 10
9.615134069299998
 20
11.181357318499989
 30
0.0
  0
VERTEX
  5
E4E
  8
0
  6
CONTINUOUS
 10
9.6326133733999981
 20
11.18298465449999
 30
0.0
  0
VERTEX
  5
E4F
  8
0
  6
CONTINUOUS
 10
9.653060660899996
 20
11.18440571889999
 30
0.0
  0
VERTEX
  5
E50
  8
0
  6
CONTINUOUS
 10
9.6751550550999994
 20
11.185528712199989
 30
0.0
  0
VERTEX
  5
E51
  8
0
  6
CONTINUOUS
 10
9.6984562634999971
 20
11.18632303439999
 30
0.0
  0
VERTEX
  5
E52
  8
0
  6
CONTINUOUS
 10
9.7234045784999932
 20
11.18681928549999
 30
0.0
  0
VERTEX
  5
E53
  8
0
  6
CONTINUOUS
 10
9.75
 20
11.1870174654
 30
0.0
  0
SEQEND
  5
E54
  8
0
  6
CONTINUOUS
  0
POLYLINE
  5
5FE
  8
0
  6
CONTINUOUS
 66
     1
 10
0.0
 20
0.0
 30
0.0
  0
VERTEX
  5
E55
  8
0
  6
CONTINUOUS
 10
9.9223387067000033
 20
11.17198428189999
 30
0.0
  0
VERTEX
  5
E56
  8
0
  6
CONTINUOUS
 10
9.9218760798000005
 20
11.1708446767
 30
0.0
  0
VERTEX
  5
E57
  8
0
  6
CONTINUOUS
 10
9.918175064899998
 20
11.1686390838
 30
0.0
  0
VERTEX
  5
E58
  8
0
  6
CONTINUOUS
 10
9.9105286913000015
 20
11.166511968799989
 30
0.0
  0
VERTEX
  5
E59
  8
0
  6
CONTINUOUS
 10
9.8991813028000024
 20
11.164458471199991
 30
0.0
  0
VERTEX
  5
E5A
  8
0
  6
CONTINUOUS
 10
9.8848659308000038
 20
11.162611245300001
 30
0.0
  0
VERTEX
  5
E5B
  8
0
  6
CONTINUOUS
 10
9.8673866266999966
 20
11.1609839092
 30
0.0
  0
VERTEX
  5
E5C
  8
0
  6
CONTINUOUS
 10
9.8469393391999986
 20
11.159562844799989
 30
0.0
  0
VERTEX
  5
E5D
  8
0
  6
CONTINUOUS
 10
9.8248449449999953
 20
11.15843985159999
 30
0.0
  0
VERTEX
  5
E5E
  8
0
  6
CONTINUOUS
 10
9.8015437365999958
 20
11.157645529299989
 30
0.0
  0
VERTEX
  5
E5F
  8
0
  6
CONTINUOUS
 10
9.7765954215999997
 20
11.1571492783
 30
0.0
  0
VERTEX
  5
E60
  8
0
  6
CONTINUOUS
 10
9.75
 20
11.1569510984
 30
0.0
  0
SEQEND
  5
E61
  8
0
  6
CONTINUOUS
  0
POLYLINE
  5
5FF
  8
0
  6
CONTINUOUS
 66
     1
 10
0.0
 20
0.0
 30
0.0
  0
VERTEX
  5
E62
  8
0
  6
CONTINUOUS
 10
-4.0691455123000004
 20
-12.20521723480001
 30
0.0
  0
VERTEX
  5
E63
  8
0
  6
CONTINUOUS
 10
-4.0657561631000014
 20
-12.2007512484
 30
0.0
  0
VERTEX
  5
E64
  8
0
  6
CONTINUOUS
 10
-4.0570316386999989
 20
-12.19647297610001
 30
0.0
  0
SEQEND
  5
E65
  8
0
  6
CONTINUOUS
  0
LINE
  5
600
  8
0
  6
CONTINUOUS
 10
22.0625
 20
2.8894999999999982
 30
0.0
 11
19.30749999999999
 21
2.8894999999999982
 31
0.0
  0
LINE
  5
601
  8
0
  6
CONTINUOUS
 10
19.107500000000002
 20
2.8894999999999982
 30
0.0
 11
16.352499999999999
 21
2.8894999999999982
 31
0.0
  0
LINE
  5
602
  8
0
  6
CONTINUOUS
 10
16.152499999999989
 20
2.8894999999999982
 30
0.0
 11
13.39749999999999
 21
2.8894999999999982
 31
0.0
  0
LINE
  5
603
  8
0
  6
CONTINUOUS
 10
13.1975
 20
2.8894999999999982
 30
0.0
 11
10.44249999999999
 21
2.8894999999999982
 31
0.0
  0
LINE
  5
604
  8
0
  6
CONTINUOUS
 10
10.242499999999991
 20
2.8894999999999982
 30
0.0
 11
7.4874999999999972
 21
2.8894999999999982
 31
0.0
  0
LINE
  5
605
  8
0
  6
CONTINUOUS
 10
7.2875000000000014
 20
2.8894999999999982
 30
0.0
 11
4.532499999999998
 21
2.8894999999999982
 31
0.0
  0
LINE
  5
606
  8
0
  6
CONTINUOUS
 10
4.332499999999996
 20
2.8894999999999982
 30
0.0
 11
1.824505232999996
 21
2.8894999999999982
 31
0.0
  0
LINE
  5
607
  8
0
  6
CONTINUOUS
 10
-1.8245052329000011
 20
2.8894999999999982
 30
0.0
 11
-4.3324999999999987
 21
2.8894999999999982
 31
0.0
  0
LINE
  5
608
  8
0
  6
CONTINUOUS
 10
-4.532499999999998
 20
2.8894999999999982
 30
0.0
 11
-7.2875000000000014
 21
2.8894999999999982
 31
0.0
  0
LINE
  5
609
  8
0
  6
CONTINUOUS
 10
-7.4874999999999998
 20
2.8894999999999982
 30
0.0
 11
-10.2425
 21
2.8894999999999982
 31
0.0
  0
LINE
  5
60A
  8
0
  6
CONTINUOUS
 10
-10.442500000000001
 20
2.8894999999999982
 30
0.0
 11
-13.1975
 21
2.8894999999999982
 31
0.0
  0
LINE
  5
60B
  8
0
  6
CONTINUOUS
 10
-13.397500000000001
 20
2.8894999999999982
 30
0.0
 11
-16.1525
 21
2.8894999999999982
 31
0.0
  0
LINE
  5
60C
  8
0
  6
CONTINUOUS
 10
-16.352499999999999
 20
2.8894999999999982
 30
0.0
 11
-19.107500000000002
 21
2.8894999999999982
 31
0.0
  0
LINE
  5
60D
  8
0
  6
CONTINUOUS
 10
-19.307500000000001
 20
2.8894999999999982
 30
0.0
 11
-22.0625
 21
2.8894999999999982
 31
0.0
  0
LINE
  5
60E
  8
0
  6
CONTINUOUS
 10
22.0625
 20
3.089500000000001
 30
0.0
 11
19.30749999999999
 21
3.089500000000001
 31
0.0
  0
LINE
  5
60F
  8
0
  6
CONTINUOUS
 10
19.107500000000002
 20
3.089500000000001
 30
0.0
 11
16.352499999999999
 21
3.089500000000001
 31
0.0
  0
LINE
  5
610
  8
0
  6
CONTINUOUS
 10
16.152499999999989
 20
3.089500000000001
 30
0.0
 11
13.39749999999999
 21
3.089500000000001
 31
0.0
  0
LINE
  5
611
  8
0
  6
CONTINUOUS
 10
13.1975
 20
3.089500000000001
 30
0.0
 11
10.44249999999999
 21
3.089500000000001
 31
0.0
  0
LINE
  5
612
  8
0
  6
CONTINUOUS
 10
10.242499999999991
 20
3.089500000000001
 30
0.0
 11
7.4874999999999972
 21
3.089500000000001
 31
0.0
  0
LINE
  5
613
  8
0
  6
CONTINUOUS
 10
7.2875000000000014
 20
3.089500000000001
 30
0.0
 11
4.532499999999998
 21
3.089500000000001
 31
0.0
  0
LINE
  5
614
  8
0
  6
CONTINUOUS
 10
4.332499999999996
 20
3.089500000000001
 30
0.0
 11
1.5774999999999999
 21
3.089500000000001
 31
0.0
  0
LINE
  5
615
  8
0
  6
CONTINUOUS
 10
-1.5774999999999999
 20
3.089500000000001
 30
0.0
 11
-4.3324999999999987
 21
3.089500000000001
 31
0.0
  0
LINE
  5
616
  8
0
  6
CONTINUOUS
 10
-4.532499999999998
 20
3.089500000000001
 30
0.0
 11
-7.2875000000000014
 21
3.089500000000001
 31
0.0
  0
LINE
  5
617
  8
0
  6
CONTINUOUS
 10
-7.4874999999999998
 20
3.089500000000001
 30
0.0
 11
-10.2425
 21
3.089500000000001
 31
0.0
  0
LINE
  5
618
  8
0
  6
CONTINUOUS
 10
-10.442500000000001
 20
3.089500000000001
 30
0.0
 11
-13.1975
 21
3.089500000000001
 31
0.0
  0
LINE
  5
619
  8
0
  6
CONTINUOUS
 10
-13.397500000000001
 20
3.089500000000001
 30
0.0
 11
-16.1525
 21
3.089500000000001
 31
0.0
  0
LINE
  5
61A
  8
0
  6
CONTINUOUS
 10
-16.352499999999999
 20
3.089500000000001
 30
0.0
 11
-19.107500000000002
 21
3.089500000000001
 31
0.0
  0
LINE
  5
61B
  8
0
  6
CONTINUOUS
 10
-19.307500000000001
 20
3.089500000000001
 30
0.0
 11
-22.0625
 21
3.089500000000001
 31
0.0
  0
POLYLINE
  5
61C
  8
0
  6
CONTINUOUS
 66
     1
 10
0.0
 20
0.0
 30
0.0
  0
VERTEX
  5
E66
  8
0
  6
CONTINUOUS
 10
25.189105172400001
 20
-0.1723387066000015
 30
0.0
  0
VERTEX
  5
E67
  8
0
  6
CONTINUOUS
 10
25.182877650399998
 20
-0.1718760796999987
 30
0.0
  0
VERTEX
  5
E68
  8
0
  6
CONTINUOUS
 10
25.170824898999999
 20
-0.1681750648000104
 30
0.0
  0
VERTEX
  5
E69
  8
0
  6
CONTINUOUS
 10
25.159200999599999
 20
-0.1605286911999997
 30
0.0
  0
VERTEX
  5
E6A
  8
0
  6
CONTINUOUS
 10
25.147979392700002
 20
-0.1491813027000006
 30
0.0
  0
VERTEX
  5
E6B
  8
0
  6
CONTINUOUS
 10
25.137884984300001
 20
-0.134865930700002
 30
0.0
  0
VERTEX
  5
E6C
  8
0
  6
CONTINUOUS
 10
25.128992192999998
 20
-0.1173866265999948
 30
0.0
  0
VERTEX
  5
E6D
  8
0
  6
CONTINUOUS
 10
25.121226600100002
 20
-0.096939339100004
 30
0.0
  0
VERTEX
  5
E6E
  8
0
  6
CONTINUOUS
 10
25.115089856200001
 20
-0.0748449449999953
 30
0.0
  0
VERTEX
  5
E6F
  8
0
  6
CONTINUOUS
 10
25.110749178100001
 20
-0.0515437365000082
 30
0.0
  0
VERTEX
  5
E70
  8
0
  6
CONTINUOUS
 10
25.108037349100002
 20
-0.0265954215000051
 30
0.0
  0
VERTEX
  5
E71
  8
0
  6
CONTINUOUS
 10
25.106954369099999
 20
0.0
 30
0.0
  0
SEQEND
  5
E72
  8
0
  6
CONTINUOUS
  0
POLYLINE
  5
61D
  8
0
  6
CONTINUOUS
 66
     1
 10
0.0
 20
0.0
 30
0.0
  0
VERTEX
  5
E73
  8
0
  6
CONTINUOUS
 10
25.189105172400001
 20
0.1723387067000033
 30
0.0
  0
VERTEX
  5
E74
  8
0
  6
CONTINUOUS
 10
25.195332694400001
 20
0.1718760797999863
 30
0.0
  0
VERTEX
  5
E75
  8
0
  6
CONTINUOUS
 10
25.207385445900002
 20
0.168175064899998
 30
0.0
  0
VERTEX
  5
E76
  8
0
  6
CONTINUOUS
 10
25.219009345300002
 20
0.1605286913000015
 30
0.0
  0
VERTEX
  5
E77
  8
0
  6
CONTINUOUS
 10
25.230230952100001
 20
0.1491813027999882
 30
0.0
  0
VERTEX
  5
E78
  8
0
  6
CONTINUOUS
 10
25.240325360500002
 20
0.1348659308000037
 30
0.0
  0
VERTEX
  5
E79
  8
0
  6
CONTINUOUS
 10
25.249218151899999
 20
0.1173866266999965
 30
0.0
  0
VERTEX
  5
E7A
  8
0
  6
CONTINUOUS
 10
25.256983744799999
 20
0.0969393391999916
 30
0.0
  0
VERTEX
  5
E7B
  8
0
  6
CONTINUOUS
 10
25.2631204887
 20
0.0748449449999953
 30
0.0
  0
VERTEX
  5
E7C
  8
0
  6
CONTINUOUS
 10
25.267461166699999
 20
0.0515437365999958
 30
0.0
  0
VERTEX
  5
E7D
  8
0
  6
CONTINUOUS
 10
25.27017299580001
 20
0.0265954215999926
 30
0.0
  0
VERTEX
  5
E7E
  8
0
  6
CONTINUOUS
 10
25.271255975799999
 20
0.0
 30
0.0
  0
SEQEND
  5
E7F
  8
0
  6
CONTINUOUS
  0
POLYLINE
  5
61E
  8
0
  6
CONTINUOUS
 66
     1
 10
0.0
 20
0.0
 30
0.0
  0
VERTEX
  5
E80
  8
0
  6
CONTINUOUS
 10
-25.1891051723
 20
4.8276612933999976
 30
0.0
  0
VERTEX
  5
E81
  8
0
  6
CONTINUOUS
 10
-25.195332694299999
 20
4.8281239203000013
 30
0.0
  0
VERTEX
  5
E82
  8
0
  6
CONTINUOUS
 10
-25.2073854458
 20
4.8318249351999887
 30
0.0
  0
VERTEX
  5
E83
  8
0
  6
CONTINUOUS
 10
-25.2190093452
 20
4.8394713088000003
 30
0.0
  0
VERTEX
  5
E84
  8
0
  6
CONTINUOUS
 10
-25.230230951999999
 20
4.8508186972999994
 30
0.0
  0
VERTEX
  5
E85
  8
0
  6
CONTINUOUS
 10
-25.2403253604
 20
4.865134069299998
 30
0.0
  0
VERTEX
  5
E86
  8
0
  6
CONTINUOUS
 10
-25.249218151800001
 20
4.8826133734000052
 30
0.0
  0
VERTEX
  5
E87
  8
0
  6
CONTINUOUS
 10
-25.256983744700001
 20
4.903060660899996
 30
0.0
  0
VERTEX
  5
E88
  8
0
  6
CONTINUOUS
 10
-25.263120488599998
 20
4.9251550550000038
 30
0.0
  0
VERTEX
  5
E89
  8
0
  6
CONTINUOUS
 10
-25.2674611666
 20
4.9484562634999909
 30
0.0
  0
VERTEX
  5
E8A
  8
0
  6
CONTINUOUS
 10
-25.270172995700001
 20
4.9734045784999941
 30
0.0
  0
VERTEX
  5
E8B
  8
0
  6
CONTINUOUS
 10
-25.271255975700001
 20
5.0
 30
0.0
  0
SEQEND
  5
E8C
  8
0
  6
CONTINUOUS
  0
POLYLINE
  5
61F
  8
0
  6
CONTINUOUS
 66
     1
 10
0.0
 20
0.0
 30
0.0
  0
VERTEX
  5
E8D
  8
0
  6
CONTINUOUS
 10
-25.1891051723
 20
5.1723387067000033
 30
0.0
  0
VERTEX
  5
E8E
  8
0
  6
CONTINUOUS
 10
-25.1828776503
 20
5.1718760797999863
 30
0.0
  0
VERTEX
  5
E8F
  8
0
  6
CONTINUOUS
 10
-25.170824898900001
 20
5.168175064899998
 30
0.0
  0
VERTEX
  5
E90
  8
0
  6
CONTINUOUS
 10
-25.159200999500001
 20
5.1605286913000006
 30
0.0
  0
VERTEX
  5
E91
  8
0
  6
CONTINUOUS
 10
-25.1479793926
 20
5.1491813027999882
 30
0.0
  0
VERTEX
  5
E92
  8
0
  6
CONTINUOUS
 10
-25.137884984199999
 20
5.1348659308000029
 30
0.0
  0
VERTEX
  5
E93
  8
0
  6
CONTINUOUS
 10
-25.1289921929
 20
5.1173866266999957
 30
0.0
  0
VERTEX
  5
E94
  8
0
  6
CONTINUOUS
 10
-25.1212266
 20
5.0969393391999906
 30
0.0
  0
VERTEX
  5
E95
  8
0
  6
CONTINUOUS
 10
-25.115089856099999
 20
5.0748449449999953
 30
0.0
  0
VERTEX
  5
E96
  8
0
  6
CONTINUOUS
 10
-25.110749177999999
 20
5.0515437365999949
 30
0.0
  0
VERTEX
  5
E97
  8
0
  6
CONTINUOUS
 10
-25.108037349
 20
5.0265954215999917
 30
0.0
  0
VERTEX
  5
E98
  8
0
  6
CONTINUOUS
 10
-25.106954369
 20
5.0
 30
0.0
  0
SEQEND
  5
E99
  8
0
  6
CONTINUOUS
  0
LINE
  5
620
  8
0
  6
CONTINUOUS
 10
7.2875000000000014
 20
-8.8685000000000045
 30
0.0
 11
7.2875000000000014
 21
-3.089500000000001
 31
0.0
  0
LINE
  5
621
  8
0
  6
CONTINUOUS
 10
7.2875000000000014
 20
-2.8894999999999982
 30
0.0
 11
7.2875000000000014
 21
2.8894999999999982
 31
0.0
  0
LINE
  5
622
  8
0
  6
CONTINUOUS
 10
7.2875000000000014
 20
3.089500000000001
 30
0.0
 11
7.2875000000000014
 21
8.8684999999999974
 31
0.0
  0
LINE
  5
623
  8
0
  6
CONTINUOUS
 10
7.4874999999999972
 20
-8.8685000000000045
 30
0.0
 11
7.4874999999999972
 21
-3.089500000000001
 31
0.0
  0
LINE
  5
624
  8
0
  6
CONTINUOUS
 10
7.4874999999999972
 20
-2.8894999999999982
 30
0.0
 11
7.4874999999999972
 21
2.8894999999999982
 31
0.0
  0
LINE
  5
625
  8
0
  6
CONTINUOUS
 10
7.4874999999999972
 20
3.089500000000001
 30
0.0
 11
7.4874999999999972
 21
8.8684999999999974
 31
0.0
  0
POLYLINE
  5
626
  8
0
  6
CONTINUOUS
 66
     1
 10
0.0
 20
0.0
 30
0.0
  0
VERTEX
  5
E9A
  8
0
  6
CONTINUOUS
 10
3.0776612933999981
 20
-11.1719842818
 30
0.0
  0
VERTEX
  5
E9B
  8
0
  6
CONTINUOUS
 10
3.0781239203000008
 20
-11.1708446766
 30
0.0
  0
VERTEX
  5
E9C
  8
0
  6
CONTINUOUS
 10
3.0818249352000029
 20
-11.1686390838
 30
0.0
  0
VERTEX
  5
E9D
  8
0
  6
CONTINUOUS
 10
3.0894713087999999
 20
-11.1665119687
 30
0.0
  0
VERTEX
  5
E9E
  8
0
  6
CONTINUOUS
 10
3.1008186972999989
 20
-11.1644584711
 30
0.0
  0
VERTEX
  5
E9F
  8
0
  6
CONTINUOUS
 10
3.115134069299998
 20
-11.162611245200001
 30
0.0
  0
VERTEX
  5
EA0
  8
0
  6
CONTINUOUS
 10
3.1326133733999981
 20
-11.1609839091
 30
0.0
  0
VERTEX
  5
EA1
  8
0
  6
CONTINUOUS
 10
3.153060660899996
 20
-11.1595628447
 30
0.0
  0
VERTEX
  5
EA2
  8
0
  6
CONTINUOUS
 10
3.175155055099999
 20
-11.158439851500001
 30
0.0
  0
VERTEX
  5
EA3
  8
0
  6
CONTINUOUS
 10
3.198456263499998
 20
-11.1576455293
 30
0.0
  0
VERTEX
  5
EA4
  8
0
  6
CONTINUOUS
 10
3.2234045784999941
 20
-11.157149278200009
 30
0.0
  0
VERTEX
  5
EA5
  8
0
  6
CONTINUOUS
 10
3.25
 20
-11.1569510983
 30
0.0
  0
SEQEND
  5
EA6
  8
0
  6
CONTINUOUS
  0
POLYLINE
  5
627
  8
0
  6
CONTINUOUS
 66
     1
 10
0.0
 20
0.0
 30
0.0
  0
VERTEX
  5
EA7
  8
0
  6
CONTINUOUS
 10
3.4223387066999962
 20
-11.1719842818
 30
0.0
  0
VERTEX
  5
EA8
  8
0
  6
CONTINUOUS
 10
3.4218760798000001
 20
-11.173123886999999
 30
0.0
  0
VERTEX
  5
EA9
  8
0
  6
CONTINUOUS
 10
3.418175064899998
 20
-11.1753294798
 30
0.0
  0
VERTEX
  5
EAA
  8
0
  6
CONTINUOUS
 10
3.410528691300001
 20
-11.177456594900001
 30
0.0
  0
VERTEX
  5
EAB
  8
0
  6
CONTINUOUS
 10
3.399181302800002
 20
-11.179510092499999
 30
0.0
  0
VERTEX
  5
EAC
  8
0
  6
CONTINUOUS
 10
3.3848659308000029
 20
-11.1813573184
 30
0.0
  0
VERTEX
  5
EAD
  8
0
  6
CONTINUOUS
 10
3.3673866266999961
 20
-11.1829846545
 30
0.0
  0
VERTEX
  5
EAE
  8
0
  6
CONTINUOUS
 10
3.3469393391999982
 20
-11.184405718900001
 30
0.0
  0
VERTEX
  5
EAF
  8
0
  6
CONTINUOUS
 10
3.3248449450000019
 20
-11.1855287121
 30
0.0
  0
VERTEX
  5
EB0
  8
0
  6
CONTINUOUS
 10
3.3015437365999949
 20
-11.186323034300001
 30
0.0
  0
VERTEX
  5
EB1
  8
0
  6
CONTINUOUS
 10
3.2765954215999988
 20
-11.1868192854
 30
0.0
  0
VERTEX
  5
EB2
  8
0
  6
CONTINUOUS
 10
3.25
 20
-11.1870174653
 30
0.0
  0
SEQEND
  5
EB3
  8
0
  6
CONTINUOUS
  0
POLYLINE
  5
628
  8
0
  6
CONTINUOUS
 66
     1
 10
0.0
 20
0.0
 30
0.0
  0
VERTEX
  5
EB4
  8
0
  6
CONTINUOUS
 10
12.8276612934
 20
11.38341798389999
 30
0.0
  0
VERTEX
  5
EB5
  8
0
  6
CONTINUOUS
 10
12.828123920299999
 20
11.3845575891
 30
0.0
  0
VERTEX
  5
EB6
  8
0
  6
CONTINUOUS
 10
12.8318249352
 20
11.38676318199999
 30
0.0
  0
VERTEX
  5
EB7
  8
0
  6
CONTINUOUS
 10
12.8394713088
 20
11.388890296999991
 30
0.0
  0
VERTEX
  5
EB8
  8
0
  6
CONTINUOUS
 10
12.850818697299999
 20
11.390943794599989
 30
0.0
  0
VERTEX
  5
EB9
  8
0
  6
CONTINUOUS
 10
12.8651340693
 20
11.392791020500001
 30
0.0
  0
VERTEX
  5
EBA
  8
0
  6
CONTINUOUS
 10
12.8826133734
 20
11.394418356599999
 30
0.0
  0
VERTEX
  5
EBB
  8
0
  6
CONTINUOUS
 10
12.903060660899991
 20
11.395839420999989
 30
0.0
  0
VERTEX
  5
EBC
  8
0
  6
CONTINUOUS
 10
12.925155055099999
 20
11.39696241429999
 30
0.0
  0
VERTEX
  5
EBD
  8
0
  6
CONTINUOUS
 10
12.948456263500001
 20
11.3977567365
 30
0.0
  0
VERTEX
  5
EBE
  8
0
  6
CONTINUOUS
 10
12.9734045785
 20
11.398252987499999
 30
0.0
  0
VERTEX
  5
EBF
  8
0
  6
CONTINUOUS
 10
13.0
 20
11.398451167399999
 30
0.0
  0
SEQEND
  5
EC0
  8
0
  6
CONTINUOUS
  0
POLYLINE
  5
629
  8
0
  6
CONTINUOUS
 66
     1
 10
0.0
 20
0.0
 30
0.0
  0
VERTEX
  5
EC1
  8
0
  6
CONTINUOUS
 10
13.1723387067
 20
11.38341798389999
 30
0.0
  0
VERTEX
  5
EC2
  8
0
  6
CONTINUOUS
 10
13.171876079800001
 20
11.38227837879999
 30
0.0
  0
VERTEX
  5
EC3
  8
0
  6
CONTINUOUS
 10
13.1681750649
 20
11.380072785899991
 30
0.0
  0
VERTEX
  5
EC4
  8
0
  6
CONTINUOUS
 10
13.1605286913
 20
11.377945670800001
 30
0.0
  0
VERTEX
  5
EC5
  8
0
  6
CONTINUOUS
 10
13.149181302800001
 20
11.3758921733
 30
0.0
  0
VERTEX
  5
EC6
  8
0
  6
CONTINUOUS
 10
13.1348659308
 20
11.374044947299989
 30
0.0
  0
VERTEX
  5
EC7
  8
0
  6
CONTINUOUS
 10
13.1173866267
 20
11.372417611299991
 30
0.0
  0
VERTEX
  5
EC8
  8
0
  6
CONTINUOUS
 10
13.0969393392
 20
11.37099654689999
 30
0.0
  0
VERTEX
  5
EC9
  8
0
  6
CONTINUOUS
 10
13.07484494499999
 20
11.36987355359998
 30
0.0
  0
VERTEX
  5
ECA
  8
0
  6
CONTINUOUS
 10
13.051543736599999
 20
11.36907923139999
 30
0.0
  0
VERTEX
  5
ECB
  8
0
  6
CONTINUOUS
 10
13.0265954216
 20
11.36858298029999
 30
0.0
  0
VERTEX
  5
ECC
  8
0
  6
CONTINUOUS
 10
13.0
 20
11.368384800399991
 30
0.0
  0
SEQEND
  5
ECD
  8
0
  6
CONTINUOUS
  0
POLYLINE
  5
62A
  8
0
  6
CONTINUOUS
 66
     1
 10
0.0
 20
0.0
 30
0.0
  0
VERTEX
  5
ECE
  8
0
  6
CONTINUOUS
 10
-26.498088104899999
 20
7.3276612933999976
 30
0.0
  0
VERTEX
  5
ECF
  8
0
  6
CONTINUOUS
 10
-26.504315626900009
 20
7.3281239203000013
 30
0.0
  0
VERTEX
  5
ED0
  8
0
  6
CONTINUOUS
 10
-26.516368378399999
 20
7.3318249351999887
 30
0.0
  0
VERTEX
  5
ED1
  8
0
  6
CONTINUOUS
 10
-26.527992277700001
 20
7.3394713088000003
 30
0.0
  0
VERTEX
  5
ED2
  8
0
  6
CONTINUOUS
 10
-26.539213884600009
 20
7.3508186972999994
 30
0.0
  0
VERTEX
  5
ED3
  8
0
  6
CONTINUOUS
 10
-26.549308292999999
 20
7.365134069299998
 30
0.0
  0
VERTEX
  5
ED4
  8
0
  6
CONTINUOUS
 10
-26.5582010844
 20
7.3826133734000052
 30
0.0
  0
VERTEX
  5
ED5
  8
0
  6
CONTINUOUS
 10
-26.5659666773
 20
7.403060660899996
 30
0.0
  0
VERTEX
  5
ED6
  8
0
  6
CONTINUOUS
 10
-26.572103421200001
 20
7.4251550550000038
 30
0.0
  0
VERTEX
  5
ED7
  8
0
  6
CONTINUOUS
 10
-26.5764440992
 20
7.4484562634999909
 30
0.0
  0
VERTEX
  5
ED8
  8
0
  6
CONTINUOUS
 10
-26.579155928199999
 20
7.4734045784999941
 30
0.0
  0
VERTEX
  5
ED9
  8
0
  6
CONTINUOUS
 10
-26.580238908199998
 20
7.5
 30
0.0
  0
SEQEND
  5
EDA
  8
0
  6
CONTINUOUS
  0
POLYLINE
  5
62B
  8
0
  6
CONTINUOUS
 66
     1
 10
0.0
 20
0.0
 30
0.0
  0
VERTEX
  5
EDB
  8
0
  6
CONTINUOUS
 10
-26.498088104899999
 20
7.6723387067000033
 30
0.0
  0
VERTEX
  5
EDC
  8
0
  6
CONTINUOUS
 10
-26.491860582899999
 20
7.6718760797999863
 30
0.0
  0
VERTEX
  5
EDD
  8
0
  6
CONTINUOUS
 10
-26.479807831399999
 20
7.668175064899998
 30
0.0
  0
VERTEX
  5
EDE
  8
0
  6
CONTINUOUS
 10
-26.468183932100001
 20
7.6605286913000006
 30
0.0
  0
VERTEX
  5
EDF
  8
0
  6
CONTINUOUS
 10
-26.456962325199999
 20
7.6491813027999882
 30
0.0
  0
VERTEX
  5
EE0
  8
0
  6
CONTINUOUS
 10
-26.446867916799999
 20
7.6348659308000029
 30
0.0
  0
VERTEX
  5
EE1
  8
0
  6
CONTINUOUS
 10
-26.437975125400001
 20
7.6173866266999957
 30
0.0
  0
VERTEX
  5
EE2
  8
0
  6
CONTINUOUS
 10
-26.430209532500001
 20
7.5969393391999906
 30
0.0
  0
VERTEX
  5
EE3
  8
0
  6
CONTINUOUS
 10
-26.4240727886
 20
7.5748449449999953
 30
0.0
  0
VERTEX
  5
EE4
  8
0
  6
CONTINUOUS
 10
-26.419732110599998
 20
7.5515437365999949
 30
0.0
  0
VERTEX
  5
EE5
  8
0
  6
CONTINUOUS
 10
-26.417020281599999
 20
7.5265954215999917
 30
0.0
  0
VERTEX
  5
EE6
  8
0
  6
CONTINUOUS
 10
-26.4159373016
 20
7.5
 30
0.0
  0
SEQEND
  5
EE7
  8
0
  6
CONTINUOUS
  0
POLYLINE
  5
62C
  8
0
  6
CONTINUOUS
 66
     1
 10
0.0
 20
0.0
 30
0.0
  0
VERTEX
  5
EE8
  8
0
  6
CONTINUOUS
 10
6.3276612933999976
 20
-11.383417983899999
 30
0.0
  0
VERTEX
  5
EE9
  8
0
  6
CONTINUOUS
 10
6.3281239203000013
 20
-11.382278378700001
 30
0.0
  0
VERTEX
  5
EEA
  8
0
  6
CONTINUOUS
 10
6.3318249352000029
 20
-11.380072785799999
 30
0.0
  0
VERTEX
  5
EEB
  8
0
  6
CONTINUOUS
 10
6.3394713088000003
 20
-11.377945670800001
 30
0.0
  0
VERTEX
  5
EEC
  8
0
  6
CONTINUOUS
 10
6.3508186972999994
 20
-11.375892173200009
 30
0.0
  0
VERTEX
  5
EED
  8
0
  6
CONTINUOUS
 10
6.365134069299998
 20
-11.37404494730001
 30
0.0
  0
VERTEX
  5
EEE
  8
0
  6
CONTINUOUS
 10
6.3826133733999981
 20
-11.372417611199999
 30
0.0
  0
VERTEX
  5
EEF
  8
0
  6
CONTINUOUS
 10
6.403060660899996
 20
-11.370996546800001
 30
0.0
  0
VERTEX
  5
EF0
  8
0
  6
CONTINUOUS
 10
6.4251550550999994
 20
-11.36987355360001
 30
0.0
  0
VERTEX
  5
EF1
  8
0
  6
CONTINUOUS
 10
6.448456263499998
 20
-11.369079231300001
 30
0.0
  0
VERTEX
  5
EF2
  8
0
  6
CONTINUOUS
 10
6.4734045784999941
 20
-11.36858298029999
 30
0.0
  0
VERTEX
  5
EF3
  8
0
  6
CONTINUOUS
 10
6.5
 20
-11.368384800399999
 30
0.0
  0
SEQEND
  5
EF4
  8
0
  6
CONTINUOUS
  0
POLYLINE
  5
62D
  8
0
  6
CONTINUOUS
 66
     1
 10
0.0
 20
0.0
 30
0.0
  0
VERTEX
  5
EF5
  8
0
  6
CONTINUOUS
 10
6.6723387067000033
 20
-11.383417983899999
 30
0.0
  0
VERTEX
  5
EF6
  8
0
  6
CONTINUOUS
 10
6.6718760797999996
 20
-11.384557589000011
 30
0.0
  0
VERTEX
  5
EF7
  8
0
  6
CONTINUOUS
 10
6.668175064899998
 20
-11.38676318190001
 30
0.0
  0
VERTEX
  5
EF8
  8
0
  6
CONTINUOUS
 10
6.6605286913000006
 20
-11.388890297
 30
0.0
  0
VERTEX
  5
EF9
  8
0
  6
CONTINUOUS
 10
6.6491813028000024
 20
-11.3909437945
 30
0.0
  0
VERTEX
  5
EFA
  8
0
  6
CONTINUOUS
 10
6.6348659308000029
 20
-11.392791020500001
 30
0.0
  0
VERTEX
  5
EFB
  8
0
  6
CONTINUOUS
 10
6.6173866266999957
 20
-11.394418356499999
 30
0.0
  0
VERTEX
  5
EFC
  8
0
  6
CONTINUOUS
 10
6.5969393391999978
 20
-11.3958394209
 30
0.0
  0
VERTEX
  5
EFD
  8
0
  6
CONTINUOUS
 10
6.5748449449999953
 20
-11.396962414200001
 30
0.0
  0
VERTEX
  5
EFE
  8
0
  6
CONTINUOUS
 10
6.5515437365999949
 20
-11.3977567364
 30
0.0
  0
VERTEX
  5
EFF
  8
0
  6
CONTINUOUS
 10
6.5265954215999988
 20
-11.398252987499999
 30
0.0
  0
VERTEX
  5
F00
  8
0
  6
CONTINUOUS
 10
6.5
 20
-11.398451167399999
 30
0.0
  0
SEQEND
  5
F01
  8
0
  6
CONTINUOUS
  0
POLYLINE
  5
62E
  8
0
  6
CONTINUOUS
 66
     1
 10
0.0
 20
0.0
 30
0.0
  0
VERTEX
  5
F02
  8
0
  6
CONTINUOUS
 10
4.0691455123999978
 20
-12.2120793521
 30
0.0
  0
VERTEX
  5
F03
  8
0
  6
CONTINUOUS
 10
4.0657561631999988
 20
-12.2165453384
 30
0.0
  0
VERTEX
  5
F04
  8
0
  6
CONTINUOUS
 10
4.0570316387999981
 20
-12.220823610700011
 30
0.0
  0
VERTEX
  5
F05
  8
0
  6
CONTINUOUS
 10
4.0429719392000001
 20
-12.2249141689
 30
0.0
  0
SEQEND
  5
F06
  8
0
  6
CONTINUOUS
  0
POLYLINE
  5
62F
  8
0
  6
CONTINUOUS
 66
     1
 10
0.0
 20
0.0
 30
0.0
  0
VERTEX
  5
F07
  8
0
  6
CONTINUOUS
 10
-4.0570316386999989
 20
-12.19647297610001
 30
0.0
  0
VERTEX
  5
F08
  8
0
  6
CONTINUOUS
 10
-4.0429719390999992
 20
-12.192382417899999
 30
0.0
  0
VERTEX
  5
F09
  8
0
  6
CONTINUOUS
 10
-4.0229199416000014
 20
-12.18841891400001
 30
0.0
  0
SEQEND
  5
F0A
  8
0
  6
CONTINUOUS
  0
LINE
  5
630
  8
0
  6
CONTINUOUS
 10
21.3125
 20
8.8684999999999974
 30
0.0
 11
19.30749999999999
 21
8.8684999999999974
 31
0.0
  0
LINE
  5
631
  8
0
  6
CONTINUOUS
 10
19.107500000000002
 20
8.8684999999999974
 30
0.0
 11
16.352499999999999
 21
8.8684999999999974
 31
0.0
  0
LINE
  5
632
  8
0
  6
CONTINUOUS
 10
16.152499999999989
 20
8.8684999999999974
 30
0.0
 11
13.39749999999999
 21
8.8684999999999974
 31
0.0
  0
LINE
  5
633
  8
0
  6
CONTINUOUS
 10
13.1975
 20
8.8684999999999974
 30
0.0
 11
10.44249999999999
 21
8.8684999999999974
 31
0.0
  0
LINE
  5
634
  8
0
  6
CONTINUOUS
 10
10.242499999999991
 20
8.8684999999999974
 30
0.0
 11
7.4874999999999972
 21
8.8684999999999974
 31
0.0
  0
LINE
  5
635
  8
0
  6
CONTINUOUS
 10
7.2875000000000014
 20
8.8684999999999974
 30
0.0
 11
4.532499999999998
 21
8.8684999999999974
 31
0.0
  0
LINE
  5
636
  8
0
  6
CONTINUOUS
 10
4.332499999999996
 20
8.8684999999999974
 30
0.0
 11
1.5774999999999999
 21
8.8684999999999974
 31
0.0
  0
LINE
  5
637
  8
0
  6
CONTINUOUS
 10
1.3774999999999971
 20
8.8684999999999974
 30
0.0
 11
-1.3774999999999971
 21
8.8684999999999974
 31
0.0
  0
LINE
  5
638
  8
0
  6
CONTINUOUS
 10
-1.5774999999999999
 20
8.8684999999999974
 30
0.0
 11
-4.3324999999999987
 21
8.8684999999999974
 31
0.0
  0
LINE
  5
639
  8
0
  6
CONTINUOUS
 10
-4.532499999999998
 20
8.8684999999999974
 30
0.0
 11
-7.2875000000000014
 21
8.8684999999999974
 31
0.0
  0
LINE
  5
63A
  8
0
  6
CONTINUOUS
 10
-7.4874999999999998
 20
8.8684999999999974
 30
0.0
 11
-10.2425
 21
8.8684999999999974
 31
0.0
  0
LINE
  5
63B
  8
0
  6
CONTINUOUS
 10
-10.442500000000001
 20
8.8684999999999974
 30
0.0
 11
-13.1975
 21
8.8684999999999974
 31
0.0
  0
LINE
  5
63C
  8
0
  6
CONTINUOUS
 10
-13.397500000000001
 20
8.8684999999999974
 30
0.0
 11
-16.1525
 21
8.8684999999999974
 31
0.0
  0
LINE
  5
63D
  8
0
  6
CONTINUOUS
 10
-16.352499999999999
 20
8.8684999999999974
 30
0.0
 11
-19.107500000000002
 21
8.8684999999999974
 31
0.0
  0
LINE
  5
63E
  8
0
  6
CONTINUOUS
 10
-19.307500000000001
 20
8.8684999999999974
 30
0.0
 11
-21.3125
 21
8.8684999999999974
 31
0.0
  0
POLYLINE
  5
63F
  8
0
  6
CONTINUOUS
 66
     1
 10
0.0
 20
0.0
 30
0.0
  0
VERTEX
  5
F0B
  8
0
  6
CONTINUOUS
 10
25.189105172400001
 20
4.8276612933999976
 30
0.0
  0
VERTEX
  5
F0C
  8
0
  6
CONTINUOUS
 10
25.182877650399998
 20
4.8281239203000013
 30
0.0
  0
VERTEX
  5
F0D
  8
0
  6
CONTINUOUS
 10
25.170824898999999
 20
4.8318249351999887
 30
0.0
  0
VERTEX
  5
F0E
  8
0
  6
CONTINUOUS
 10
25.159200999599999
 20
4.8394713088000003
 30
0.0
  0
VERTEX
  5
F0F
  8
0
  6
CONTINUOUS
 10
25.147979392700002
 20
4.8508186972999994
 30
0.0
  0
VERTEX
  5
F10
  8
0
  6
CONTINUOUS
 10
25.137884984300001
 20
4.865134069299998
 30
0.0
  0
VERTEX
  5
F11
  8
0
  6
CONTINUOUS
 10
25.128992192999998
 20
4.8826133734000052
 30
0.0
  0
VERTEX
  5
F12
  8
0
  6
CONTINUOUS
 10
25.121226600100002
 20
4.903060660899996
 30
0.0
  0
VERTEX
  5
F13
  8
0
  6
CONTINUOUS
 10
25.115089856200001
 20
4.9251550550000038
 30
0.0
  0
VERTEX
  5
F14
  8
0
  6
CONTINUOUS
 10
25.110749178100001
 20
4.9484562634999909
 30
0.0
  0
VERTEX
  5
F15
  8
0
  6
CONTINUOUS
 10
25.108037349100002
 20
4.9734045784999941
 30
0.0
  0
VERTEX
  5
F16
  8
0
  6
CONTINUOUS
 10
25.106954369099999
 20
5.0
 30
0.0
  0
SEQEND
  5
F17
  8
0
  6
CONTINUOUS
  0
POLYLINE
  5
640
  8
0
  6
CONTINUOUS
 66
     1
 10
0.0
 20
0.0
 30
0.0
  0
VERTEX
  5
F18
  8
0
  6
CONTINUOUS
 10
25.189105172400001
 20
5.1723387067000033
 30
0.0
  0
VERTEX
  5
F19
  8
0
  6
CONTINUOUS
 10
25.195332694400001
 20
5.1718760797999863
 30
0.0
  0
VERTEX
  5
F1A
  8
0
  6
CONTINUOUS
 10
25.207385445900002
 20
5.168175064899998
 30
0.0
  0
VERTEX
  5
F1B
  8
0
  6
CONTINUOUS
 10
25.219009345300002
 20
5.1605286913000006
 30
0.0
  0
VERTEX
  5
F1C
  8
0
  6
CONTINUOUS
 10
25.230230952100001
 20
5.1491813027999882
 30
0.0
  0
VERTEX
  5
F1D
  8
0
  6
CONTINUOUS
 10
25.240325360500002
 20
5.1348659308000029
 30
0.0
  0
VERTEX
  5
F1E
  8
0
  6
CONTINUOUS
 10
25.249218151899999
 20
5.1173866266999957
 30
0.0
  0
VERTEX
  5
F1F
  8
0
  6
CONTINUOUS
 10
25.256983744799999
 20
5.0969393391999906
 30
0.0
  0
VERTEX
  5
F20
  8
0
  6
CONTINUOUS
 10
25.2631204887
 20
5.0748449449999953
 30
0.0
  0
VERTEX
  5
F21
  8
0
  6
CONTINUOUS
 10
25.267461166699999
 20
5.0515437365999949
 30
0.0
  0
VERTEX
  5
F22
  8
0
  6
CONTINUOUS
 10
25.27017299580001
 20
5.0265954215999917
 30
0.0
  0
VERTEX
  5
F23
  8
0
  6
CONTINUOUS
 10
25.271255975799999
 20
5.0
 30
0.0
  0
SEQEND
  5
F24
  8
0
  6
CONTINUOUS
  0
POLYLINE
  5
641
  8
0
  6
CONTINUOUS
 66
     1
 10
0.0
 20
0.0
 30
0.0
  0
VERTEX
  5
F25
  8
0
  6
CONTINUOUS
 10
24.508859415100002
 20
-7.6723387066000006
 30
0.0
  0
VERTEX
  5
F26
  8
0
  6
CONTINUOUS
 10
24.5081750423
 20
-7.6718760796999979
 30
0.0
  0
VERTEX
  5
F27
  8
0
  6
CONTINUOUS
 10
24.50685050660001
 20
-7.6681750648000104
 30
0.0
  0
VERTEX
  5
F28
  8
0
  6
CONTINUOUS
 10
24.505573099599999
 20
-7.6605286911999988
 30
0.0
  0
VERTEX
  5
F29
  8
0
  6
CONTINUOUS
 10
24.5043399025
 20
-7.6491813026999997
 30
0.0
  0
VERTEX
  5
F2A
  8
0
  6
CONTINUOUS
 10
24.503230578699998
 20
-7.6348659307000011
 30
0.0
  0
VERTEX
  5
F2B
  8
0
  6
CONTINUOUS
 10
24.502253306499998
 20
-7.6173866265999939
 30
0.0
  0
VERTEX
  5
F2C
  8
0
  6
CONTINUOUS
 10
24.5013999076
 20
-7.5969393391000031
 30
0.0
  0
VERTEX
  5
F2D
  8
0
  6
CONTINUOUS
 10
24.500725510799999
 20
-7.5748449449999953
 30
0.0
  0
VERTEX
  5
F2E
  8
0
  6
CONTINUOUS
 10
24.500248492499999
 20
-7.5515437365000082
 30
0.0
  0
VERTEX
  5
F2F
  8
0
  6
CONTINUOUS
 10
24.499950476399999
 20
-7.526595421500005
 30
0.0
  0
VERTEX
  5
F30
  8
0
  6
CONTINUOUS
 10
24.499831462500001
 20
-7.5
 30
0.0
  0
SEQEND
  5
F31
  8
0
  6
CONTINUOUS
  0
POLYLINE
  5
642
  8
0
  6
CONTINUOUS
 66
     1
 10
0.0
 20
0.0
 30
0.0
  0
VERTEX
  5
F32
  8
0
  6
CONTINUOUS
 10
24.508859415100002
 20
-7.3276612932999958
 30
0.0
  0
VERTEX
  5
F33
  8
0
  6
CONTINUOUS
 10
24.509543787799998
 20
-7.3281239202000128
 30
0.0
  0
VERTEX
  5
F34
  8
0
  6
CONTINUOUS
 10
24.510868323499999
 20
-7.3318249351000011
 30
0.0
  0
VERTEX
  5
F35
  8
0
  6
CONTINUOUS
 10
24.512145730500009
 20
-7.3394713086999976
 30
0.0
  0
VERTEX
  5
F36
  8
0
  6
CONTINUOUS
 10
24.5133789277
 20
-7.3508186972000109
 30
0.0
  0
VERTEX
  5
F37
  8
0
  6
CONTINUOUS
 10
24.5144882514
 20
-7.3651340691999962
 30
0.0
  0
VERTEX
  5
F38
  8
0
  6
CONTINUOUS
 10
24.515465523700001
 20
-7.3826133733000026
 30
0.0
  0
VERTEX
  5
F39
  8
0
  6
CONTINUOUS
 10
24.5163189226
 20
-7.4030606608000076
 30
0.0
  0
VERTEX
  5
F3A
  8
0
  6
CONTINUOUS
 10
24.516993319299999
 20
-7.4251550550000038
 30
0.0
  0
VERTEX
  5
F3B
  8
0
  6
CONTINUOUS
 10
24.517470337599999
 20
-7.4484562634000042
 30
0.0
  0
VERTEX
  5
F3C
  8
0
  6
CONTINUOUS
 10
24.517768353699999
 20
-7.4734045784000074
 30
0.0
  0
VERTEX
  5
F3D
  8
0
  6
CONTINUOUS
 10
24.517887367699998
 20
-7.5
 30
0.0
  0
SEQEND
  5
F3E
  8
0
  6
CONTINUOUS
  0
LINE
  5
643
  8
0
  6
CONTINUOUS
 10
10.242499999999991
 20
-8.8685000000000045
 30
0.0
 11
10.242499999999991
 21
-3.089500000000001
 31
0.0
  0
LINE
  5
644
  8
0
  6
CONTINUOUS
 10
10.242499999999991
 20
-2.8894999999999982
 30
0.0
 11
10.242499999999991
 21
2.8894999999999982
 31
0.0
  0
LINE
  5
645
  8
0
  6
CONTINUOUS
 10
10.242499999999991
 20
3.089500000000001
 30
0.0
 11
10.242499999999991
 21
8.8684999999999974
 31
0.0
  0
LINE
  5
646
  8
0
  6
CONTINUOUS
 10
10.44249999999999
 20
-8.8685000000000045
 30
0.0
 11
10.44249999999999
 21
-3.089500000000001
 31
0.0
  0
LINE
  5
647
  8
0
  6
CONTINUOUS
 10
10.44249999999999
 20
-2.8894999999999982
 30
0.0
 11
10.44249999999999
 21
2.8894999999999982
 31
0.0
  0
LINE
  5
648
  8
0
  6
CONTINUOUS
 10
10.44249999999999
 20
3.089500000000001
 30
0.0
 11
10.44249999999999
 21
8.8684999999999974
 31
0.0
  0
POLYLINE
  5
649
  8
0
  6
CONTINUOUS
 66
     1
 10
0.0
 20
0.0
 30
0.0
  0
VERTEX
  5
F3F
  8
0
  6
CONTINUOUS
 10
16.077661293399998
 20
11.17198428189999
 30
0.0
  0
VERTEX
  5
F40
  8
0
  6
CONTINUOUS
 10
16.078123920300001
 20
11.173123887099999
 30
0.0
  0
VERTEX
  5
F41
  8
0
  6
CONTINUOUS
 10
16.0818249352
 20
11.1753294799
 30
0.0
  0
VERTEX
  5
F42
  8
0
  6
CONTINUOUS
 10
16.0894713088
 20
11.17745659499999
 30
0.0
  0
VERTEX
  5
F43
  8
0
  6
CONTINUOUS
 10
16.100818697299999
 20
11.179510092599999
 30
0.0
  0
VERTEX
  5
F44
  8
0
  6
CONTINUOUS
 10
16.115134069300002
 20
11.181357318499989
 30
0.0
  0
VERTEX
  5
F45
  8
0
  6
CONTINUOUS
 10
16.132613373400002
 20
11.18298465449999
 30
0.0
  0
VERTEX
  5
F46
  8
0
  6
CONTINUOUS
 10
16.153060660899989
 20
11.18440571889999
 30
0.0
  0
VERTEX
  5
F47
  8
0
  6
CONTINUOUS
 10
16.175155055099999
 20
11.185528712199989
 30
0.0
  0
VERTEX
  5
F48
  8
0
  6
CONTINUOUS
 10
16.198456263499999
 20
11.18632303439999
 30
0.0
  0
VERTEX
  5
F49
  8
0
  6
CONTINUOUS
 10
16.223404578499999
 20
11.18681928549999
 30
0.0
  0
VERTEX
  5
F4A
  8
0
  6
CONTINUOUS
 10
16.25
 20
11.1870174654
 30
0.0
  0
SEQEND
  5
F4B
  8
0
  6
CONTINUOUS
  0
POLYLINE
  5
64A
  8
0
  6
CONTINUOUS
 66
     1
 10
0.0
 20
0.0
 30
0.0
  0
VERTEX
  5
F4C
  8
0
  6
CONTINUOUS
 10
16.4223387067
 20
11.17198428189999
 30
0.0
  0
VERTEX
  5
F4D
  8
0
  6
CONTINUOUS
 10
16.421876079800001
 20
11.1708446767
 30
0.0
  0
VERTEX
  5
F4E
  8
0
  6
CONTINUOUS
 10
16.418175064899991
 20
11.1686390838
 30
0.0
  0
VERTEX
  5
F4F
  8
0
  6
CONTINUOUS
 10
16.410528691300001
 20
11.166511968799989
 30
0.0
  0
VERTEX
  5
F50
  8
0
  6
CONTINUOUS
 10
16.399181302799999
 20
11.164458471199991
 30
0.0
  0
VERTEX
  5
F51
  8
0
  6
CONTINUOUS
 10
16.3848659308
 20
11.162611245300001
 30
0.0
  0
VERTEX
  5
F52
  8
0
  6
CONTINUOUS
 10
16.3673866267
 20
11.1609839092
 30
0.0
  0
VERTEX
  5
F53
  8
0
  6
CONTINUOUS
 10
16.346939339199999
 20
11.159562844799989
 30
0.0
  0
VERTEX
  5
F54
  8
0
  6
CONTINUOUS
 10
16.324844944999992
 20
11.15843985159999
 30
0.0
  0
VERTEX
  5
F55
  8
0
  6
CONTINUOUS
 10
16.301543736599999
 20
11.157645529299989
 30
0.0
  0
VERTEX
  5
F56
  8
0
  6
CONTINUOUS
 10
16.2765954216
 20
11.1571492783
 30
0.0
  0
VERTEX
  5
F57
  8
0
  6
CONTINUOUS
 10
16.25
 20
11.1569510984
 30
0.0
  0
SEQEND
  5
F58
  8
0
  6
CONTINUOUS
  0
POLYLINE
  5
64B
  8
0
  6
CONTINUOUS
 66
     1
 10
0.0
 20
0.0
 30
0.0
  0
VERTEX
  5
F59
  8
0
  6
CONTINUOUS
 10
9.5776612933999985
 20
-11.1719842818
 30
0.0
  0
VERTEX
  5
F5A
  8
0
  6
CONTINUOUS
 10
9.5781239203000013
 20
-11.1708446766
 30
0.0
  0
VERTEX
  5
F5B
  8
0
  6
CONTINUOUS
 10
9.5818249352000038
 20
-11.1686390838
 30
0.0
  0
VERTEX
  5
F5C
  8
0
  6
CONTINUOUS
 10
9.5894713088000003
 20
-11.1665119687
 30
0.0
  0
VERTEX
  5
F5D
  8
0
  6
CONTINUOUS
 10
9.6008186972999994
 20
-11.1644584711
 30
0.0
  0
VERTEX
  5
F5E
  8
0
  6
CONTINUOUS
 10
9.615134069299998
 20
-11.162611245200001
 30
0.0
  0
VERTEX
  5
F5F
  8
0
  6
CONTINUOUS
 10
9.6326133733999981
 20
-11.1609839091
 30
0.0
  0
VERTEX
  5
F60
  8
0
  6
CONTINUOUS
 10
9.653060660899996
 20
-11.1595628447
 30
0.0
  0
VERTEX
  5
F61
  8
0
  6
CONTINUOUS
 10
9.6751550550999994
 20
-11.158439851500001
 30
0.0
  0
VERTEX
  5
F62
  8
0
  6
CONTINUOUS
 10
9.6984562634999971
 20
-11.1576455293
 30
0.0
  0
VERTEX
  5
F63
  8
0
  6
CONTINUOUS
 10
9.7234045784999932
 20
-11.157149278200009
 30
0.0
  0
VERTEX
  5
F64
  8
0
  6
CONTINUOUS
 10
9.75
 20
-11.1569510983
 30
0.0
  0
SEQEND
  5
F65
  8
0
  6
CONTINUOUS
  0
POLYLINE
  5
64C
  8
0
  6
CONTINUOUS
 66
     1
 10
0.0
 20
0.0
 30
0.0
  0
VERTEX
  5
F66
  8
0
  6
CONTINUOUS
 10
19.5
 20
11.118473536499989
 30
0.0
  0
VERTEX
  5
F67
  8
0
  6
CONTINUOUS
 10
19.515689301199998
 20
11.118615685699989
 30
0.0
  0
VERTEX
  5
F68
  8
0
  6
CONTINUOUS
 10
19.530092188299999
 20
11.118952014399991
 30
0.0
  0
VERTEX
  5
F69
  8
0
  6
CONTINUOUS
 10
19.5432086615
 20
11.11948252249999
 30
0.0
  0
VERTEX
  5
F6A
  8
0
  6
CONTINUOUS
 10
19.555352627399991
 20
11.12023456659999
 30
0.0
  0
VERTEX
  5
F6B
  8
0
  6
CONTINUOUS
 10
19.566210179399999
 20
11.121180790199981
 30
0.0
  0
VERTEX
  5
F6C
  8
0
  6
CONTINUOUS
 10
19.574839597
 20
11.122239123399989
 30
0.0
  0
VERTEX
  5
F6D
  8
0
  6
CONTINUOUS
 10
19.5810418712
 20
11.123419579299989
 30
0.0
  0
VERTEX
  5
F6E
  8
0
  6
CONTINUOUS
 10
19.585016011
 20
11.1247121448
 30
0.0
  0
VERTEX
  5
F6F
  8
0
  6
CONTINUOUS
 10
19.586417322900001
 20
11.126004710199989
 30
0.0
  0
SEQEND
  5
F70
  8
0
  6
CONTINUOUS
  0
POLYLINE
  5
64D
  8
0
  6
CONTINUOUS
 66
     1
 10
0.0
 20
0.0
 30
0.0
  0
VERTEX
  5
F71
  8
0
  6
CONTINUOUS
 10
19.5
 20
11.13353588399999
 30
0.0
  0
VERTEX
  5
F72
  8
0
  6
CONTINUOUS
 10
19.4843106989
 20
11.13339373479999
 30
0.0
  0
VERTEX
  5
F73
  8
0
  6
CONTINUOUS
 10
19.469907811799999
 20
11.13305740609999
 30
0.0
  0
VERTEX
  5
F74
  8
0
  6
CONTINUOUS
 10
19.456791338599999
 20
11.132526897999989
 30
0.0
  0
VERTEX
  5
F75
  8
0
  6
CONTINUOUS
 10
19.44464737269999
 20
11.1317748539
 30
0.0
  0
VERTEX
  5
F76
  8
0
  6
CONTINUOUS
 10
19.433789820699999
 20
11.1308286303
 30
0.0
  0
VERTEX
  5
F77
  8
0
  6
CONTINUOUS
 10
19.425160403100001
 20
11.12977029709999
 30
0.0
  0
VERTEX
  5
F78
  8
0
  6
CONTINUOUS
 10
19.418958128900002
 20
11.12858984119999
 30
0.0
  0
VERTEX
  5
F79
  8
0
  6
CONTINUOUS
 10
19.414983989100001
 20
11.127297275699981
 30
0.0
  0
VERTEX
  5
F7A
  8
0
  6
CONTINUOUS
 10
19.413582677200001
 20
11.126004710199989
 30
0.0
  0
SEQEND
  5
F7B
  8
0
  6
CONTINUOUS
  0
LINE
  5
64E
  8
0
  6
CONTINUOUS
 10
-23.270053738800001
 20
11.069363984400001
 30
0.0
 11
23.2700537389
 21
11.069363984400001
 31
0.0
  0
POLYLINE
  5
64F
  8
0
  6
CONTINUOUS
 66
     1
 10
0.0
 20
0.0
 30
0.0
  0
VERTEX
  5
F7C
  8
0
  6
CONTINUOUS
 10
-16.25
 20
11.1569510984
 30
0.0
  0
VERTEX
  5
F7D
  8
0
  6
CONTINUOUS
 10
-16.276595421500001
 20
11.1571492783
 30
0.0
  0
VERTEX
  5
F7E
  8
0
  6
CONTINUOUS
 10
-16.301543736500001
 20
11.157645529299989
 30
0.0
  0
VERTEX
  5
F7F
  8
0
  6
CONTINUOUS
 10
-16.324844944900001
 20
11.15843985159999
 30
0.0
  0
VERTEX
  5
F80
  8
0
  6
CONTINUOUS
 10
-16.3469393391
 20
11.159562844799989
 30
0.0
  0
VERTEX
  5
F81
  8
0
  6
CONTINUOUS
 10
-16.367386626599998
 20
11.1609839092
 30
0.0
  0
VERTEX
  5
F82
  8
0
  6
CONTINUOUS
 10
-16.384865930699998
 20
11.162611245300001
 30
0.0
  0
VERTEX
  5
F83
  8
0
  6
CONTINUOUS
 10
-16.399181302700001
 20
11.164458471199991
 30
0.0
  0
VERTEX
  5
F84
  8
0
  6
CONTINUOUS
 10
-16.4105286912
 20
11.166511968799989
 30
0.0
  0
VERTEX
  5
F85
  8
0
  6
CONTINUOUS
 10
-16.4181750648
 20
11.1686390838
 30
0.0
  0
VERTEX
  5
F86
  8
0
  6
CONTINUOUS
 10
-16.421876079699999
 20
11.1708446767
 30
0.0
  0
VERTEX
  5
F87
  8
0
  6
CONTINUOUS
 10
-16.422338706600002
 20
11.17198428189999
 30
0.0
  0
SEQEND
  5
F88
  8
0
  6
CONTINUOUS
  0
POLYLINE
  5
650
  8
0
  6
CONTINUOUS
 66
     1
 10
0.0
 20
0.0
 30
0.0
  0
VERTEX
  5
F89
  8
0
  6
CONTINUOUS
 10
-16.25
 20
11.1870174654
 30
0.0
  0
VERTEX
  5
F8A
  8
0
  6
CONTINUOUS
 10
-16.2234045784
 20
11.18681928549999
 30
0.0
  0
VERTEX
  5
F8B
  8
0
  6
CONTINUOUS
 10
-16.198456263400001
 20
11.18632303439999
 30
0.0
  0
VERTEX
  5
F8C
  8
0
  6
CONTINUOUS
 10
-16.175155055000001
 20
11.185528712199989
 30
0.0
  0
VERTEX
  5
F8D
  8
0
  6
CONTINUOUS
 10
-16.153060660800001
 20
11.18440571889999
 30
0.0
  0
VERTEX
  5
F8E
  8
0
  6
CONTINUOUS
 10
-16.1326133733
 20
11.18298465449999
 30
0.0
  0
VERTEX
  5
F8F
  8
0
  6
CONTINUOUS
 10
-16.1151340692
 20
11.181357318499989
 30
0.0
  0
VERTEX
  5
F90
  8
0
  6
CONTINUOUS
 10
-16.100818697200001
 20
11.179510092599999
 30
0.0
  0
VERTEX
  5
F91
  8
0
  6
CONTINUOUS
 10
-16.089471308699999
 20
11.17745659499999
 30
0.0
  0
VERTEX
  5
F92
  8
0
  6
CONTINUOUS
 10
-16.081824935099998
 20
11.1753294799
 30
0.0
  0
VERTEX
  5
F93
  8
0
  6
CONTINUOUS
 10
-16.078123920199999
 20
11.173123887099999
 30
0.0
  0
VERTEX
  5
F94
  8
0
  6
CONTINUOUS
 10
-16.0776612933
 20
11.17198428189999
 30
0.0
  0
SEQEND
  5
F95
  8
0
  6
CONTINUOUS
  0
POLYLINE
  5
651
  8
0
  6
CONTINUOUS
 66
     1
 10
0.0
 20
0.0
 30
0.0
  0
VERTEX
  5
F96
  8
0
  6
CONTINUOUS
 10
-9.75
 20
11.1569510984
 30
0.0
  0
VERTEX
  5
F97
  8
0
  6
CONTINUOUS
 10
-9.7765954215000015
 20
11.1571492783
 30
0.0
  0
VERTEX
  5
F98
  8
0
  6
CONTINUOUS
 10
-9.8015437365000011
 20
11.157645529299989
 30
0.0
  0
VERTEX
  5
F99
  8
0
  6
CONTINUOUS
 10
-9.8248449449000006
 20
11.15843985159999
 30
0.0
  0
VERTEX
  5
F9A
  8
0
  6
CONTINUOUS
 10
-9.8469393391000004
 20
11.159562844799989
 30
0.0
  0
VERTEX
  5
F9B
  8
0
  6
CONTINUOUS
 10
-9.8673866266000019
 20
11.1609839092
 30
0.0
  0
VERTEX
  5
F9C
  8
0
  6
CONTINUOUS
 10
-9.8848659307000002
 20
11.162611245300001
 30
0.0
  0
VERTEX
  5
F9D
  8
0
  6
CONTINUOUS
 10
-9.8991813027000006
 20
11.164458471199991
 30
0.0
  0
VERTEX
  5
F9E
  8
0
  6
CONTINUOUS
 10
-9.9105286911999997
 20
11.166511968799989
 30
0.0
  0
VERTEX
  5
F9F
  8
0
  6
CONTINUOUS
 10
-9.9181750647999998
 20
11.1686390838
 30
0.0
  0
VERTEX
  5
FA0
  8
0
  6
CONTINUOUS
 10
-9.9218760796999987
 20
11.1708446767
 30
0.0
  0
VERTEX
  5
FA1
  8
0
  6
CONTINUOUS
 10
-9.9223387066000015
 20
11.17198428189999
 30
0.0
  0
SEQEND
  5
FA2
  8
0
  6
CONTINUOUS
  0
POLYLINE
  5
652
  8
0
  6
CONTINUOUS
 66
     1
 10
0.0
 20
0.0
 30
0.0
  0
VERTEX
  5
FA3
  8
0
  6
CONTINUOUS
 10
-9.75
 20
11.1870174654
 30
0.0
  0
VERTEX
  5
FA4
  8
0
  6
CONTINUOUS
 10
-9.7234045784000003
 20
11.18681928549999
 30
0.0
  0
VERTEX
  5
FA5
  8
0
  6
CONTINUOUS
 10
-9.6984562634000007
 20
11.18632303439999
 30
0.0
  0
VERTEX
  5
FA6
  8
0
  6
CONTINUOUS
 10
-9.6751550550000012
 20
11.185528712199989
 30
0.0
  0
VERTEX
  5
FA7
  8
0
  6
CONTINUOUS
 10
-9.6530606608000014
 20
11.18440571889999
 30
0.0
  0
VERTEX
  5
FA8
  8
0
  6
CONTINUOUS
 10
-9.6326133732999981
 20
11.18298465449999
 30
0.0
  0
VERTEX
  5
FA9
  8
0
  6
CONTINUOUS
 10
-9.6151340691999998
 20
11.181357318499989
 30
0.0
  0
VERTEX
  5
FAA
  8
0
  6
CONTINUOUS
 10
-9.6008186972000011
 20
11.179510092599999
 30
0.0
  0
VERTEX
  5
FAB
  8
0
  6
CONTINUOUS
 10
-9.5894713086999985
 20
11.17745659499999
 30
0.0
  0
VERTEX
  5
FAC
  8
0
  6
CONTINUOUS
 10
-9.5818249351000002
 20
11.1753294799
 30
0.0
  0
VERTEX
  5
FAD
  8
0
  6
CONTINUOUS
 10
-9.5781239201999995
 20
11.173123887099999
 30
0.0
  0
VERTEX
  5
FAE
  8
0
  6
CONTINUOUS
 10
-9.5776612933000003
 20
11.17198428189999
 30
0.0
  0
SEQEND
  5
FAF
  8
0
  6
CONTINUOUS
  0
POLYLINE
  5
653
  8
0
  6
CONTINUOUS
 66
     1
 10
0.0
 20
0.0
 30
0.0
  0
VERTEX
  5
FB0
  8
0
  6
CONTINUOUS
 10
-3.25
 20
11.1569510984
 30
0.0
  0
VERTEX
  5
FB1
  8
0
  6
CONTINUOUS
 10
-3.276595421500001
 20
11.1571492783
 30
0.0
  0
VERTEX
  5
FB2
  8
0
  6
CONTINUOUS
 10
-3.3015437365000011
 20
11.157645529299989
 30
0.0
  0
VERTEX
  5
FB3
  8
0
  6
CONTINUOUS
 10
-3.3248449449000002
 20
11.15843985159999
 30
0.0
  0
VERTEX
  5
FB4
  8
0
  6
CONTINUOUS
 10
-3.3469393391
 20
11.159562844799989
 30
0.0
  0
VERTEX
  5
FB5
  8
0
  6
CONTINUOUS
 10
-3.367386626600001
 20
11.1609839092
 30
0.0
  0
VERTEX
  5
FB6
  8
0
  6
CONTINUOUS
 10
-3.3848659307000011
 20
11.162611245300001
 30
0.0
  0
VERTEX
  5
FB7
  8
0
  6
CONTINUOUS
 10
-3.3991813027000002
 20
11.164458471199991
 30
0.0
  0
VERTEX
  5
FB8
  8
0
  6
CONTINUOUS
 10
-3.4105286911999988
 20
11.166511968799989
 30
0.0
  0
VERTEX
  5
FB9
  8
0
  6
CONTINUOUS
 10
-3.4181750647999989
 20
11.1686390838
 30
0.0
  0
VERTEX
  5
FBA
  8
0
  6
CONTINUOUS
 10
-3.4218760796999979
 20
11.1708446767
 30
0.0
  0
VERTEX
  5
FBB
  8
0
  6
CONTINUOUS
 10
-3.4223387066000011
 20
11.17198428189999
 30
0.0
  0
SEQEND
  5
FBC
  8
0
  6
CONTINUOUS
  0
POLYLINE
  5
654
  8
0
  6
CONTINUOUS
 66
     1
 10
0.0
 20
0.0
 30
0.0
  0
VERTEX
  5
FBD
  8
0
  6
CONTINUOUS
 10
-3.25
 20
11.1870174654
 30
0.0
  0
VERTEX
  5
FBE
  8
0
  6
CONTINUOUS
 10
-3.2234045783999998
 20
11.18681928549999
 30
0.0
  0
VERTEX
  5
FBF
  8
0
  6
CONTINUOUS
 10
-3.1984562634000002
 20
11.18632303439999
 30
0.0
  0
VERTEX
  5
FC0
  8
0
  6
CONTINUOUS
 10
-3.1751550549999972
 20
11.185528712199989
 30
0.0
  0
VERTEX
  5
FC1
  8
0
  6
CONTINUOUS
 10
-3.1530606608000009
 20
11.18440571889999
 30
0.0
  0
VERTEX
  5
FC2
  8
0
  6
CONTINUOUS
 10
-3.132613373299999
 20
11.18298465449999
 30
0.0
  0
VERTEX
  5
FC3
  8
0
  6
CONTINUOUS
 10
-3.1151340691999989
 20
11.181357318499989
 30
0.0
  0
VERTEX
  5
FC4
  8
0
  6
CONTINUOUS
 10
-3.1008186971999971
 20
11.179510092599999
 30
0.0
  0
VERTEX
  5
FC5
  8
0
  6
CONTINUOUS
 10
-3.0894713086999981
 20
11.17745659499999
 30
0.0
  0
VERTEX
  5
FC6
  8
0
  6
CONTINUOUS
 10
-3.0818249351000011
 20
11.1753294799
 30
0.0
  0
VERTEX
  5
FC7
  8
0
  6
CONTINUOUS
 10
-3.078123920199999
 20
11.173123887099999
 30
0.0
  0
VERTEX
  5
FC8
  8
0
  6
CONTINUOUS
 10
-3.0776612932999998
 20
11.17198428189999
 30
0.0
  0
SEQEND
  5
FC9
  8
0
  6
CONTINUOUS
  0
POLYLINE
  5
655
  8
0
  6
CONTINUOUS
 66
     1
 10
0.0
 20
0.0
 30
0.0
  0
VERTEX
  5
FCA
  8
0
  6
CONTINUOUS
 10
3.25
 20
11.1569510984
 30
0.0
  0
VERTEX
  5
FCB
  8
0
  6
CONTINUOUS
 10
3.2234045784999941
 20
11.1571492783
 30
0.0
  0
VERTEX
  5
FCC
  8
0
  6
CONTINUOUS
 10
3.198456263499998
 20
11.157645529299989
 30
0.0
  0
VERTEX
  5
FCD
  8
0
  6
CONTINUOUS
 10
3.175155055099999
 20
11.15843985159999
 30
0.0
  0
VERTEX
  5
FCE
  8
0
  6
CONTINUOUS
 10
3.153060660899996
 20
11.159562844799989
 30
0.0
  0
VERTEX
  5
FCF
  8
0
  6
CONTINUOUS
 10
3.1326133733999981
 20
11.1609839092
 30
0.0
  0
VERTEX
  5
FD0
  8
0
  6
CONTINUOUS
 10
3.115134069299998
 20
11.162611245300001
 30
0.0
  0
VERTEX
  5
FD1
  8
0
  6
CONTINUOUS
 10
3.1008186972999989
 20
11.164458471199991
 30
0.0
  0
VERTEX
  5
FD2
  8
0
  6
CONTINUOUS
 10
3.0894713087999999
 20
11.166511968799989
 30
0.0
  0
VERTEX
  5
FD3
  8
0
  6
CONTINUOUS
 10
3.0818249352000029
 20
11.1686390838
 30
0.0
  0
VERTEX
  5
FD4
  8
0
  6
CONTINUOUS
 10
3.0781239203000008
 20
11.1708446767
 30
0.0
  0
VERTEX
  5
FD5
  8
0
  6
CONTINUOUS
 10
3.0776612933999981
 20
11.17198428189999
 30
0.0
  0
SEQEND
  5
FD6
  8
0
  6
CONTINUOUS
  0
POLYLINE
  5
656
  8
0
  6
CONTINUOUS
 66
     1
 10
0.0
 20
0.0
 30
0.0
  0
VERTEX
  5
FD7
  8
0
  6
CONTINUOUS
 10
3.25
 20
11.1870174654
 30
0.0
  0
VERTEX
  5
FD8
  8
0
  6
CONTINUOUS
 10
3.2765954215999988
 20
11.18681928549999
 30
0.0
  0
VERTEX
  5
FD9
  8
0
  6
CONTINUOUS
 10
3.3015437365999949
 20
11.18632303439999
 30
0.0
  0
VERTEX
  5
FDA
  8
0
  6
CONTINUOUS
 10
3.3248449450000019
 20
11.185528712199989
 30
0.0
  0
VERTEX
  5
FDB
  8
0
  6
CONTINUOUS
 10
3.3469393391999982
 20
11.18440571889999
 30
0.0
  0
VERTEX
  5
FDC
  8
0
  6
CONTINUOUS
 10
3.3673866266999961
 20
11.18298465449999
 30
0.0
  0
VERTEX
  5
FDD
  8
0
  6
CONTINUOUS
 10
3.3848659308000029
 20
11.181357318499989
 30
0.0
  0
VERTEX
  5
FDE
  8
0
  6
CONTINUOUS
 10
3.399181302800002
 20
11.179510092599999
 30
0.0
  0
VERTEX
  5
FDF
  8
0
  6
CONTINUOUS
 10
3.410528691300001
 20
11.17745659499999
 30
0.0
  0
VERTEX
  5
FE0
  8
0
  6
CONTINUOUS
 10
3.418175064899998
 20
11.1753294799
 30
0.0
  0
VERTEX
  5
FE1
  8
0
  6
CONTINUOUS
 10
3.4218760798000001
 20
11.173123887099999
 30
0.0
  0
VERTEX
  5
FE2
  8
0
  6
CONTINUOUS
 10
3.4223387066999962
 20
11.17198428189999
 30
0.0
  0
SEQEND
  5
FE3
  8
0
  6
CONTINUOUS
  0
POLYLINE
  5
657
  8
0
  6
CONTINUOUS
 66
     1
 10
0.0
 20
0.0
 30
0.0
  0
VERTEX
  5
FE4
  8
0
  6
CONTINUOUS
 10
-19.5
 20
11.368384800399991
 30
0.0
  0
VERTEX
  5
FE5
  8
0
  6
CONTINUOUS
 10
-19.526595421500001
 20
11.36858298029999
 30
0.0
  0
VERTEX
  5
FE6
  8
0
  6
CONTINUOUS
 10
-19.551543736500001
 20
11.36907923139999
 30
0.0
  0
VERTEX
  5
FE7
  8
0
  6
CONTINUOUS
 10
-19.574844944900001
 20
11.36987355359998
 30
0.0
  0
VERTEX
  5
FE8
  8
0
  6
CONTINUOUS
 10
-19.5969393391
 20
11.37099654689999
 30
0.0
  0
VERTEX
  5
FE9
  8
0
  6
CONTINUOUS
 10
-19.617386626599998
 20
11.372417611299991
 30
0.0
  0
VERTEX
  5
FEA
  8
0
  6
CONTINUOUS
 10
-19.634865930699998
 20
11.374044947299989
 30
0.0
  0
VERTEX
  5
FEB
  8
0
  6
CONTINUOUS
 10
-19.649181302700001
 20
11.3758921733
 30
0.0
  0
VERTEX
  5
FEC
  8
0
  6
CONTINUOUS
 10
-19.6605286912
 20
11.377945670800001
 30
0.0
  0
VERTEX
  5
FED
  8
0
  6
CONTINUOUS
 10
-19.6681750648
 20
11.380072785899991
 30
0.0
  0
VERTEX
  5
FEE
  8
0
  6
CONTINUOUS
 10
-19.671876079699999
 20
11.38227837879999
 30
0.0
  0
VERTEX
  5
FEF
  8
0
  6
CONTINUOUS
 10
-19.672338706600002
 20
11.38341798389999
 30
0.0
  0
SEQEND
  5
FF0
  8
0
  6
CONTINUOUS
  0
POLYLINE
  5
658
  8
0
  6
CONTINUOUS
 66
     1
 10
0.0
 20
0.0
 30
0.0
  0
VERTEX
  5
FF1
  8
0
  6
CONTINUOUS
 10
9.75
 20
11.1569510984
 30
0.0
  0
VERTEX
  5
FF2
  8
0
  6
CONTINUOUS
 10
9.7234045784999932
 20
11.1571492783
 30
0.0
  0
VERTEX
  5
FF3
  8
0
  6
CONTINUOUS
 10
9.6984562634999971
 20
11.157645529299989
 30
0.0
  0
VERTEX
  5
FF4
  8
0
  6
CONTINUOUS
 10
9.6751550550999994
 20
11.15843985159999
 30
0.0
  0
VERTEX
  5
FF5
  8
0
  6
CONTINUOUS
 10
9.653060660899996
 20
11.159562844799989
 30
0.0
  0
VERTEX
  5
FF6
  8
0
  6
CONTINUOUS
 10
9.6326133733999981
 20
11.1609839092
 30
0.0
  0
VERTEX
  5
FF7
  8
0
  6
CONTINUOUS
 10
9.615134069299998
 20
11.162611245300001
 30
0.0
  0
VERTEX
  5
FF8
  8
0
  6
CONTINUOUS
 10
9.6008186972999994
 20
11.164458471199991
 30
0.0
  0
VERTEX
  5
FF9
  8
0
  6
CONTINUOUS
 10
9.5894713088000003
 20
11.166511968799989
 30
0.0
  0
VERTEX
  5
FFA
  8
0
  6
CONTINUOUS
 10
9.5818249352000038
 20
11.1686390838
 30
0.0
  0
VERTEX
  5
FFB
  8
0
  6
CONTINUOUS
 10
9.5781239203000013
 20
11.1708446767
 30
0.0
  0
VERTEX
  5
FFC
  8
0
  6
CONTINUOUS
 10
9.5776612933999985
 20
11.17198428189999
 30
0.0
  0
SEQEND
  5
FFD
  8
0
  6
CONTINUOUS
  0
POLYLINE
  5
659
  8
0
  6
CONTINUOUS
 66
     1
 10
0.0
 20
0.0
 30
0.0
  0
VERTEX
  5
FFE
  8
0
  6
CONTINUOUS
 10
-19.5
 20
11.398451167399999
 30
0.0
  0
VERTEX
  5
FFF
  8
0
  6
CONTINUOUS
 10
-19.4734045784
 20
11.398252987499999
 30
0.0
  0
VERTEX
  5
1000
  8
0
  6
CONTINUOUS
 10
-19.448456263400001
 20
11.3977567365
 30
0.0
  0
VERTEX
  5
1001
  8
0
  6
CONTINUOUS
 10
-19.425155055000001
 20
11.39696241429999
 30
0.0
  0
VERTEX
  5
1002
  8
0
  6
CONTINUOUS
 10
-19.403060660800001
 20
11.395839420999989
 30
0.0
  0
VERTEX
  5
1003
  8
0
  6
CONTINUOUS
 10
-19.3826133733
 20
11.394418356599999
 30
0.0
  0
VERTEX
  5
1004
  8
0
  6
CONTINUOUS
 10
-19.3651340692
 20
11.392791020500001
 30
0.0
  0
VERTEX
  5
1005
  8
0
  6
CONTINUOUS
 10
-19.350818697200001
 20
11.390943794599989
 30
0.0
  0
VERTEX
  5
1006
  8
0
  6
CONTINUOUS
 10
-19.339471308699999
 20
11.388890296999991
 30
0.0
  0
VERTEX
  5
1007
  8
0
  6
CONTINUOUS
 10
-19.331824935099998
 20
11.38676318199999
 30
0.0
  0
VERTEX
  5
1008
  8
0
  6
CONTINUOUS
 10
-19.328123920199999
 20
11.3845575891
 30
0.0
  0
VERTEX
  5
1009
  8
0
  6
CONTINUOUS
 10
-19.3276612933
 20
11.38341798389999
 30
0.0
  0
SEQEND
  5
100A
  8
0
  6
CONTINUOUS
  0
POLYLINE
  5
65A
  8
0
  6
CONTINUOUS
 66
     1
 10
0.0
 20
0.0
 30
0.0
  0
VERTEX
  5
100B
  8
0
  6
CONTINUOUS
 10
9.75
 20
11.1870174654
 30
0.0
  0
VERTEX
  5
100C
  8
0
  6
CONTINUOUS
 10
9.7765954215999997
 20
11.18681928549999
 30
0.0
  0
VERTEX
  5
100D
  8
0
  6
CONTINUOUS
 10
9.8015437365999958
 20
11.18632303439999
 30
0.0
  0
VERTEX
  5
100E
  8
0
  6
CONTINUOUS
 10
9.8248449449999953
 20
11.185528712199989
 30
0.0
  0
VERTEX
  5
100F
  8
0
  6
CONTINUOUS
 10
9.8469393391999986
 20
11.18440571889999
 30
0.0
  0
VERTEX
  5
1010
  8
0
  6
CONTINUOUS
 10
9.8673866266999966
 20
11.18298465449999
 30
0.0
  0
VERTEX
  5
1011
  8
0
  6
CONTINUOUS
 10
9.8848659308000038
 20
11.181357318499989
 30
0.0
  0
VERTEX
  5
1012
  8
0
  6
CONTINUOUS
 10
9.8991813028000024
 20
11.179510092599999
 30
0.0
  0
VERTEX
  5
1013
  8
0
  6
CONTINUOUS
 10
9.9105286913000015
 20
11.17745659499999
 30
0.0
  0
VERTEX
  5
1014
  8
0
  6
CONTINUOUS
 10
9.918175064899998
 20
11.1753294799
 30
0.0
  0
VERTEX
  5
1015
  8
0
  6
CONTINUOUS
 10
9.9218760798000005
 20
11.173123887099999
 30
0.0
  0
VERTEX
  5
1016
  8
0
  6
CONTINUOUS
 10
9.9223387067000033
 20
11.17198428189999
 30
0.0
  0
SEQEND
  5
1017
  8
0
  6
CONTINUOUS
  0
POLYLINE
  5
65B
  8
0
  6
CONTINUOUS
 66
     1
 10
0.0
 20
0.0
 30
0.0
  0
VERTEX
  5
1018
  8
0
  6
CONTINUOUS
 10
-13.0
 20
11.368384800399991
 30
0.0
  0
VERTEX
  5
1019
  8
0
  6
CONTINUOUS
 10
-13.0265954215
 20
11.36858298029999
 30
0.0
  0
VERTEX
  5
101A
  8
0
  6
CONTINUOUS
 10
-13.051543736499999
 20
11.36907923139999
 30
0.0
  0
VERTEX
  5
101B
  8
0
  6
CONTINUOUS
 10
-13.074844944900001
 20
11.36987355359998
 30
0.0
  0
VERTEX
  5
101C
  8
0
  6
CONTINUOUS
 10
-13.0969393391
 20
11.37099654689999
 30
0.0
  0
VERTEX
  5
101D
  8
0
  6
CONTINUOUS
 10
-13.1173866266
 20
11.372417611299991
 30
0.0
  0
VERTEX
  5
101E
  8
0
  6
CONTINUOUS
 10
-13.1348659307
 20
11.374044947299989
 30
0.0
  0
VERTEX
  5
101F
  8
0
  6
CONTINUOUS
 10
-13.149181302700001
 20
11.3758921733
 30
0.0
  0
VERTEX
  5
1020
  8
0
  6
CONTINUOUS
 10
-13.1605286912
 20
11.377945670800001
 30
0.0
  0
VERTEX
  5
1021
  8
0
  6
CONTINUOUS
 10
-13.1681750648
 20
11.380072785899991
 30
0.0
  0
VERTEX
  5
1022
  8
0
  6
CONTINUOUS
 10
-13.171876079700001
 20
11.38227837879999
 30
0.0
  0
VERTEX
  5
1023
  8
0
  6
CONTINUOUS
 10
-13.1723387066
 20
11.38341798389999
 30
0.0
  0
SEQEND
  5
1024
  8
0
  6
CONTINUOUS
  0
POLYLINE
  5
65C
  8
0
  6
CONTINUOUS
 66
     1
 10
0.0
 20
0.0
 30
0.0
  0
VERTEX
  5
1025
  8
0
  6
CONTINUOUS
 10
16.25
 20
11.1569510984
 30
0.0
  0
VERTEX
  5
1026
  8
0
  6
CONTINUOUS
 10
16.223404578499999
 20
11.1571492783
 30
0.0
  0
VERTEX
  5
1027
  8
0
  6
CONTINUOUS
 10
16.198456263499999
 20
11.157645529299989
 30
0.0
  0
VERTEX
  5
1028
  8
0
  6
CONTINUOUS
 10
16.175155055099999
 20
11.15843985159999
 30
0.0
  0
VERTEX
  5
1029
  8
0
  6
CONTINUOUS
 10
16.153060660899989
 20
11.159562844799989
 30
0.0
  0
VERTEX
  5
102A
  8
0
  6
CONTINUOUS
 10
16.132613373400002
 20
11.1609839092
 30
0.0
  0
VERTEX
  5
102B
  8
0
  6
CONTINUOUS
 10
16.115134069300002
 20
11.162611245300001
 30
0.0
  0
VERTEX
  5
102C
  8
0
  6
CONTINUOUS
 10
16.100818697299999
 20
11.164458471199991
 30
0.0
  0
VERTEX
  5
102D
  8
0
  6
CONTINUOUS
 10
16.0894713088
 20
11.166511968799989
 30
0.0
  0
VERTEX
  5
102E
  8
0
  6
CONTINUOUS
 10
16.0818249352
 20
11.1686390838
 30
0.0
  0
VERTEX
  5
102F
  8
0
  6
CONTINUOUS
 10
16.078123920300001
 20
11.1708446767
 30
0.0
  0
VERTEX
  5
1030
  8
0
  6
CONTINUOUS
 10
16.077661293399998
 20
11.17198428189999
 30
0.0
  0
SEQEND
  5
1031
  8
0
  6
CONTINUOUS
  0
POLYLINE
  5
65D
  8
0
  6
CONTINUOUS
 66
     1
 10
0.0
 20
0.0
 30
0.0
  0
VERTEX
  5
1032
  8
0
  6
CONTINUOUS
 10
-13.0
 20
11.398451167399999
 30
0.0
  0
VERTEX
  5
1033
  8
0
  6
CONTINUOUS
 10
-12.9734045784
 20
11.398252987499999
 30
0.0
  0
VERTEX
  5
1034
  8
0
  6
CONTINUOUS
 10
-12.948456263400001
 20
11.3977567365
 30
0.0
  0
VERTEX
  5
1035
  8
0
  6
CONTINUOUS
 10
-12.925155054999999
 20
11.39696241429999
 30
0.0
  0
VERTEX
  5
1036
  8
0
  6
CONTINUOUS
 10
-12.9030606608
 20
11.395839420999989
 30
0.0
  0
VERTEX
  5
1037
  8
0
  6
CONTINUOUS
 10
-12.8826133733
 20
11.394418356599999
 30
0.0
  0
VERTEX
  5
1038
  8
0
  6
CONTINUOUS
 10
-12.8651340692
 20
11.392791020500001
 30
0.0
  0
VERTEX
  5
1039
  8
0
  6
CONTINUOUS
 10
-12.850818697199999
 20
11.390943794599989
 30
0.0
  0
VERTEX
  5
103A
  8
0
  6
CONTINUOUS
 10
-12.8394713087
 20
11.388890296999991
 30
0.0
  0
VERTEX
  5
103B
  8
0
  6
CONTINUOUS
 10
-12.8318249351
 20
11.38676318199999
 30
0.0
  0
VERTEX
  5
103C
  8
0
  6
CONTINUOUS
 10
-12.828123920199999
 20
11.3845575891
 30
0.0
  0
VERTEX
  5
103D
  8
0
  6
CONTINUOUS
 10
-12.8276612933
 20
11.38341798389999
 30
0.0
  0
SEQEND
  5
103E
  8
0
  6
CONTINUOUS
  0
POLYLINE
  5
65E
  8
0
  6
CONTINUOUS
 66
     1
 10
0.0
 20
0.0
 30
0.0
  0
VERTEX
  5
103F
  8
0
  6
CONTINUOUS
 10
16.25
 20
11.1870174654
 30
0.0
  0
VERTEX
  5
1040
  8
0
  6
CONTINUOUS
 10
16.2765954216
 20
11.18681928549999
 30
0.0
  0
VERTEX
  5
1041
  8
0
  6
CONTINUOUS
 10
16.301543736599999
 20
11.18632303439999
 30
0.0
  0
VERTEX
  5
1042
  8
0
  6
CONTINUOUS
 10
16.324844944999992
 20
11.185528712199989
 30
0.0
  0
VERTEX
  5
1043
  8
0
  6
CONTINUOUS
 10
16.346939339199999
 20
11.18440571889999
 30
0.0
  0
VERTEX
  5
1044
  8
0
  6
CONTINUOUS
 10
16.3673866267
 20
11.18298465449999
 30
0.0
  0
VERTEX
  5
1045
  8
0
  6
CONTINUOUS
 10
16.3848659308
 20
11.181357318499989
 30
0.0
  0
VERTEX
  5
1046
  8
0
  6
CONTINUOUS
 10
16.399181302799999
 20
11.179510092599999
 30
0.0
  0
VERTEX
  5
1047
  8
0
  6
CONTINUOUS
 10
16.410528691300001
 20
11.17745659499999
 30
0.0
  0
VERTEX
  5
1048
  8
0
  6
CONTINUOUS
 10
16.418175064899991
 20
11.1753294799
 30
0.0
  0
VERTEX
  5
1049
  8
0
  6
CONTINUOUS
 10
16.421876079800001
 20
11.173123887099999
 30
0.0
  0
VERTEX
  5
104A
  8
0
  6
CONTINUOUS
 10
16.4223387067
 20
11.17198428189999
 30
0.0
  0
SEQEND
  5
104B
  8
0
  6
CONTINUOUS
  0
POLYLINE
  5
65F
  8
0
  6
CONTINUOUS
 66
     1
 10
0.0
 20
0.0
 30
0.0
  0
VERTEX
  5
104C
  8
0
  6
CONTINUOUS
 10
-6.5
 20
11.368384800399991
 30
0.0
  0
VERTEX
  5
104D
  8
0
  6
CONTINUOUS
 10
-6.5265954214999971
 20
11.36858298029999
 30
0.0
  0
VERTEX
  5
104E
  8
0
  6
CONTINUOUS
 10
-6.5515437365000011
 20
11.36907923139999
 30
0.0
  0
VERTEX
  5
104F
  8
0
  6
CONTINUOUS
 10
-6.5748449448999997
 20
11.36987355359998
 30
0.0
  0
VERTEX
  5
1050
  8
0
  6
CONTINUOUS
 10
-6.5969393391000004
 20
11.37099654689999
 30
0.0
  0
VERTEX
  5
1051
  8
0
  6
CONTINUOUS
 10
-6.617386626600001
 20
11.372417611299991
 30
0.0
  0
VERTEX
  5
1052
  8
0
  6
CONTINUOUS
 10
-6.6348659307000011
 20
11.374044947299989
 30
0.0
  0
VERTEX
  5
1053
  8
0
  6
CONTINUOUS
 10
-6.6491813026999997
 20
11.3758921733
 30
0.0
  0
VERTEX
  5
1054
  8
0
  6
CONTINUOUS
 10
-6.6605286911999988
 20
11.377945670800001
 30
0.0
  0
VERTEX
  5
1055
  8
0
  6
CONTINUOUS
 10
-6.6681750647999989
 20
11.380072785899991
 30
0.0
  0
VERTEX
  5
1056
  8
0
  6
CONTINUOUS
 10
-6.6718760796999979
 20
11.38227837879999
 30
0.0
  0
VERTEX
  5
1057
  8
0
  6
CONTINUOUS
 10
-6.6723387066000006
 20
11.38341798389999
 30
0.0
  0
SEQEND
  5
1058
  8
0
  6
CONTINUOUS
  0
POLYLINE
  5
660
  8
0
  6
CONTINUOUS
 66
     1
 10
0.0
 20
0.0
 30
0.0
  0
VERTEX
  5
1059
  8
0
  6
CONTINUOUS
 10
-6.5
 20
11.398451167399999
 30
0.0
  0
VERTEX
  5
105A
  8
0
  6
CONTINUOUS
 10
-6.4734045784000003
 20
11.398252987499999
 30
0.0
  0
VERTEX
  5
105B
  8
0
  6
CONTINUOUS
 10
-6.4484562633999998
 20
11.3977567365
 30
0.0
  0
VERTEX
  5
105C
  8
0
  6
CONTINUOUS
 10
-6.4251550550000012
 20
11.39696241429999
 30
0.0
  0
VERTEX
  5
105D
  8
0
  6
CONTINUOUS
 10
-6.4030606608000014
 20
11.395839420999989
 30
0.0
  0
VERTEX
  5
105E
  8
0
  6
CONTINUOUS
 10
-6.382613373299999
 20
11.394418356599999
 30
0.0
  0
VERTEX
  5
105F
  8
0
  6
CONTINUOUS
 10
-6.3651340691999989
 20
11.392791020500001
 30
0.0
  0
VERTEX
  5
1060
  8
0
  6
CONTINUOUS
 10
-6.3508186972000011
 20
11.390943794599989
 30
0.0
  0
VERTEX
  5
1061
  8
0
  6
CONTINUOUS
 10
-6.3394713086999976
 20
11.388890296999991
 30
0.0
  0
VERTEX
  5
1062
  8
0
  6
CONTINUOUS
 10
-6.3318249351000011
 20
11.38676318199999
 30
0.0
  0
VERTEX
  5
1063
  8
0
  6
CONTINUOUS
 10
-6.3281239201999986
 20
11.3845575891
 30
0.0
  0
VERTEX
  5
1064
  8
0
  6
CONTINUOUS
 10
-6.3276612933000003
 20
11.38341798389999
 30
0.0
  0
SEQEND
  5
1065
  8
0
  6
CONTINUOUS
  0
POLYLINE
  5
661
  8
0
  6
CONTINUOUS
 66
     1
 10
0.0
 20
0.0
 30
0.0
  0
VERTEX
  5
1066
  8
0
  6
CONTINUOUS
 10
0.0
 20
11.368384800399991
 30
0.0
  0
VERTEX
  5
1067
  8
0
  6
CONTINUOUS
 10
-0.0265954215000051
 20
11.36858298029999
 30
0.0
  0
VERTEX
  5
1068
  8
0
  6
CONTINUOUS
 10
-0.0515437365000011
 20
11.36907923139999
 30
0.0
  0
VERTEX
  5
1069
  8
0
  6
CONTINUOUS
 10
-0.0748449449000006
 20
11.36987355359998
 30
0.0
  0
VERTEX
  5
106A
  8
0
  6
CONTINUOUS
 10
-0.096939339100004
 20
11.37099654689999
 30
0.0
  0
VERTEX
  5
106B
  8
0
  6
CONTINUOUS
 10
-0.1173866266000019
 20
11.372417611299991
 30
0.0
  0
VERTEX
  5
106C
  8
0
  6
CONTINUOUS
 10
-0.134865930700002
 20
11.374044947299989
 30
0.0
  0
VERTEX
  5
106D
  8
0
  6
CONTINUOUS
 10
-0.1491813027000006
 20
11.3758921733
 30
0.0
  0
VERTEX
  5
106E
  8
0
  6
CONTINUOUS
 10
-0.1605286911999997
 20
11.377945670800001
 30
0.0
  0
VERTEX
  5
106F
  8
0
  6
CONTINUOUS
 10
-0.1681750647999962
 20
11.380072785899991
 30
0.0
  0
VERTEX
  5
1070
  8
0
  6
CONTINUOUS
 10
-0.1718760796999987
 20
11.38227837879999
 30
0.0
  0
VERTEX
  5
1071
  8
0
  6
CONTINUOUS
 10
-0.1723387066000015
 20
11.38341798389999
 30
0.0
  0
SEQEND
  5
1072
  8
0
  6
CONTINUOUS
  0
POLYLINE
  5
662
  8
0
  6
CONTINUOUS
 66
     1
 10
0.0
 20
0.0
 30
0.0
  0
VERTEX
  5
1073
  8
0
  6
CONTINUOUS
 10
0.0
 20
11.398451167399999
 30
0.0
  0
VERTEX
  5
1074
  8
0
  6
CONTINUOUS
 10
0.0265954215999997
 20
11.398252987499999
 30
0.0
  0
VERTEX
  5
1075
  8
0
  6
CONTINUOUS
 10
0.0515437365999958
 20
11.3977567365
 30
0.0
  0
VERTEX
  5
1076
  8
0
  6
CONTINUOUS
 10
0.0748449450000024
 20
11.39696241429999
 30
0.0
  0
VERTEX
  5
1077
  8
0
  6
CONTINUOUS
 10
0.0969393391999987
 20
11.395839420999989
 30
0.0
  0
VERTEX
  5
1078
  8
0
  6
CONTINUOUS
 10
0.1173866266999965
 20
11.394418356599999
 30
0.0
  0
VERTEX
  5
1079
  8
0
  6
CONTINUOUS
 10
0.1348659308000037
 20
11.392791020500001
 30
0.0
  0
VERTEX
  5
107A
  8
0
  6
CONTINUOUS
 10
0.1491813028000024
 20
11.390943794599989
 30
0.0
  0
VERTEX
  5
107B
  8
0
  6
CONTINUOUS
 10
0.1605286913000015
 20
11.388890296999991
 30
0.0
  0
VERTEX
  5
107C
  8
0
  6
CONTINUOUS
 10
0.168175064899998
 20
11.38676318199999
 30
0.0
  0
VERTEX
  5
107D
  8
0
  6
CONTINUOUS
 10
0.1718760798000005
 20
11.3845575891
 30
0.0
  0
VERTEX
  5
107E
  8
0
  6
CONTINUOUS
 10
0.1723387066999962
 20
11.38341798389999
 30
0.0
  0
SEQEND
  5
107F
  8
0
  6
CONTINUOUS
  0
POLYLINE
  5
663
  8
0
  6
CONTINUOUS
 66
     1
 10
0.0
 20
0.0
 30
0.0
  0
VERTEX
  5
1080
  8
0
  6
CONTINUOUS
 10
6.5
 20
11.368384800399991
 30
0.0
  0
VERTEX
  5
1081
  8
0
  6
CONTINUOUS
 10
6.4734045784999941
 20
11.36858298029999
 30
0.0
  0
VERTEX
  5
1082
  8
0
  6
CONTINUOUS
 10
6.448456263499998
 20
11.36907923139999
 30
0.0
  0
VERTEX
  5
1083
  8
0
  6
CONTINUOUS
 10
6.4251550550999994
 20
11.36987355359998
 30
0.0
  0
VERTEX
  5
1084
  8
0
  6
CONTINUOUS
 10
6.403060660899996
 20
11.37099654689999
 30
0.0
  0
VERTEX
  5
1085
  8
0
  6
CONTINUOUS
 10
6.3826133733999981
 20
11.372417611299991
 30
0.0
  0
VERTEX
  5
1086
  8
0
  6
CONTINUOUS
 10
6.365134069299998
 20
11.374044947299989
 30
0.0
  0
VERTEX
  5
1087
  8
0
  6
CONTINUOUS
 10
6.3508186972999994
 20
11.3758921733
 30
0.0
  0
VERTEX
  5
1088
  8
0
  6
CONTINUOUS
 10
6.3394713088000003
 20
11.377945670800001
 30
0.0
  0
VERTEX
  5
1089
  8
0
  6
CONTINUOUS
 10
6.3318249352000029
 20
11.380072785899991
 30
0.0
  0
VERTEX
  5
108A
  8
0
  6
CONTINUOUS
 10
6.3281239203000013
 20
11.38227837879999
 30
0.0
  0
VERTEX
  5
108B
  8
0
  6
CONTINUOUS
 10
6.3276612933999976
 20
11.38341798389999
 30
0.0
  0
SEQEND
  5
108C
  8
0
  6
CONTINUOUS
  0
POLYLINE
  5
664
  8
0
  6
CONTINUOUS
 66
     1
 10
0.0
 20
0.0
 30
0.0
  0
VERTEX
  5
108D
  8
0
  6
CONTINUOUS
 10
6.5
 20
11.398451167399999
 30
0.0
  0
VERTEX
  5
108E
  8
0
  6
CONTINUOUS
 10
6.5265954215999988
 20
11.398252987499999
 30
0.0
  0
VERTEX
  5
108F
  8
0
  6
CONTINUOUS
 10
6.5515437365999949
 20
11.3977567365
 30
0.0
  0
VERTEX
  5
1090
  8
0
  6
CONTINUOUS
 10
6.5748449449999953
 20
11.39696241429999
 30
0.0
  0
VERTEX
  5
1091
  8
0
  6
CONTINUOUS
 10
6.5969393391999978
 20
11.395839420999989
 30
0.0
  0
VERTEX
  5
1092
  8
0
  6
CONTINUOUS
 10
6.6173866266999957
 20
11.394418356599999
 30
0.0
  0
VERTEX
  5
1093
  8
0
  6
CONTINUOUS
 10
6.6348659308000029
 20
11.392791020500001
 30
0.0
  0
VERTEX
  5
1094
  8
0
  6
CONTINUOUS
 10
6.6491813028000024
 20
11.390943794599989
 30
0.0
  0
VERTEX
  5
1095
  8
0
  6
CONTINUOUS
 10
6.6605286913000006
 20
11.388890296999991
 30
0.0
  0
VERTEX
  5
1096
  8
0
  6
CONTINUOUS
 10
6.668175064899998
 20
11.38676318199999
 30
0.0
  0
VERTEX
  5
1097
  8
0
  6
CONTINUOUS
 10
6.6718760797999996
 20
11.3845575891
 30
0.0
  0
VERTEX
  5
1098
  8
0
  6
CONTINUOUS
 10
6.6723387067000033
 20
11.38341798389999
 30
0.0
  0
SEQEND
  5
1099
  8
0
  6
CONTINUOUS
  0
POLYLINE
  5
665
  8
0
  6
CONTINUOUS
 66
     1
 10
0.0
 20
0.0
 30
0.0
  0
VERTEX
  5
109A
  8
0
  6
CONTINUOUS
 10
26.498088105000001
 20
7.3276612933999976
 30
0.0
  0
VERTEX
  5
109B
  8
0
  6
CONTINUOUS
 10
26.491860583000001
 20
7.3281239203000013
 30
0.0
  0
VERTEX
  5
109C
  8
0
  6
CONTINUOUS
 10
26.479807831500001
 20
7.3318249351999887
 30
0.0
  0
VERTEX
  5
109D
  8
0
  6
CONTINUOUS
 10
26.468183932199999
 20
7.3394713088000003
 30
0.0
  0
VERTEX
  5
109E
  8
0
  6
CONTINUOUS
 10
26.456962325300001
 20
7.3508186972999994
 30
0.0
  0
VERTEX
  5
109F
  8
0
  6
CONTINUOUS
 10
26.4468679169
 20
7.365134069299998
 30
0.0
  0
VERTEX
  5
10A0
  8
0
  6
CONTINUOUS
 10
26.4379751255
 20
7.3826133734000052
 30
0.0
  0
VERTEX
  5
10A1
  8
0
  6
CONTINUOUS
 10
26.43020953260001
 20
7.403060660899996
 30
0.0
  0
VERTEX
  5
10A2
  8
0
  6
CONTINUOUS
 10
26.424072788699998
 20
7.4251550550000038
 30
0.0
  0
VERTEX
  5
10A3
  8
0
  6
CONTINUOUS
 10
26.4197321107
 20
7.4484562634999909
 30
0.0
  0
VERTEX
  5
10A4
  8
0
  6
CONTINUOUS
 10
26.417020281700001
 20
7.4734045784999941
 30
0.0
  0
VERTEX
  5
10A5
  8
0
  6
CONTINUOUS
 10
26.415937301700001
 20
7.5
 30
0.0
  0
SEQEND
  5
10A6
  8
0
  6
CONTINUOUS
  0
POLYLINE
  5
666
  8
0
  6
CONTINUOUS
 66
     1
 10
0.0
 20
0.0
 30
0.0
  0
VERTEX
  5
10A7
  8
0
  6
CONTINUOUS
 10
26.498088105000001
 20
7.6723387067000033
 30
0.0
  0
VERTEX
  5
10A8
  8
0
  6
CONTINUOUS
 10
26.504315627000011
 20
7.6718760797999863
 30
0.0
  0
VERTEX
  5
10A9
  8
0
  6
CONTINUOUS
 10
26.516368378500012
 20
7.668175064899998
 30
0.0
  0
VERTEX
  5
10AA
  8
0
  6
CONTINUOUS
 10
26.527992277799999
 20
7.6605286913000006
 30
0.0
  0
VERTEX
  5
10AB
  8
0
  6
CONTINUOUS
 10
26.539213884700011
 20
7.6491813027999882
 30
0.0
  0
VERTEX
  5
10AC
  8
0
  6
CONTINUOUS
 10
26.549308293100001
 20
7.6348659308000029
 30
0.0
  0
VERTEX
  5
10AD
  8
0
  6
CONTINUOUS
 10
26.558201084499999
 20
7.6173866266999957
 30
0.0
  0
VERTEX
  5
10AE
  8
0
  6
CONTINUOUS
 10
26.565966677399999
 20
7.5969393391999906
 30
0.0
  0
VERTEX
  5
10AF
  8
0
  6
CONTINUOUS
 10
26.5721034213
 20
7.5748449449999953
 30
0.0
  0
VERTEX
  5
10B0
  8
0
  6
CONTINUOUS
 10
26.576444099300002
 20
7.5515437365999949
 30
0.0
  0
VERTEX
  5
10B1
  8
0
  6
CONTINUOUS
 10
26.579155928300011
 20
7.5265954215999917
 30
0.0
  0
VERTEX
  5
10B2
  8
0
  6
CONTINUOUS
 10
26.5802389083
 20
7.5
 30
0.0
  0
SEQEND
  5
10B3
  8
0
  6
CONTINUOUS
  0
POLYLINE
  5
667
  8
0
  6
CONTINUOUS
 66
     1
 10
0.0
 20
0.0
 30
0.0
  0
VERTEX
  5
10B4
  8
0
  6
CONTINUOUS
 10
24.508859415100002
 20
-2.6723387066000011
 30
0.0
  0
VERTEX
  5
10B5
  8
0
  6
CONTINUOUS
 10
24.5081750423
 20
-2.6718760796999979
 30
0.0
  0
VERTEX
  5
10B6
  8
0
  6
CONTINUOUS
 10
24.50685050660001
 20
-2.66817506480001
 30
0.0
  0
VERTEX
  5
10B7
  8
0
  6
CONTINUOUS
 10
24.505573099599999
 20
-2.6605286911999988
 30
0.0
  0
VERTEX
  5
10B8
  8
0
  6
CONTINUOUS
 10
24.5043399025
 20
-2.6491813027000002
 30
0.0
  0
VERTEX
  5
10B9
  8
0
  6
CONTINUOUS
 10
24.503230578699998
 20
-2.6348659307000011
 30
0.0
  0
VERTEX
  5
10BA
  8
0
  6
CONTINUOUS
 10
24.502253306499998
 20
-2.6173866265999939
 30
0.0
  0
VERTEX
  5
10BB
  8
0
  6
CONTINUOUS
 10
24.5013999076
 20
-2.5969393391000031
 30
0.0
  0
VERTEX
  5
10BC
  8
0
  6
CONTINUOUS
 10
24.500725510799999
 20
-2.5748449449999948
 30
0.0
  0
VERTEX
  5
10BD
  8
0
  6
CONTINUOUS
 10
24.500248492499999
 20
-2.5515437365000082
 30
0.0
  0
VERTEX
  5
10BE
  8
0
  6
CONTINUOUS
 10
24.499950476399999
 20
-2.526595421500005
 30
0.0
  0
VERTEX
  5
10BF
  8
0
  6
CONTINUOUS
 10
24.499831462500001
 20
-2.5
 30
0.0
  0
SEQEND
  5
10C0
  8
0
  6
CONTINUOUS
  0
LINE
  5
668
  8
0
  6
CONTINUOUS
 10
13.1975
 20
-8.8685000000000045
 30
0.0
 11
13.1975
 21
-3.089500000000001
 31
0.0
  0
LINE
  5
669
  8
0
  6
CONTINUOUS
 10
13.1975
 20
-2.8894999999999982
 30
0.0
 11
13.1975
 21
2.8894999999999982
 31
0.0
  0
LINE
  5
66A
  8
0
  6
CONTINUOUS
 10
13.1975
 20
3.089500000000001
 30
0.0
 11
13.1975
 21
8.8684999999999974
 31
0.0
  0
LINE
  5
66B
  8
0
  6
CONTINUOUS
 10
13.39749999999999
 20
-8.8685000000000045
 30
0.0
 11
13.39749999999999
 21
-3.089500000000001
 31
0.0
  0
LINE
  5
66C
  8
0
  6
CONTINUOUS
 10
13.39749999999999
 20
-2.8894999999999982
 30
0.0
 11
13.39749999999999
 21
2.8894999999999982
 31
0.0
  0
LINE
  5
66D
  8
0
  6
CONTINUOUS
 10
13.39749999999999
 20
3.089500000000001
 30
0.0
 11
13.39749999999999
 21
8.8684999999999974
 31
0.0
  0
POLYLINE
  5
66E
  8
0
  6
CONTINUOUS
 66
     1
 10
0.0
 20
0.0
 30
0.0
  0
VERTEX
  5
10C1
  8
0
  6
CONTINUOUS
 10
9.9223387067000033
 20
-11.1719842818
 30
0.0
  0
VERTEX
  5
10C2
  8
0
  6
CONTINUOUS
 10
9.9218760798000005
 20
-11.173123886999999
 30
0.0
  0
VERTEX
  5
10C3
  8
0
  6
CONTINUOUS
 10
9.918175064899998
 20
-11.1753294798
 30
0.0
  0
VERTEX
  5
10C4
  8
0
  6
CONTINUOUS
 10
9.9105286913000015
 20
-11.177456594900001
 30
0.0
  0
VERTEX
  5
10C5
  8
0
  6
CONTINUOUS
 10
9.8991813028000024
 20
-11.179510092499999
 30
0.0
  0
VERTEX
  5
10C6
  8
0
  6
CONTINUOUS
 10
9.8848659308000038
 20
-11.1813573184
 30
0.0
  0
VERTEX
  5
10C7
  8
0
  6
CONTINUOUS
 10
9.8673866266999966
 20
-11.1829846545
 30
0.0
  0
VERTEX
  5
10C8
  8
0
  6
CONTINUOUS
 10
9.8469393391999986
 20
-11.184405718900001
 30
0.0
  0
VERTEX
  5
10C9
  8
0
  6
CONTINUOUS
 10
9.8248449449999953
 20
-11.1855287121
 30
0.0
  0
VERTEX
  5
10CA
  8
0
  6
CONTINUOUS
 10
9.8015437365999958
 20
-11.186323034300001
 30
0.0
  0
VERTEX
  5
10CB
  8
0
  6
CONTINUOUS
 10
9.7765954215999997
 20
-11.1868192854
 30
0.0
  0
VERTEX
  5
10CC
  8
0
  6
CONTINUOUS
 10
9.75
 20
-11.1870174653
 30
0.0
  0
SEQEND
  5
10CD
  8
0
  6
CONTINUOUS
  0
POLYLINE
  5
66F
  8
0
  6
CONTINUOUS
 66
     1
 10
0.0
 20
0.0
 30
0.0
  0
VERTEX
  5
10CE
  8
0
  6
CONTINUOUS
 10
19.327661293399998
 20
11.38341798389999
 30
0.0
  0
VERTEX
  5
10CF
  8
0
  6
CONTINUOUS
 10
19.328123920300001
 20
11.3845575891
 30
0.0
  0
VERTEX
  5
10D0
  8
0
  6
CONTINUOUS
 10
19.3318249352
 20
11.38676318199999
 30
0.0
  0
VERTEX
  5
10D1
  8
0
  6
CONTINUOUS
 10
19.3394713088
 20
11.388890296999991
 30
0.0
  0
VERTEX
  5
10D2
  8
0
  6
CONTINUOUS
 10
19.350818697299999
 20
11.390943794599989
 30
0.0
  0
VERTEX
  5
10D3
  8
0
  6
CONTINUOUS
 10
19.365134069300002
 20
11.392791020500001
 30
0.0
  0
VERTEX
  5
10D4
  8
0
  6
CONTINUOUS
 10
19.382613373400002
 20
11.394418356599999
 30
0.0
  0
VERTEX
  5
10D5
  8
0
  6
CONTINUOUS
 10
19.403060660899989
 20
11.395839420999989
 30
0.0
  0
VERTEX
  5
10D6
  8
0
  6
CONTINUOUS
 10
19.425155055099999
 20
11.39696241429999
 30
0.0
  0
VERTEX
  5
10D7
  8
0
  6
CONTINUOUS
 10
19.448456263499999
 20
11.3977567365
 30
0.0
  0
VERTEX
  5
10D8
  8
0
  6
CONTINUOUS
 10
19.473404578499999
 20
11.398252987499999
 30
0.0
  0
VERTEX
  5
10D9
  8
0
  6
CONTINUOUS
 10
19.5
 20
11.398451167399999
 30
0.0
  0
SEQEND
  5
10DA
  8
0
  6
CONTINUOUS
  0
POLYLINE
  5
670
  8
0
  6
CONTINUOUS
 66
     1
 10
0.0
 20
0.0
 30
0.0
  0
VERTEX
  5
10DB
  8
0
  6
CONTINUOUS
 10
19.6723387067
 20
11.38341798389999
 30
0.0
  0
VERTEX
  5
10DC
  8
0
  6
CONTINUOUS
 10
19.671876079800001
 20
11.38227837879999
 30
0.0
  0
VERTEX
  5
10DD
  8
0
  6
CONTINUOUS
 10
19.668175064900002
 20
11.380072785899991
 30
0.0
  0
VERTEX
  5
10DE
  8
0
  6
CONTINUOUS
 10
19.660528691300001
 20
11.377945670800001
 30
0.0
  0
VERTEX
  5
10DF
  8
0
  6
CONTINUOUS
 10
19.649181302799999
 20
11.3758921733
 30
0.0
  0
VERTEX
  5
10E0
  8
0
  6
CONTINUOUS
 10
19.6348659308
 20
11.374044947299989
 30
0.0
  0
VERTEX
  5
10E1
  8
0
  6
CONTINUOUS
 10
19.6173866267
 20
11.372417611299991
 30
0.0
  0
VERTEX
  5
10E2
  8
0
  6
CONTINUOUS
 10
19.596939339199999
 20
11.37099654689999
 30
0.0
  0
VERTEX
  5
10E3
  8
0
  6
CONTINUOUS
 10
19.574844944999992
 20
11.36987355359998
 30
0.0
  0
VERTEX
  5
10E4
  8
0
  6
CONTINUOUS
 10
19.551543736599999
 20
11.36907923139999
 30
0.0
  0
VERTEX
  5
10E5
  8
0
  6
CONTINUOUS
 10
19.5265954216
 20
11.36858298029999
 30
0.0
  0
VERTEX
  5
10E6
  8
0
  6
CONTINUOUS
 10
19.5
 20
11.368384800399991
 30
0.0
  0
SEQEND
  5
10E7
  8
0
  6
CONTINUOUS
  0
POLYLINE
  5
671
  8
0
  6
CONTINUOUS
 66
     1
 10
0.0
 20
0.0
 30
0.0
  0
VERTEX
  5
10E8
  8
0
  6
CONTINUOUS
 10
-29.968247760299999
 20
12.36332645589999
 30
0.0
  0
VERTEX
  5
10E9
  8
0
  6
CONTINUOUS
 10
-30.090399547200001
 20
12.3613272395
 30
0.0
  0
VERTEX
  5
10EA
  8
0
  6
CONTINUOUS
 10
-30.2090670149
 20
12.351346071599989
 30
0.0
  0
VERTEX
  5
10EB
  8
0
  6
CONTINUOUS
 10
-30.323725348899998
 20
12.33373256749999
 30
0.0
  0
VERTEX
  5
10EC
  8
0
  6
CONTINUOUS
 10
-30.4338915051
 20
12.308874562299991
 30
0.0
  0
VERTEX
  5
10ED
  8
0
  6
CONTINUOUS
 10
-30.539125732399999
 20
12.2771922587
 30
0.0
  0
VERTEX
  5
10EE
  8
0
  6
CONTINUOUS
 10
-30.639032556
 20
12.2391324997
 30
0.0
  0
SEQEND
  5
10EF
  8
0
  6
CONTINUOUS
  0
LINE
  5
672
  8
0
  6
CONTINUOUS
 10
29.968247760400001
 20
12.36332645589999
 30
0.0
 11
-29.968247760299999
 21
12.36332645589999
 31
0.0
  0
LINE
  5
673
  8
0
  6
CONTINUOUS
 10
-29.968247760200001
 20
12.906120454799989
 30
0.0
 11
29.96744356220001
 21
12.906120454799989
 31
0.0
  0
POLYLINE
  5
674
  8
0
  6
CONTINUOUS
 66
     1
 10
0.0
 20
0.0
 30
0.0
  0
VERTEX
  5
10F0
  8
0
  6
CONTINUOUS
 10
13.0
 20
11.368384800399991
 30
0.0
  0
VERTEX
  5
10F1
  8
0
  6
CONTINUOUS
 10
12.9734045785
 20
11.36858298029999
 30
0.0
  0
VERTEX
  5
10F2
  8
0
  6
CONTINUOUS
 10
12.948456263500001
 20
11.36907923139999
 30
0.0
  0
VERTEX
  5
10F3
  8
0
  6
CONTINUOUS
 10
12.925155055099999
 20
11.36987355359998
 30
0.0
  0
VERTEX
  5
10F4
  8
0
  6
CONTINUOUS
 10
12.903060660899991
 20
11.37099654689999
 30
0.0
  0
VERTEX
  5
10F5
  8
0
  6
CONTINUOUS
 10
12.8826133734
 20
11.372417611299991
 30
0.0
  0
VERTEX
  5
10F6
  8
0
  6
CONTINUOUS
 10
12.8651340693
 20
11.374044947299989
 30
0.0
  0
VERTEX
  5
10F7
  8
0
  6
CONTINUOUS
 10
12.850818697299999
 20
11.3758921733
 30
0.0
  0
VERTEX
  5
10F8
  8
0
  6
CONTINUOUS
 10
12.8394713088
 20
11.377945670800001
 30
0.0
  0
VERTEX
  5
10F9
  8
0
  6
CONTINUOUS
 10
12.8318249352
 20
11.380072785899991
 30
0.0
  0
VERTEX
  5
10FA
  8
0
  6
CONTINUOUS
 10
12.828123920299999
 20
11.38227837879999
 30
0.0
  0
VERTEX
  5
10FB
  8
0
  6
CONTINUOUS
 10
12.8276612934
 20
11.38341798389999
 30
0.0
  0
SEQEND
  5
10FC
  8
0
  6
CONTINUOUS
  0
POLYLINE
  5
675
  8
0
  6
CONTINUOUS
 66
     1
 10
0.0
 20
0.0
 30
0.0
  0
VERTEX
  5
10FD
  8
0
  6
CONTINUOUS
 10
13.0
 20
11.398451167399999
 30
0.0
  0
VERTEX
  5
10FE
  8
0
  6
CONTINUOUS
 10
13.0265954216
 20
11.398252987499999
 30
0.0
  0
VERTEX
  5
10FF
  8
0
  6
CONTINUOUS
 10
13.051543736599999
 20
11.3977567365
 30
0.0
  0
VERTEX
  5
1100
  8
0
  6
CONTINUOUS
 10
13.07484494499999
 20
11.39696241429999
 30
0.0
  0
VERTEX
  5
1101
  8
0
  6
CONTINUOUS
 10
13.0969393392
 20
11.395839420999989
 30
0.0
  0
VERTEX
  5
1102
  8
0
  6
CONTINUOUS
 10
13.1173866267
 20
11.394418356599999
 30
0.0
  0
VERTEX
  5
1103
  8
0
  6
CONTINUOUS
 10
13.1348659308
 20
11.392791020500001
 30
0.0
  0
VERTEX
  5
1104
  8
0
  6
CONTINUOUS
 10
13.149181302800001
 20
11.390943794599989
 30
0.0
  0
VERTEX
  5
1105
  8
0
  6
CONTINUOUS
 10
13.1605286913
 20
11.388890296999991
 30
0.0
  0
VERTEX
  5
1106
  8
0
  6
CONTINUOUS
 10
13.1681750649
 20
11.38676318199999
 30
0.0
  0
VERTEX
  5
1107
  8
0
  6
CONTINUOUS
 10
13.171876079800001
 20
11.3845575891
 30
0.0
  0
VERTEX
  5
1108
  8
0
  6
CONTINUOUS
 10
13.1723387067
 20
11.38341798389999
 30
0.0
  0
SEQEND
  5
1109
  8
0
  6
CONTINUOUS
  0
POLYLINE
  5
676
  8
0
  6
CONTINUOUS
 66
     1
 10
0.0
 20
0.0
 30
0.0
  0
VERTEX
  5
110A
  8
0
  6
CONTINUOUS
 10
19.5
 20
11.368384800399991
 30
0.0
  0
VERTEX
  5
110B
  8
0
  6
CONTINUOUS
 10
19.473404578499999
 20
11.36858298029999
 30
0.0
  0
VERTEX
  5
110C
  8
0
  6
CONTINUOUS
 10
19.448456263499999
 20
11.36907923139999
 30
0.0
  0
VERTEX
  5
110D
  8
0
  6
CONTINUOUS
 10
19.425155055099999
 20
11.36987355359998
 30
0.0
  0
VERTEX
  5
110E
  8
0
  6
CONTINUOUS
 10
19.403060660899989
 20
11.37099654689999
 30
0.0
  0
VERTEX
  5
110F
  8
0
  6
CONTINUOUS
 10
19.382613373400002
 20
11.372417611299991
 30
0.0
  0
VERTEX
  5
1110
  8
0
  6
CONTINUOUS
 10
19.365134069300002
 20
11.374044947299989
 30
0.0
  0
VERTEX
  5
1111
  8
0
  6
CONTINUOUS
 10
19.350818697299999
 20
11.3758921733
 30
0.0
  0
VERTEX
  5
1112
  8
0
  6
CONTINUOUS
 10
19.3394713088
 20
11.377945670800001
 30
0.0
  0
VERTEX
  5
1113
  8
0
  6
CONTINUOUS
 10
19.3318249352
 20
11.380072785899991
 30
0.0
  0
VERTEX
  5
1114
  8
0
  6
CONTINUOUS
 10
19.328123920300001
 20
11.38227837879999
 30
0.0
  0
VERTEX
  5
1115
  8
0
  6
CONTINUOUS
 10
19.327661293399998
 20
11.38341798389999
 30
0.0
  0
SEQEND
  5
1116
  8
0
  6
CONTINUOUS
  0
POLYLINE
  5
677
  8
0
  6
CONTINUOUS
 66
     1
 10
0.0
 20
0.0
 30
0.0
  0
VERTEX
  5
1117
  8
0
  6
CONTINUOUS
 10
19.5
 20
11.398451167399999
 30
0.0
  0
VERTEX
  5
1118
  8
0
  6
CONTINUOUS
 10
19.5265954216
 20
11.398252987499999
 30
0.0
  0
VERTEX
  5
1119
  8
0
  6
CONTINUOUS
 10
19.551543736599999
 20
11.3977567365
 30
0.0
  0
VERTEX
  5
111A
  8
0
  6
CONTINUOUS
 10
19.574844944999992
 20
11.39696241429999
 30
0.0
  0
VERTEX
  5
111B
  8
0
  6
CONTINUOUS
 10
19.596939339199999
 20
11.395839420999989
 30
0.0
  0
VERTEX
  5
111C
  8
0
  6
CONTINUOUS
 10
19.6173866267
 20
11.394418356599999
 30
0.0
  0
VERTEX
  5
111D
  8
0
  6
CONTINUOUS
 10
19.6348659308
 20
11.392791020500001
 30
0.0
  0
VERTEX
  5
111E
  8
0
  6
CONTINUOUS
 10
19.649181302799999
 20
11.390943794599989
 30
0.0
  0
VERTEX
  5
111F
  8
0
  6
CONTINUOUS
 10
19.660528691300001
 20
11.388890296999991
 30
0.0
  0
VERTEX
  5
1120
  8
0
  6
CONTINUOUS
 10
19.668175064900002
 20
11.38676318199999
 30
0.0
  0
VERTEX
  5
1121
  8
0
  6
CONTINUOUS
 10
19.671876079800001
 20
11.3845575891
 30
0.0
  0
VERTEX
  5
1122
  8
0
  6
CONTINUOUS
 10
19.6723387067
 20
11.38341798389999
 30
0.0
  0
SEQEND
  5
1123
  8
0
  6
CONTINUOUS
  0
POLYLINE
  5
678
  8
0
  6
CONTINUOUS
 66
     1
 10
0.0
 20
0.0
 30
0.0
  0
VERTEX
  5
1124
  8
0
  6
CONTINUOUS
 10
29.968247760299999
 20
12.906107563400001
 30
0.0
  0
VERTEX
  5
1125
  8
0
  6
CONTINUOUS
 10
30.077798754900002
 20
12.90340252609999
 30
0.0
  0
VERTEX
  5
1126
  8
0
  6
CONTINUOUS
 10
30.1859347549
 20
12.8954941425
 30
0.0
  0
VERTEX
  5
1127
  8
0
  6
CONTINUOUS
 10
30.292399718199999
 20
12.8824563508
 30
0.0
  0
VERTEX
  5
1128
  8
0
  6
CONTINUOUS
 10
30.397077334900001
 20
12.86431488399999
 30
0.0
  0
VERTEX
  5
1129
  8
0
  6
CONTINUOUS
 10
30.499557738099998
 20
12.841208151299989
 30
0.0
  0
VERTEX
  5
112A
  8
0
  6
CONTINUOUS
 10
30.599191840900009
 20
12.813454493499989
 30
0.0
  0
VERTEX
  5
112B
  8
0
  6
CONTINUOUS
 10
30.695648479900001
 20
12.78130511339999
 30
0.0
  0
VERTEX
  5
112C
  8
0
  6
CONTINUOUS
 10
30.78888288109999
 20
12.744872262099999
 30
0.0
  0
VERTEX
  5
112D
  8
0
  6
CONTINUOUS
 10
30.8786974878
 20
12.704351498799991
 30
0.0
  0
SEQEND
  5
112E
  8
0
  6
CONTINUOUS
  0
POLYLINE
  5
679
  8
0
  6
CONTINUOUS
 66
     1
 10
0.0
 20
0.0
 30
0.0
  0
VERTEX
  5
112F
  8
0
  6
CONTINUOUS
 10
23.2700537389
 20
11.069363984400001
 30
0.0
  0
VERTEX
  5
1130
  8
0
  6
CONTINUOUS
 10
23.372555846000012
 20
11.06444620599998
 30
0.0
  0
VERTEX
  5
1131
  8
0
  6
CONTINUOUS
 10
23.474282371299999
 20
11.0506628303
 30
0.0
  0
VERTEX
  5
1132
  8
0
  6
CONTINUOUS
 10
23.5744636011
 20
11.02811814909999
 30
0.0
  0
VERTEX
  5
1133
  8
0
  6
CONTINUOUS
 10
23.672341514399989
 20
10.996982746700001
 30
0.0
  0
VERTEX
  5
1134
  8
0
  6
CONTINUOUS
 10
23.767175517799998
 20
10.957492208999991
 30
0.0
  0
VERTEX
  5
1135
  8
0
  6
CONTINUOUS
 10
23.85824805
 20
10.9099453412
 30
0.0
  0
VERTEX
  5
1136
  8
0
  6
CONTINUOUS
 10
23.944870010599999
 20
10.85470190639999
 30
0.0
  0
VERTEX
  5
1137
  8
0
  6
CONTINUOUS
 10
24.026385974699998
 20
10.792179904199999
 30
0.0
  0
VERTEX
  5
1138
  8
0
  6
CONTINUOUS
 10
24.102179151400001
 20
10.7228524076
 30
0.0
  0
VERTEX
  5
1139
  8
0
  6
CONTINUOUS
 10
24.171676051599999
 20
10.647243983299999
 30
0.0
  0
VERTEX
  5
113A
  8
0
  6
CONTINUOUS
 10
24.234350827499998
 20
10.56592672229999
 30
0.0
  0
VERTEX
  5
113B
  8
0
  6
CONTINUOUS
 10
24.289729251000001
 20
10.47951591059998
 30
0.0
  0
VERTEX
  5
113C
  8
0
  6
CONTINUOUS
 10
24.3373923017
 20
10.3886653749
 30
0.0
  0
VERTEX
  5
113D
  8
0
  6
CONTINUOUS
 10
24.376979336400002
 20
10.2940625361
 30
0.0
  0
VERTEX
  5
113E
  8
0
  6
CONTINUOUS
 10
24.408190819800001
 20
10.196423207200001
 30
0.0
  0
VERTEX
  5
113F
  8
0
  6
CONTINUOUS
 10
24.430790590000001
 20
10.096486176200001
 30
0.0
  0
VERTEX
  5
1140
  8
0
  6
CONTINUOUS
 10
24.4446076461
 20
9.9950076163999881
 30
0.0
  0
VERTEX
  5
1141
  8
0
  6
CONTINUOUS
 10
24.449537441299999
 20
9.8927553651999887
 30
0.0
  0
SEQEND
  5
1142
  8
0
  6
CONTINUOUS
  0
POLYLINE
  5
67A
  8
0
  6
CONTINUOUS
 66
     1
 10
0.0
 20
0.0
 30
0.0
  0
VERTEX
  5
1143
  8
0
  6
CONTINUOUS
 10
24.508859415100002
 20
-2.3276612932999958
 30
0.0
  0
VERTEX
  5
1144
  8
0
  6
CONTINUOUS
 10
24.509543787799998
 20
-2.3281239202000128
 30
0.0
  0
VERTEX
  5
1145
  8
0
  6
CONTINUOUS
 10
24.510868323499999
 20
-2.3318249351000011
 30
0.0
  0
VERTEX
  5
1146
  8
0
  6
CONTINUOUS
 10
24.512145730500009
 20
-2.3394713086999981
 30
0.0
  0
VERTEX
  5
1147
  8
0
  6
CONTINUOUS
 10
24.5133789277
 20
-2.3508186972000109
 30
0.0
  0
VERTEX
  5
1148
  8
0
  6
CONTINUOUS
 10
24.5144882514
 20
-2.3651340691999958
 30
0.0
  0
VERTEX
  5
1149
  8
0
  6
CONTINUOUS
 10
24.515465523700001
 20
-2.382613373300003
 30
0.0
  0
VERTEX
  5
114A
  8
0
  6
CONTINUOUS
 10
24.5163189226
 20
-2.403060660800008
 30
0.0
  0
VERTEX
  5
114B
  8
0
  6
CONTINUOUS
 10
24.516993319299999
 20
-2.4251550550000038
 30
0.0
  0
VERTEX
  5
114C
  8
0
  6
CONTINUOUS
 10
24.517470337599999
 20
-2.4484562634000042
 30
0.0
  0
VERTEX
  5
114D
  8
0
  6
CONTINUOUS
 10
24.517768353699999
 20
-2.4734045784000069
 30
0.0
  0
VERTEX
  5
114E
  8
0
  6
CONTINUOUS
 10
24.517887367699998
 20
-2.5
 30
0.0
  0
SEQEND
  5
114F
  8
0
  6
CONTINUOUS
  0
LINE
  5
67B
  8
0
  6
CONTINUOUS
 10
16.152499999999989
 20
-8.8685000000000045
 30
0.0
 11
16.152499999999989
 21
-3.089500000000001
 31
0.0
  0
LINE
  5
67C
  8
0
  6
CONTINUOUS
 10
16.152499999999989
 20
-2.8894999999999982
 30
0.0
 11
16.152499999999989
 21
2.8894999999999982
 31
0.0
  0
LINE
  5
67D
  8
0
  6
CONTINUOUS
 10
16.152499999999989
 20
3.089500000000001
 30
0.0
 11
16.152499999999989
 21
8.8684999999999974
 31
0.0
  0
LINE
  5
67E
  8
0
  6
CONTINUOUS
 10
16.352499999999999
 20
-8.8685000000000045
 30
0.0
 11
16.352499999999999
 21
-3.089500000000001
 31
0.0
  0
LINE
  5
67F
  8
0
  6
CONTINUOUS
 10
16.352499999999999
 20
-2.8894999999999982
 30
0.0
 11
16.352499999999999
 21
2.8894999999999982
 31
0.0
  0
LINE
  5
680
  8
0
  6
CONTINUOUS
 10
16.352499999999999
 20
3.089500000000001
 30
0.0
 11
16.352499999999999
 21
8.8684999999999974
 31
0.0
  0
POLYLINE
  5
681
  8
0
  6
CONTINUOUS
 66
     1
 10
0.0
 20
0.0
 30
0.0
  0
VERTEX
  5
1150
  8
0
  6
CONTINUOUS
 10
12.8276612934
 20
-11.383417983899999
 30
0.0
  0
VERTEX
  5
1151
  8
0
  6
CONTINUOUS
 10
12.828123920299999
 20
-11.382278378700001
 30
0.0
  0
VERTEX
  5
1152
  8
0
  6
CONTINUOUS
 10
12.8318249352
 20
-11.380072785799999
 30
0.0
  0
VERTEX
  5
1153
  8
0
  6
CONTINUOUS
 10
12.8394713088
 20
-11.377945670800001
 30
0.0
  0
VERTEX
  5
1154
  8
0
  6
CONTINUOUS
 10
12.850818697299999
 20
-11.375892173200009
 30
0.0
  0
VERTEX
  5
1155
  8
0
  6
CONTINUOUS
 10
12.8651340693
 20
-11.37404494730001
 30
0.0
  0
VERTEX
  5
1156
  8
0
  6
CONTINUOUS
 10
12.8826133734
 20
-11.372417611199999
 30
0.0
  0
VERTEX
  5
1157
  8
0
  6
CONTINUOUS
 10
12.903060660899991
 20
-11.370996546800001
 30
0.0
  0
VERTEX
  5
1158
  8
0
  6
CONTINUOUS
 10
12.925155055099999
 20
-11.36987355360001
 30
0.0
  0
VERTEX
  5
1159
  8
0
  6
CONTINUOUS
 10
12.948456263500001
 20
-11.369079231300001
 30
0.0
  0
VERTEX
  5
115A
  8
0
  6
CONTINUOUS
 10
12.9734045785
 20
-11.36858298029999
 30
0.0
  0
VERTEX
  5
115B
  8
0
  6
CONTINUOUS
 10
13.0
 20
-11.368384800399999
 30
0.0
  0
SEQEND
  5
115C
  8
0
  6
CONTINUOUS
  0
POLYLINE
  5
682
  8
0
  6
CONTINUOUS
 66
     1
 10
0.0
 20
0.0
 30
0.0
  0
VERTEX
  5
115D
  8
0
  6
CONTINUOUS
 10
13.1723387067
 20
-11.383417983899999
 30
0.0
  0
VERTEX
  5
115E
  8
0
  6
CONTINUOUS
 10
13.171876079800001
 20
-11.384557589000011
 30
0.0
  0
VERTEX
  5
115F
  8
0
  6
CONTINUOUS
 10
13.1681750649
 20
-11.38676318190001
 30
0.0
  0
VERTEX
  5
1160
  8
0
  6
CONTINUOUS
 10
13.1605286913
 20
-11.388890297
 30
0.0
  0
VERTEX
  5
1161
  8
0
  6
CONTINUOUS
 10
13.149181302800001
 20
-11.3909437945
 30
0.0
  0
VERTEX
  5
1162
  8
0
  6
CONTINUOUS
 10
13.1348659308
 20
-11.392791020500001
 30
0.0
  0
VERTEX
  5
1163
  8
0
  6
CONTINUOUS
 10
13.1173866267
 20
-11.394418356499999
 30
0.0
  0
VERTEX
  5
1164
  8
0
  6
CONTINUOUS
 10
13.0969393392
 20
-11.3958394209
 30
0.0
  0
VERTEX
  5
1165
  8
0
  6
CONTINUOUS
 10
13.07484494499999
 20
-11.396962414200001
 30
0.0
  0
VERTEX
  5
1166
  8
0
  6
CONTINUOUS
 10
13.051543736599999
 20
-11.3977567364
 30
0.0
  0
VERTEX
  5
1167
  8
0
  6
CONTINUOUS
 10
13.0265954216
 20
-11.398252987499999
 30
0.0
  0
VERTEX
  5
1168
  8
0
  6
CONTINUOUS
 10
13.0
 20
-11.398451167399999
 30
0.0
  0
SEQEND
  5
1169
  8
0
  6
CONTINUOUS
  0
LINE
  5
683
  8
0
  6
CONTINUOUS
 10
-31.8893666978
 20
14.548744065999999
 30
0.0
 11
31.889366697899991
 21
14.548744065999999
 31
0.0
  0
POLYLINE
  5
684
  8
0
  6
CONTINUOUS
 66
     1
 10
0.0
 20
0.0
 30
0.0
  0
VERTEX
  5
116A
  8
0
  6
CONTINUOUS
 10
31.889366697899991
 20
14.548744065999999
 30
0.0
  0
VERTEX
  5
116B
  8
0
  6
CONTINUOUS
 10
32.028802239100003
 20
14.542384937099991
 30
0.0
  0
VERTEX
  5
116C
  8
0
  6
CONTINUOUS
 10
32.165082282300013
 20
14.52451269719999
 30
0.0
  0
VERTEX
  5
116D
  8
0
  6
CONTINUOUS
 10
32.298206827400001
 20
14.4951273464
 30
0.0
  0
VERTEX
  5
116E
  8
0
  6
CONTINUOUS
 10
32.429127101900008
 20
14.45383591400001
 30
0.0
  0
VERTEX
  5
116F
  8
0
  6
CONTINUOUS
 10
32.556891878300007
 20
14.401031370799981
 30
0.0
  0
VERTEX
  5
1170
  8
0
  6
CONTINUOUS
 10
32.678647474500004
 20
14.337892628200009
 30
0.0
  0
VERTEX
  5
1171
  8
0
  6
CONTINUOUS
 10
32.794258695800004
 20
14.264187016999999
 30
0.0
  0
VERTEX
  5
1172
  8
0
  6
CONTINUOUS
 10
32.903860736799999
 20
14.18014720650001
 30
0.0
  0
VERTEX
  5
1173
  8
0
  6
CONTINUOUS
 10
33.005005498700001
 20
14.08765011679999
 30
0.0
  0
VERTEX
  5
1174
  8
0
  6
CONTINUOUS
 10
33.097502588400012
 20
13.98650535499999
 30
0.0
  0
VERTEX
  5
1175
  8
0
  6
CONTINUOUS
 10
33.181542398799991
 20
13.876903313999991
 30
0.0
  0
VERTEX
  5
1176
  8
0
  6
CONTINUOUS
 10
33.25524801009999
 20
13.7612920926
 30
0.0
  0
VERTEX
  5
1177
  8
0
  6
CONTINUOUS
 10
33.318386752599991
 20
13.6395364965
 30
0.0
  0
VERTEX
  5
1178
  8
0
  6
CONTINUOUS
 10
33.37119129589999
 20
13.5117717201
 30
0.0
  0
VERTEX
  5
1179
  8
0
  6
CONTINUOUS
 10
33.412482728200011
 20
13.380851445599991
 30
0.0
  0
VERTEX
  5
117A
  8
0
  6
CONTINUOUS
 10
33.441868079000002
 20
13.247726900399989
 30
0.0
  0
VERTEX
  5
117B
  8
0
  6
CONTINUOUS
 10
33.459740318900003
 20
13.11144685729999
 30
0.0
  0
VERTEX
  5
117C
  8
0
  6
CONTINUOUS
 10
33.466099447900007
 20
12.972011315999991
 30
0.0
  0
SEQEND
  5
117D
  8
0
  6
CONTINUOUS
  0
POLYLINE
  5
685
  8
0
  6
CONTINUOUS
 66
     1
 10
0.0
 20
0.0
 30
0.0
  0
VERTEX
  5
117E
  8
0
  6
CONTINUOUS
 10
24.508859415100002
 20
2.3276612933999981
 30
0.0
  0
VERTEX
  5
117F
  8
0
  6
CONTINUOUS
 10
24.5081750423
 20
2.3281239203000008
 30
0.0
  0
VERTEX
  5
1180
  8
0
  6
CONTINUOUS
 10
24.50685050660001
 20
2.3318249351999891
 30
0.0
  0
VERTEX
  5
1181
  8
0
  6
CONTINUOUS
 10
24.505573099599999
 20
2.3394713087999999
 30
0.0
  0
VERTEX
  5
1182
  8
0
  6
CONTINUOUS
 10
24.5043399025
 20
2.3508186972999989
 30
0.0
  0
VERTEX
  5
1183
  8
0
  6
CONTINUOUS
 10
24.503230578699998
 20
2.365134069299998
 30
0.0
  0
VERTEX
  5
1184
  8
0
  6
CONTINUOUS
 10
24.502253306499998
 20
2.3826133734000048
 30
0.0
  0
VERTEX
  5
1185
  8
0
  6
CONTINUOUS
 10
24.5013999076
 20
2.403060660899996
 30
0.0
  0
VERTEX
  5
1186
  8
0
  6
CONTINUOUS
 10
24.500725510799999
 20
2.4251550550000038
 30
0.0
  0
VERTEX
  5
1187
  8
0
  6
CONTINUOUS
 10
24.500248492499999
 20
2.4484562634999909
 30
0.0
  0
VERTEX
  5
1188
  8
0
  6
CONTINUOUS
 10
24.499950476399999
 20
2.4734045784999941
 30
0.0
  0
VERTEX
  5
1189
  8
0
  6
CONTINUOUS
 10
24.499831462500001
 20
2.5
 30
0.0
  0
SEQEND
  5
118A
  8
0
  6
CONTINUOUS
  0
POLYLINE
  5
686
  8
0
  6
CONTINUOUS
 66
     1
 10
0.0
 20
0.0
 30
0.0
  0
VERTEX
  5
118B
  8
0
  6
CONTINUOUS
 10
24.508859415100002
 20
2.6723387067000028
 30
0.0
  0
VERTEX
  5
118C
  8
0
  6
CONTINUOUS
 10
24.509543787799998
 20
2.6718760797999859
 30
0.0
  0
VERTEX
  5
118D
  8
0
  6
CONTINUOUS
 10
24.510868323499999
 20
2.668175064899998
 30
0.0
  0
VERTEX
  5
118E
  8
0
  6
CONTINUOUS
 10
24.512145730500009
 20
2.660528691300001
 30
0.0
  0
VERTEX
  5
118F
  8
0
  6
CONTINUOUS
 10
24.5133789277
 20
2.6491813027999882
 30
0.0
  0
VERTEX
  5
1190
  8
0
  6
CONTINUOUS
 10
24.5144882514
 20
2.6348659308000029
 30
0.0
  0
VERTEX
  5
1191
  8
0
  6
CONTINUOUS
 10
24.515465523700001
 20
2.6173866266999961
 30
0.0
  0
VERTEX
  5
1192
  8
0
  6
CONTINUOUS
 10
24.5163189226
 20
2.5969393391999911
 30
0.0
  0
VERTEX
  5
1193
  8
0
  6
CONTINUOUS
 10
24.516993319299999
 20
2.5748449449999948
 30
0.0
  0
VERTEX
  5
1194
  8
0
  6
CONTINUOUS
 10
24.517470337599999
 20
2.5515437365999949
 30
0.0
  0
VERTEX
  5
1195
  8
0
  6
CONTINUOUS
 10
24.517768353699999
 20
2.5265954215999922
 30
0.0
  0
VERTEX
  5
1196
  8
0
  6
CONTINUOUS
 10
24.517887367699998
 20
2.5
 30
0.0
  0
SEQEND
  5
1197
  8
0
  6
CONTINUOUS
  0
LINE
  5
687
  8
0
  6
CONTINUOUS
 10
19.107500000000002
 20
-8.8685000000000045
 30
0.0
 11
19.107500000000002
 21
-3.089500000000001
 31
0.0
  0
LINE
  5
688
  8
0
  6
CONTINUOUS
 10
19.107500000000002
 20
-2.8894999999999982
 30
0.0
 11
19.107500000000002
 21
2.8894999999999982
 31
0.0
  0
LINE
  5
689
  8
0
  6
CONTINUOUS
 10
19.107500000000002
 20
3.089500000000001
 30
0.0
 11
19.107500000000002
 21
8.8684999999999974
 31
0.0
  0
LINE
  5
68A
  8
0
  6
CONTINUOUS
 10
19.30749999999999
 20
-8.8685000000000045
 30
0.0
 11
19.30749999999999
 21
-3.089500000000001
 31
0.0
  0
LINE
  5
68B
  8
0
  6
CONTINUOUS
 10
19.30749999999999
 20
-2.8894999999999982
 30
0.0
 11
19.30749999999999
 21
2.8894999999999982
 31
0.0
  0
LINE
  5
68C
  8
0
  6
CONTINUOUS
 10
19.30749999999999
 20
3.089500000000001
 30
0.0
 11
19.30749999999999
 21
8.8684999999999974
 31
0.0
  0
POLYLINE
  5
68D
  8
0
  6
CONTINUOUS
 66
     1
 10
0.0
 20
0.0
 30
0.0
  0
VERTEX
  5
1198
  8
0
  6
CONTINUOUS
 10
16.077661293399998
 20
-11.1719842818
 30
0.0
  0
VERTEX
  5
1199
  8
0
  6
CONTINUOUS
 10
16.078123920300001
 20
-11.1708446766
 30
0.0
  0
VERTEX
  5
119A
  8
0
  6
CONTINUOUS
 10
16.0818249352
 20
-11.1686390838
 30
0.0
  0
VERTEX
  5
119B
  8
0
  6
CONTINUOUS
 10
16.0894713088
 20
-11.1665119687
 30
0.0
  0
VERTEX
  5
119C
  8
0
  6
CONTINUOUS
 10
16.100818697299999
 20
-11.1644584711
 30
0.0
  0
VERTEX
  5
119D
  8
0
  6
CONTINUOUS
 10
16.115134069300002
 20
-11.162611245200001
 30
0.0
  0
VERTEX
  5
119E
  8
0
  6
CONTINUOUS
 10
16.132613373400002
 20
-11.1609839091
 30
0.0
  0
VERTEX
  5
119F
  8
0
  6
CONTINUOUS
 10
16.153060660899989
 20
-11.1595628447
 30
0.0
  0
VERTEX
  5
11A0
  8
0
  6
CONTINUOUS
 10
16.175155055099999
 20
-11.158439851500001
 30
0.0
  0
VERTEX
  5
11A1
  8
0
  6
CONTINUOUS
 10
16.198456263499999
 20
-11.1576455293
 30
0.0
  0
VERTEX
  5
11A2
  8
0
  6
CONTINUOUS
 10
16.223404578499999
 20
-11.157149278200009
 30
0.0
  0
VERTEX
  5
11A3
  8
0
  6
CONTINUOUS
 10
16.25
 20
-11.1569510983
 30
0.0
  0
SEQEND
  5
11A4
  8
0
  6
CONTINUOUS
  0
POLYLINE
  5
68E
  8
0
  6
CONTINUOUS
 66
     1
 10
0.0
 20
0.0
 30
0.0
  0
VERTEX
  5
11A5
  8
0
  6
CONTINUOUS
 10
16.4223387067
 20
-11.1719842818
 30
0.0
  0
VERTEX
  5
11A6
  8
0
  6
CONTINUOUS
 10
16.421876079800001
 20
-11.173123886999999
 30
0.0
  0
VERTEX
  5
11A7
  8
0
  6
CONTINUOUS
 10
16.418175064899991
 20
-11.1753294798
 30
0.0
  0
VERTEX
  5
11A8
  8
0
  6
CONTINUOUS
 10
16.410528691300001
 20
-11.177456594900001
 30
0.0
  0
VERTEX
  5
11A9
  8
0
  6
CONTINUOUS
 10
16.399181302799999
 20
-11.179510092499999
 30
0.0
  0
VERTEX
  5
11AA
  8
0
  6
CONTINUOUS
 10
16.3848659308
 20
-11.1813573184
 30
0.0
  0
VERTEX
  5
11AB
  8
0
  6
CONTINUOUS
 10
16.3673866267
 20
-11.1829846545
 30
0.0
  0
VERTEX
  5
11AC
  8
0
  6
CONTINUOUS
 10
16.346939339199999
 20
-11.184405718900001
 30
0.0
  0
VERTEX
  5
11AD
  8
0
  6
CONTINUOUS
 10
16.324844944999992
 20
-11.1855287121
 30
0.0
  0
VERTEX
  5
11AE
  8
0
  6
CONTINUOUS
 10
16.301543736599999
 20
-11.186323034300001
 30
0.0
  0
VERTEX
  5
11AF
  8
0
  6
CONTINUOUS
 10
16.2765954216
 20
-11.1868192854
 30
0.0
  0
VERTEX
  5
11B0
  8
0
  6
CONTINUOUS
 10
16.25
 20
-11.1870174653
 30
0.0
  0
SEQEND
  5
11B1
  8
0
  6
CONTINUOUS
  0
LINE
  5
68F
  8
0
  6
CONTINUOUS
 10
22.0625
 20
-8.1185000000000045
 30
0.0
 11
22.0625
 21
-3.089500000000001
 31
0.0
  0
LINE
  5
690
  8
0
  6
CONTINUOUS
 10
22.0625
 20
-2.8894999999999982
 30
0.0
 11
22.0625
 21
2.8894999999999982
 31
0.0
  0
LINE
  5
691
  8
0
  6
CONTINUOUS
 10
22.0625
 20
3.089500000000001
 30
0.0
 11
22.0625
 21
8.1184999999999974
 31
0.0
  0
POLYLINE
  5
692
  8
0
  6
CONTINUOUS
 66
     1
 10
0.0
 20
0.0
 30
0.0
  0
VERTEX
  5
11B2
  8
0
  6
CONTINUOUS
 10
19.327661293399998
 20
-11.383417983899999
 30
0.0
  0
VERTEX
  5
11B3
  8
0
  6
CONTINUOUS
 10
19.328123920300001
 20
-11.382278378700001
 30
0.0
  0
VERTEX
  5
11B4
  8
0
  6
CONTINUOUS
 10
19.3318249352
 20
-11.380072785799999
 30
0.0
  0
VERTEX
  5
11B5
  8
0
  6
CONTINUOUS
 10
19.3394713088
 20
-11.377945670800001
 30
0.0
  0
VERTEX
  5
11B6
  8
0
  6
CONTINUOUS
 10
19.350818697299999
 20
-11.375892173200009
 30
0.0
  0
VERTEX
  5
11B7
  8
0
  6
CONTINUOUS
 10
19.365134069300002
 20
-11.37404494730001
 30
0.0
  0
VERTEX
  5
11B8
  8
0
  6
CONTINUOUS
 10
19.382613373400002
 20
-11.372417611199999
 30
0.0
  0
VERTEX
  5
11B9
  8
0
  6
CONTINUOUS
 10
19.403060660899989
 20
-11.370996546800001
 30
0.0
  0
VERTEX
  5
11BA
  8
0
  6
CONTINUOUS
 10
19.425155055099999
 20
-11.36987355360001
 30
0.0
  0
VERTEX
  5
11BB
  8
0
  6
CONTINUOUS
 10
19.448456263499999
 20
-11.369079231300001
 30
0.0
  0
VERTEX
  5
11BC
  8
0
  6
CONTINUOUS
 10
19.473404578499999
 20
-11.36858298029999
 30
0.0
  0
VERTEX
  5
11BD
  8
0
  6
CONTINUOUS
 10
19.5
 20
-11.368384800399999
 30
0.0
  0
SEQEND
  5
11BE
  8
0
  6
CONTINUOUS
  0
POLYLINE
  5
693
  8
0
  6
CONTINUOUS
 66
     1
 10
0.0
 20
0.0
 30
0.0
  0
VERTEX
  5
11BF
  8
0
  6
CONTINUOUS
 10
19.6723387067
 20
-11.383417983899999
 30
0.0
  0
VERTEX
  5
11C0
  8
0
  6
CONTINUOUS
 10
19.671876079800001
 20
-11.384557589000011
 30
0.0
  0
VERTEX
  5
11C1
  8
0
  6
CONTINUOUS
 10
19.668175064900002
 20
-11.38676318190001
 30
0.0
  0
VERTEX
  5
11C2
  8
0
  6
CONTINUOUS
 10
19.660528691300001
 20
-11.388890297
 30
0.0
  0
VERTEX
  5
11C3
  8
0
  6
CONTINUOUS
 10
19.649181302799999
 20
-11.3909437945
 30
0.0
  0
VERTEX
  5
11C4
  8
0
  6
CONTINUOUS
 10
19.6348659308
 20
-11.392791020500001
 30
0.0
  0
VERTEX
  5
11C5
  8
0
  6
CONTINUOUS
 10
19.6173866267
 20
-11.394418356499999
 30
0.0
  0
VERTEX
  5
11C6
  8
0
  6
CONTINUOUS
 10
19.596939339199999
 20
-11.3958394209
 30
0.0
  0
VERTEX
  5
11C7
  8
0
  6
CONTINUOUS
 10
19.574844944999992
 20
-11.396962414200001
 30
0.0
  0
VERTEX
  5
11C8
  8
0
  6
CONTINUOUS
 10
19.551543736599999
 20
-11.3977567364
 30
0.0
  0
VERTEX
  5
11C9
  8
0
  6
CONTINUOUS
 10
19.5265954216
 20
-11.398252987499999
 30
0.0
  0
VERTEX
  5
11CA
  8
0
  6
CONTINUOUS
 10
19.5
 20
-11.398451167399999
 30
0.0
  0
SEQEND
  5
11CB
  8
0
  6
CONTINUOUS
  0
POLYLINE
  5
694
  8
0
  6
CONTINUOUS
 66
     1
 10
0.0
 20
0.0
 30
0.0
  0
VERTEX
  5
11CC
  8
0
  6
CONTINUOUS
 10
19.413582677200001
 20
-11.126004710200011
 30
0.0
  0
VERTEX
  5
11CD
  8
0
  6
CONTINUOUS
 10
19.414983989100001
 20
-11.1247121447
 30
0.0
  0
VERTEX
  5
11CE
  8
0
  6
CONTINUOUS
 10
19.418958128900002
 20
-11.1234195792
 30
0.0
  0
VERTEX
  5
11CF
  8
0
  6
CONTINUOUS
 10
19.425160403100001
 20
-11.1222391233
 30
0.0
  0
VERTEX
  5
11D0
  8
0
  6
CONTINUOUS
 10
19.433789820699999
 20
-11.1211807901
 30
0.0
  0
VERTEX
  5
11D1
  8
0
  6
CONTINUOUS
 10
19.44464737269999
 20
-11.12023456650001
 30
0.0
  0
VERTEX
  5
11D2
  8
0
  6
CONTINUOUS
 10
19.456791338599999
 20
-11.1194825224
 30
0.0
  0
VERTEX
  5
11D3
  8
0
  6
CONTINUOUS
 10
19.469907811799999
 20
-11.1189520143
 30
0.0
  0
VERTEX
  5
11D4
  8
0
  6
CONTINUOUS
 10
19.4843106989
 20
-11.1186156856
 30
0.0
  0
VERTEX
  5
11D5
  8
0
  6
CONTINUOUS
 10
19.5
 20
-11.1184735364
 30
0.0
  0
SEQEND
  5
11D6
  8
0
  6
CONTINUOUS
  0
POLYLINE
  5
695
  8
0
  6
CONTINUOUS
 66
     1
 10
0.0
 20
0.0
 30
0.0
  0
VERTEX
  5
11D7
  8
0
  6
CONTINUOUS
 10
19.586417322900001
 20
-11.126004710200011
 30
0.0
  0
VERTEX
  5
11D8
  8
0
  6
CONTINUOUS
 10
19.585016011
 20
-11.1272972756
 30
0.0
  0
VERTEX
  5
11D9
  8
0
  6
CONTINUOUS
 10
19.5810418712
 20
-11.128589841100011
 30
0.0
  0
VERTEX
  5
11DA
  8
0
  6
CONTINUOUS
 10
19.574839597
 20
-11.129770297
 30
0.0
  0
VERTEX
  5
11DB
  8
0
  6
CONTINUOUS
 10
19.566210179399999
 20
-11.1308286302
 30
0.0
  0
VERTEX
  5
11DC
  8
0
  6
CONTINUOUS
 10
19.555352627399991
 20
-11.1317748538
 30
0.0
  0
VERTEX
  5
11DD
  8
0
  6
CONTINUOUS
 10
19.5432086615
 20
-11.132526898
 30
0.0
  0
VERTEX
  5
11DE
  8
0
  6
CONTINUOUS
 10
19.530092188299999
 20
-11.133057406000001
 30
0.0
  0
VERTEX
  5
11DF
  8
0
  6
CONTINUOUS
 10
19.515689301199998
 20
-11.133393734700009
 30
0.0
  0
VERTEX
  5
11E0
  8
0
  6
CONTINUOUS
 10
19.5
 20
-11.1335358839
 30
0.0
  0
SEQEND
  5
11E1
  8
0
  6
CONTINUOUS
  0
POLYLINE
  5
696
  8
0
  6
CONTINUOUS
 66
     1
 10
0.0
 20
0.0
 30
0.0
  0
VERTEX
  5
11E2
  8
0
  6
CONTINUOUS
 10
24.508859415100002
 20
7.3276612933999976
 30
0.0
  0
VERTEX
  5
11E3
  8
0
  6
CONTINUOUS
 10
24.5081750423
 20
7.3281239203000013
 30
0.0
  0
VERTEX
  5
11E4
  8
0
  6
CONTINUOUS
 10
24.50685050660001
 20
7.3318249351999887
 30
0.0
  0
VERTEX
  5
11E5
  8
0
  6
CONTINUOUS
 10
24.505573099599999
 20
7.3394713088000003
 30
0.0
  0
VERTEX
  5
11E6
  8
0
  6
CONTINUOUS
 10
24.5043399025
 20
7.3508186972999994
 30
0.0
  0
VERTEX
  5
11E7
  8
0
  6
CONTINUOUS
 10
24.503230578699998
 20
7.365134069299998
 30
0.0
  0
VERTEX
  5
11E8
  8
0
  6
CONTINUOUS
 10
24.502253306499998
 20
7.3826133734000052
 30
0.0
  0
VERTEX
  5
11E9
  8
0
  6
CONTINUOUS
 10
24.5013999076
 20
7.403060660899996
 30
0.0
  0
VERTEX
  5
11EA
  8
0
  6
CONTINUOUS
 10
24.500725510799999
 20
7.4251550550000038
 30
0.0
  0
VERTEX
  5
11EB
  8
0
  6
CONTINUOUS
 10
24.500248492499999
 20
7.4484562634999909
 30
0.0
  0
VERTEX
  5
11EC
  8
0
  6
CONTINUOUS
 10
24.499950476399999
 20
7.4734045784999941
 30
0.0
  0
VERTEX
  5
11ED
  8
0
  6
CONTINUOUS
 10
24.499831462500001
 20
7.5
 30
0.0
  0
SEQEND
  5
11EE
  8
0
  6
CONTINUOUS
  0
POLYLINE
  5
697
  8
0
  6
CONTINUOUS
 66
     1
 10
0.0
 20
0.0
 30
0.0
  0
VERTEX
  5
11EF
  8
0
  6
CONTINUOUS
 10
24.508859415100002
 20
7.6723387067000033
 30
0.0
  0
VERTEX
  5
11F0
  8
0
  6
CONTINUOUS
 10
24.509543787799998
 20
7.6718760797999863
 30
0.0
  0
VERTEX
  5
11F1
  8
0
  6
CONTINUOUS
 10
24.510868323499999
 20
7.668175064899998
 30
0.0
  0
VERTEX
  5
11F2
  8
0
  6
CONTINUOUS
 10
24.512145730500009
 20
7.6605286913000006
 30
0.0
  0
VERTEX
  5
11F3
  8
0
  6
CONTINUOUS
 10
24.5133789277
 20
7.6491813027999882
 30
0.0
  0
VERTEX
  5
11F4
  8
0
  6
CONTINUOUS
 10
24.5144882514
 20
7.6348659308000029
 30
0.0
  0
VERTEX
  5
11F5
  8
0
  6
CONTINUOUS
 10
24.515465523700001
 20
7.6173866266999957
 30
0.0
  0
VERTEX
  5
11F6
  8
0
  6
CONTINUOUS
 10
24.5163189226
 20
7.5969393391999906
 30
0.0
  0
VERTEX
  5
11F7
  8
0
  6
CONTINUOUS
 10
24.516993319299999
 20
7.5748449449999953
 30
0.0
  0
VERTEX
  5
11F8
  8
0
  6
CONTINUOUS
 10
24.517470337599999
 20
7.5515437365999949
 30
0.0
  0
VERTEX
  5
11F9
  8
0
  6
CONTINUOUS
 10
24.517768353699999
 20
7.5265954215999917
 30
0.0
  0
VERTEX
  5
11FA
  8
0
  6
CONTINUOUS
 10
24.517887367699998
 20
7.5
 30
0.0
  0
SEQEND
  5
11FB
  8
0
  6
CONTINUOUS
  0
POLYLINE
  5
698
  8
0
  6
CONTINUOUS
 66
     1
 10
0.0
 20
0.0
 30
0.0
  0
VERTEX
  5
11FC
  8
0
  6
CONTINUOUS
 10
19.413582677200001
 20
11.126004710199989
 30
0.0
  0
VERTEX
  5
11FD
  8
0
  6
CONTINUOUS
 10
19.414983989100001
 20
11.1247121448
 30
0.0
  0
VERTEX
  5
11FE
  8
0
  6
CONTINUOUS
 10
19.418958128900002
 20
11.123419579299989
 30
0.0
  0
VERTEX
  5
11FF
  8
0
  6
CONTINUOUS
 10
19.425160403100001
 20
11.122239123399989
 30
0.0
  0
VERTEX
  5
1200
  8
0
  6
CONTINUOUS
 10
19.433789820699999
 20
11.121180790199981
 30
0.0
  0
VERTEX
  5
1201
  8
0
  6
CONTINUOUS
 10
19.44464737269999
 20
11.12023456659999
 30
0.0
  0
VERTEX
  5
1202
  8
0
  6
CONTINUOUS
 10
19.456791338599999
 20
11.11948252249999
 30
0.0
  0
VERTEX
  5
1203
  8
0
  6
CONTINUOUS
 10
19.469907811799999
 20
11.118952014399991
 30
0.0
  0
VERTEX
  5
1204
  8
0
  6
CONTINUOUS
 10
19.4843106989
 20
11.118615685699989
 30
0.0
  0
VERTEX
  5
1205
  8
0
  6
CONTINUOUS
 10
19.5
 20
11.118473536499989
 30
0.0
  0
SEQEND
  5
1206
  8
0
  6
CONTINUOUS
  0
POLYLINE
  5
699
  8
0
  6
CONTINUOUS
 66
     1
 10
0.0
 20
0.0
 30
0.0
  0
VERTEX
  5
1207
  8
0
  6
CONTINUOUS
 10
19.586417322900001
 20
11.126004710199989
 30
0.0
  0
VERTEX
  5
1208
  8
0
  6
CONTINUOUS
 10
19.585016011
 20
11.127297275699981
 30
0.0
  0
VERTEX
  5
1209
  8
0
  6
CONTINUOUS
 10
19.5810418712
 20
11.12858984119999
 30
0.0
  0
VERTEX
  5
120A
  8
0
  6
CONTINUOUS
 10
19.574839597
 20
11.12977029709999
 30
0.0
  0
VERTEX
  5
120B
  8
0
  6
CONTINUOUS
 10
19.566210179399999
 20
11.1308286303
 30
0.0
  0
VERTEX
  5
120C
  8
0
  6
CONTINUOUS
 10
19.555352627399991
 20
11.1317748539
 30
0.0
  0
VERTEX
  5
120D
  8
0
  6
CONTINUOUS
 10
19.5432086615
 20
11.132526897999989
 30
0.0
  0
VERTEX
  5
120E
  8
0
  6
CONTINUOUS
 10
19.530092188299999
 20
11.13305740609999
 30
0.0
  0
VERTEX
  5
120F
  8
0
  6
CONTINUOUS
 10
19.515689301199998
 20
11.13339373479999
 30
0.0
  0
VERTEX
  5
1210
  8
0
  6
CONTINUOUS
 10
19.5
 20
11.13353588399999
 30
0.0
  0
SEQEND
  5
1211
  8
0
  6
CONTINUOUS
  0
LINE
  5
69A
  8
0
  6
CONTINUOUS
 10
24.449537441299999
 20
9.8927553651999887
 30
0.0
 11
24.449537441299999
 21
-9.8927553651000082
 31
0.0
  0
POLYLINE
  5
69B
  8
0
  6
CONTINUOUS
 66
     1
 10
0.0
 20
0.0
 30
0.0
  0
VERTEX
  5
1212
  8
0
  6
CONTINUOUS
 10
24.499831462500001
 20
7.5
 30
0.0
  0
VERTEX
  5
1213
  8
0
  6
CONTINUOUS
 10
24.499950476399999
 20
7.5265954215999917
 30
0.0
  0
VERTEX
  5
1214
  8
0
  6
CONTINUOUS
 10
24.500248492499999
 20
7.5515437365999949
 30
0.0
  0
VERTEX
  5
1215
  8
0
  6
CONTINUOUS
 10
24.500725510799999
 20
7.5748449449999953
 30
0.0
  0
VERTEX
  5
1216
  8
0
  6
CONTINUOUS
 10
24.5013999076
 20
7.5969393391999906
 30
0.0
  0
VERTEX
  5
1217
  8
0
  6
CONTINUOUS
 10
24.502253306499998
 20
7.6173866266999957
 30
0.0
  0
VERTEX
  5
1218
  8
0
  6
CONTINUOUS
 10
24.503230578699998
 20
7.6348659308000029
 30
0.0
  0
VERTEX
  5
1219
  8
0
  6
CONTINUOUS
 10
24.5043399025
 20
7.6491813027999882
 30
0.0
  0
VERTEX
  5
121A
  8
0
  6
CONTINUOUS
 10
24.505573099599999
 20
7.6605286913000006
 30
0.0
  0
VERTEX
  5
121B
  8
0
  6
CONTINUOUS
 10
24.50685050660001
 20
7.668175064899998
 30
0.0
  0
VERTEX
  5
121C
  8
0
  6
CONTINUOUS
 10
24.5081750423
 20
7.6718760797999863
 30
0.0
  0
VERTEX
  5
121D
  8
0
  6
CONTINUOUS
 10
24.508859415100002
 20
7.6723387067000033
 30
0.0
  0
SEQEND
  5
121E
  8
0
  6
CONTINUOUS
  0
POLYLINE
  5
69C
  8
0
  6
CONTINUOUS
 66
     1
 10
0.0
 20
0.0
 30
0.0
  0
VERTEX
  5
121F
  8
0
  6
CONTINUOUS
 10
24.517887367699998
 20
7.5
 30
0.0
  0
VERTEX
  5
1220
  8
0
  6
CONTINUOUS
 10
24.517768353699999
 20
7.4734045784999941
 30
0.0
  0
VERTEX
  5
1221
  8
0
  6
CONTINUOUS
 10
24.517470337599999
 20
7.4484562634999909
 30
0.0
  0
VERTEX
  5
1222
  8
0
  6
CONTINUOUS
 10
24.516993319299999
 20
7.4251550550000038
 30
0.0
  0
VERTEX
  5
1223
  8
0
  6
CONTINUOUS
 10
24.5163189226
 20
7.403060660899996
 30
0.0
  0
VERTEX
  5
1224
  8
0
  6
CONTINUOUS
 10
24.515465523700001
 20
7.3826133734000052
 30
0.0
  0
VERTEX
  5
1225
  8
0
  6
CONTINUOUS
 10
24.5144882514
 20
7.365134069299998
 30
0.0
  0
VERTEX
  5
1226
  8
0
  6
CONTINUOUS
 10
24.5133789277
 20
7.3508186972999994
 30
0.0
  0
VERTEX
  5
1227
  8
0
  6
CONTINUOUS
 10
24.512145730500009
 20
7.3394713088000003
 30
0.0
  0
VERTEX
  5
1228
  8
0
  6
CONTINUOUS
 10
24.510868323499999
 20
7.3318249351999887
 30
0.0
  0
VERTEX
  5
1229
  8
0
  6
CONTINUOUS
 10
24.509543787799998
 20
7.3281239203000013
 30
0.0
  0
VERTEX
  5
122A
  8
0
  6
CONTINUOUS
 10
24.508859415100002
 20
7.3276612933999976
 30
0.0
  0
SEQEND
  5
122B
  8
0
  6
CONTINUOUS
  0
POLYLINE
  5
69D
  8
0
  6
CONTINUOUS
 66
     1
 10
0.0
 20
0.0
 30
0.0
  0
VERTEX
  5
122C
  8
0
  6
CONTINUOUS
 10
24.499831462500001
 20
2.5
 30
0.0
  0
VERTEX
  5
122D
  8
0
  6
CONTINUOUS
 10
24.499950476399999
 20
2.5265954215999922
 30
0.0
  0
VERTEX
  5
122E
  8
0
  6
CONTINUOUS
 10
24.500248492499999
 20
2.5515437365999949
 30
0.0
  0
VERTEX
  5
122F
  8
0
  6
CONTINUOUS
 10
24.500725510799999
 20
2.5748449449999948
 30
0.0
  0
VERTEX
  5
1230
  8
0
  6
CONTINUOUS
 10
24.5013999076
 20
2.5969393391999911
 30
0.0
  0
VERTEX
  5
1231
  8
0
  6
CONTINUOUS
 10
24.502253306499998
 20
2.6173866266999961
 30
0.0
  0
VERTEX
  5
1232
  8
0
  6
CONTINUOUS
 10
24.503230578699998
 20
2.6348659308000029
 30
0.0
  0
VERTEX
  5
1233
  8
0
  6
CONTINUOUS
 10
24.5043399025
 20
2.6491813027999882
 30
0.0
  0
VERTEX
  5
1234
  8
0
  6
CONTINUOUS
 10
24.505573099599999
 20
2.660528691300001
 30
0.0
  0
VERTEX
  5
1235
  8
0
  6
CONTINUOUS
 10
24.50685050660001
 20
2.668175064899998
 30
0.0
  0
VERTEX
  5
1236
  8
0
  6
CONTINUOUS
 10
24.5081750423
 20
2.6718760797999859
 30
0.0
  0
VERTEX
  5
1237
  8
0
  6
CONTINUOUS
 10
24.508859415100002
 20
2.6723387067000028
 30
0.0
  0
SEQEND
  5
1238
  8
0
  6
CONTINUOUS
  0
POLYLINE
  5
69E
  8
0
  6
CONTINUOUS
 66
     1
 10
0.0
 20
0.0
 30
0.0
  0
VERTEX
  5
1239
  8
0
  6
CONTINUOUS
 10
24.517887367699998
 20
2.5
 30
0.0
  0
VERTEX
  5
123A
  8
0
  6
CONTINUOUS
 10
24.517768353699999
 20
2.4734045784999941
 30
0.0
  0
VERTEX
  5
123B
  8
0
  6
CONTINUOUS
 10
24.517470337599999
 20
2.4484562634999909
 30
0.0
  0
VERTEX
  5
123C
  8
0
  6
CONTINUOUS
 10
24.516993319299999
 20
2.4251550550000038
 30
0.0
  0
VERTEX
  5
123D
  8
0
  6
CONTINUOUS
 10
24.5163189226
 20
2.403060660899996
 30
0.0
  0
VERTEX
  5
123E
  8
0
  6
CONTINUOUS
 10
24.515465523700001
 20
2.3826133734000048
 30
0.0
  0
VERTEX
  5
123F
  8
0
  6
CONTINUOUS
 10
24.5144882514
 20
2.365134069299998
 30
0.0
  0
VERTEX
  5
1240
  8
0
  6
CONTINUOUS
 10
24.5133789277
 20
2.3508186972999989
 30
0.0
  0
VERTEX
  5
1241
  8
0
  6
CONTINUOUS
 10
24.512145730500009
 20
2.3394713087999999
 30
0.0
  0
VERTEX
  5
1242
  8
0
  6
CONTINUOUS
 10
24.510868323499999
 20
2.3318249351999891
 30
0.0
  0
VERTEX
  5
1243
  8
0
  6
CONTINUOUS
 10
24.509543787799998
 20
2.3281239203000008
 30
0.0
  0
VERTEX
  5
1244
  8
0
  6
CONTINUOUS
 10
24.508859415100002
 20
2.3276612933999981
 30
0.0
  0
SEQEND
  5
1245
  8
0
  6
CONTINUOUS
  0
POLYLINE
  5
69F
  8
0
  6
CONTINUOUS
 66
     1
 10
0.0
 20
0.0
 30
0.0
  0
VERTEX
  5
1246
  8
0
  6
CONTINUOUS
 10
24.499831462500001
 20
-2.5
 30
0.0
  0
VERTEX
  5
1247
  8
0
  6
CONTINUOUS
 10
24.499950476399999
 20
-2.4734045784000069
 30
0.0
  0
VERTEX
  5
1248
  8
0
  6
CONTINUOUS
 10
24.500248492499999
 20
-2.4484562634000042
 30
0.0
  0
VERTEX
  5
1249
  8
0
  6
CONTINUOUS
 10
24.500725510799999
 20
-2.4251550550000038
 30
0.0
  0
VERTEX
  5
124A
  8
0
  6
CONTINUOUS
 10
24.5013999076
 20
-2.403060660800008
 30
0.0
  0
VERTEX
  5
124B
  8
0
  6
CONTINUOUS
 10
24.502253306499998
 20
-2.382613373300003
 30
0.0
  0
VERTEX
  5
124C
  8
0
  6
CONTINUOUS
 10
24.503230578699998
 20
-2.3651340691999958
 30
0.0
  0
VERTEX
  5
124D
  8
0
  6
CONTINUOUS
 10
24.5043399025
 20
-2.3508186972000109
 30
0.0
  0
VERTEX
  5
124E
  8
0
  6
CONTINUOUS
 10
24.505573099599999
 20
-2.3394713086999981
 30
0.0
  0
VERTEX
  5
124F
  8
0
  6
CONTINUOUS
 10
24.50685050660001
 20
-2.3318249351000011
 30
0.0
  0
VERTEX
  5
1250
  8
0
  6
CONTINUOUS
 10
24.5081750423
 20
-2.3281239202000128
 30
0.0
  0
VERTEX
  5
1251
  8
0
  6
CONTINUOUS
 10
24.508859415100002
 20
-2.3276612932999958
 30
0.0
  0
SEQEND
  5
1252
  8
0
  6
CONTINUOUS
  0
POLYLINE
  5
6A0
  8
0
  6
CONTINUOUS
 66
     1
 10
0.0
 20
0.0
 30
0.0
  0
VERTEX
  5
1253
  8
0
  6
CONTINUOUS
 10
24.517887367699998
 20
-2.5
 30
0.0
  0
VERTEX
  5
1254
  8
0
  6
CONTINUOUS
 10
24.517768353699999
 20
-2.526595421500005
 30
0.0
  0
VERTEX
  5
1255
  8
0
  6
CONTINUOUS
 10
24.517470337599999
 20
-2.5515437365000082
 30
0.0
  0
VERTEX
  5
1256
  8
0
  6
CONTINUOUS
 10
24.516993319299999
 20
-2.5748449449999948
 30
0.0
  0
VERTEX
  5
1257
  8
0
  6
CONTINUOUS
 10
24.5163189226
 20
-2.5969393391000031
 30
0.0
  0
VERTEX
  5
1258
  8
0
  6
CONTINUOUS
 10
24.515465523700001
 20
-2.6173866265999939
 30
0.0
  0
VERTEX
  5
1259
  8
0
  6
CONTINUOUS
 10
24.5144882514
 20
-2.6348659307000011
 30
0.0
  0
VERTEX
  5
125A
  8
0
  6
CONTINUOUS
 10
24.5133789277
 20
-2.6491813027000002
 30
0.0
  0
VERTEX
  5
125B
  8
0
  6
CONTINUOUS
 10
24.512145730500009
 20
-2.6605286911999988
 30
0.0
  0
VERTEX
  5
125C
  8
0
  6
CONTINUOUS
 10
24.510868323499999
 20
-2.66817506480001
 30
0.0
  0
VERTEX
  5
125D
  8
0
  6
CONTINUOUS
 10
24.509543787799998
 20
-2.6718760796999979
 30
0.0
  0
VERTEX
  5
125E
  8
0
  6
CONTINUOUS
 10
24.508859415100002
 20
-2.6723387066000011
 30
0.0
  0
SEQEND
  5
125F
  8
0
  6
CONTINUOUS
  0
POLYLINE
  5
6A1
  8
0
  6
CONTINUOUS
 66
     1
 10
0.0
 20
0.0
 30
0.0
  0
VERTEX
  5
1260
  8
0
  6
CONTINUOUS
 10
24.499831462500001
 20
-7.5
 30
0.0
  0
VERTEX
  5
1261
  8
0
  6
CONTINUOUS
 10
24.499950476399999
 20
-7.4734045784000074
 30
0.0
  0
VERTEX
  5
1262
  8
0
  6
CONTINUOUS
 10
24.500248492499999
 20
-7.4484562634000042
 30
0.0
  0
VERTEX
  5
1263
  8
0
  6
CONTINUOUS
 10
24.500725510799999
 20
-7.4251550550000038
 30
0.0
  0
VERTEX
  5
1264
  8
0
  6
CONTINUOUS
 10
24.5013999076
 20
-7.4030606608000076
 30
0.0
  0
VERTEX
  5
1265
  8
0
  6
CONTINUOUS
 10
24.502253306499998
 20
-7.3826133733000026
 30
0.0
  0
VERTEX
  5
1266
  8
0
  6
CONTINUOUS
 10
24.503230578699998
 20
-7.3651340691999962
 30
0.0
  0
VERTEX
  5
1267
  8
0
  6
CONTINUOUS
 10
24.5043399025
 20
-7.3508186972000109
 30
0.0
  0
VERTEX
  5
1268
  8
0
  6
CONTINUOUS
 10
24.505573099599999
 20
-7.3394713086999976
 30
0.0
  0
VERTEX
  5
1269
  8
0
  6
CONTINUOUS
 10
24.50685050660001
 20
-7.3318249351000011
 30
0.0
  0
VERTEX
  5
126A
  8
0
  6
CONTINUOUS
 10
24.5081750423
 20
-7.3281239202000128
 30
0.0
  0
VERTEX
  5
126B
  8
0
  6
CONTINUOUS
 10
24.508859415100002
 20
-7.3276612932999958
 30
0.0
  0
SEQEND
  5
126C
  8
0
  6
CONTINUOUS
  0
POLYLINE
  5
6A2
  8
0
  6
CONTINUOUS
 66
     1
 10
0.0
 20
0.0
 30
0.0
  0
VERTEX
  5
126D
  8
0
  6
CONTINUOUS
 10
24.517887367699998
 20
-7.5
 30
0.0
  0
VERTEX
  5
126E
  8
0
  6
CONTINUOUS
 10
24.517768353699999
 20
-7.526595421500005
 30
0.0
  0
VERTEX
  5
126F
  8
0
  6
CONTINUOUS
 10
24.517470337599999
 20
-7.5515437365000082
 30
0.0
  0
VERTEX
  5
1270
  8
0
  6
CONTINUOUS
 10
24.516993319299999
 20
-7.5748449449999953
 30
0.0
  0
VERTEX
  5
1271
  8
0
  6
CONTINUOUS
 10
24.5163189226
 20
-7.5969393391000031
 30
0.0
  0
VERTEX
  5
1272
  8
0
  6
CONTINUOUS
 10
24.515465523700001
 20
-7.6173866265999939
 30
0.0
  0
VERTEX
  5
1273
  8
0
  6
CONTINUOUS
 10
24.5144882514
 20
-7.6348659307000011
 30
0.0
  0
VERTEX
  5
1274
  8
0
  6
CONTINUOUS
 10
24.5133789277
 20
-7.6491813026999997
 30
0.0
  0
VERTEX
  5
1275
  8
0
  6
CONTINUOUS
 10
24.512145730500009
 20
-7.6605286911999988
 30
0.0
  0
VERTEX
  5
1276
  8
0
  6
CONTINUOUS
 10
24.510868323499999
 20
-7.6681750648000104
 30
0.0
  0
VERTEX
  5
1277
  8
0
  6
CONTINUOUS
 10
24.509543787799998
 20
-7.6718760796999979
 30
0.0
  0
VERTEX
  5
1278
  8
0
  6
CONTINUOUS
 10
24.508859415100002
 20
-7.6723387066000006
 30
0.0
  0
SEQEND
  5
1279
  8
0
  6
CONTINUOUS
  0
POLYLINE
  5
6A3
  8
0
  6
CONTINUOUS
 66
     1
 10
0.0
 20
0.0
 30
0.0
  0
VERTEX
  5
127A
  8
0
  6
CONTINUOUS
 10
25.106954369099999
 20
5.0
 30
0.0
  0
VERTEX
  5
127B
  8
0
  6
CONTINUOUS
 10
25.108037349100002
 20
5.0265954215999917
 30
0.0
  0
VERTEX
  5
127C
  8
0
  6
CONTINUOUS
 10
25.110749178100001
 20
5.0515437365999949
 30
0.0
  0
VERTEX
  5
127D
  8
0
  6
CONTINUOUS
 10
25.115089856200001
 20
5.0748449449999953
 30
0.0
  0
VERTEX
  5
127E
  8
0
  6
CONTINUOUS
 10
25.121226600100002
 20
5.0969393391999906
 30
0.0
  0
VERTEX
  5
127F
  8
0
  6
CONTINUOUS
 10
25.128992192999998
 20
5.1173866266999957
 30
0.0
  0
VERTEX
  5
1280
  8
0
  6
CONTINUOUS
 10
25.137884984300001
 20
5.1348659308000029
 30
0.0
  0
VERTEX
  5
1281
  8
0
  6
CONTINUOUS
 10
25.147979392700002
 20
5.1491813027999882
 30
0.0
  0
VERTEX
  5
1282
  8
0
  6
CONTINUOUS
 10
25.159200999599999
 20
5.1605286913000006
 30
0.0
  0
VERTEX
  5
1283
  8
0
  6
CONTINUOUS
 10
25.170824898999999
 20
5.168175064899998
 30
0.0
  0
VERTEX
  5
1284
  8
0
  6
CONTINUOUS
 10
25.182877650399998
 20
5.1718760797999863
 30
0.0
  0
VERTEX
  5
1285
  8
0
  6
CONTINUOUS
 10
25.189105172400001
 20
5.1723387067000033
 30
0.0
  0
SEQEND
  5
1286
  8
0
  6
CONTINUOUS
  0
POLYLINE
  5
6A4
  8
0
  6
CONTINUOUS
 66
     1
 10
0.0
 20
0.0
 30
0.0
  0
VERTEX
  5
1287
  8
0
  6
CONTINUOUS
 10
24.449537441299999
 20
-9.8927553651000082
 30
0.0
  0
VERTEX
  5
1288
  8
0
  6
CONTINUOUS
 10
24.4446076461
 20
-9.9950076161000112
 30
0.0
  0
VERTEX
  5
1289
  8
0
  6
CONTINUOUS
 10
24.430790590200001
 20
-10.096486175100001
 30
0.0
  0
VERTEX
  5
128A
  8
0
  6
CONTINUOUS
 10
24.408190820399991
 20
-10.1964232047
 30
0.0
  0
VERTEX
  5
128B
  8
0
  6
CONTINUOUS
 10
24.376979337800002
 20
-10.2940625322
 30
0.0
  0
VERTEX
  5
128C
  8
0
  6
CONTINUOUS
 10
24.337392304400002
 20
-10.3886653691
 30
0.0
  0
VERTEX
  5
128D
  8
0
  6
CONTINUOUS
 10
24.289729256299999
 20
-10.479515901399999
 30
0.0
  0
VERTEX
  5
128E
  8
0
  6
CONTINUOUS
 10
24.234350838200001
 20
-10.565926706999999
 30
0.0
  0
VERTEX
  5
128F
  8
0
  6
CONTINUOUS
 10
24.17167607
 20
-10.64724396140001
 30
0.0
  0
VERTEX
  5
1290
  8
0
  6
CONTINUOUS
 10
24.1021791768
 20
-10.722852382199999
 30
0.0
  0
VERTEX
  5
1291
  8
0
  6
CONTINUOUS
 10
24.026386004300001
 20
-10.79217987930001
 30
0.0
  0
VERTEX
  5
1292
  8
0
  6
CONTINUOUS
 10
23.9448700425
 20
-10.85470188400001
 30
0.0
  0
VERTEX
  5
1293
  8
0
  6
CONTINUOUS
 10
23.858248081700001
 20
-10.909945322700001
 30
0.0
  0
VERTEX
  5
1294
  8
0
  6
CONTINUOUS
 10
23.767175546000001
 20
-10.9574921957
 30
0.0
  0
VERTEX
  5
1295
  8
0
  6
CONTINUOUS
 10
23.672341536099999
 20
-10.9969827387
 30
0.0
  0
VERTEX
  5
1296
  8
0
  6
CONTINUOUS
 10
23.574463616300001
 20
-11.028118144900001
 30
0.0
  0
VERTEX
  5
1297
  8
0
  6
CONTINUOUS
 10
23.474282380999998
 20
-11.050662828400011
 30
0.0
  0
VERTEX
  5
1298
  8
0
  6
CONTINUOUS
 10
23.372555850600001
 20
-11.064446205399999
 30
0.0
  0
VERTEX
  5
1299
  8
0
  6
CONTINUOUS
 10
23.2700537389
 20
-11.069363984200001
 30
0.0
  0
SEQEND
  5
129A
  8
0
  6
CONTINUOUS
  0
POLYLINE
  5
6A5
  8
0
  6
CONTINUOUS
 66
     1
 10
0.0
 20
0.0
 30
0.0
  0
VERTEX
  5
129B
  8
0
  6
CONTINUOUS
 10
30.7488389349
 20
-12.182978176000001
 30
0.0
  0
VERTEX
  5
129C
  8
0
  6
CONTINUOUS
 10
30.82343514330001
 20
-12.140815813
 30
0.0
  0
VERTEX
  5
129D
  8
0
  6
CONTINUOUS
 10
30.894055896800001
 20
-12.094987753500011
 30
0.0
  0
VERTEX
  5
129E
  8
0
  6
CONTINUOUS
 10
30.960532794500011
 20
-12.045747886699999
 30
0.0
  0
VERTEX
  5
129F
  8
0
  6
CONTINUOUS
 10
31.022872665200001
 20
-11.9933008577
 30
0.0
  0
VERTEX
  5
12A0
  8
0
  6
CONTINUOUS
 10
31.080774914799999
 20
-11.9379629525
 30
0.0
  0
VERTEX
  5
12A1
  8
0
  6
CONTINUOUS
 10
31.133671509900001
 20
-11.8801978028
 30
0.0
  0
VERTEX
  5
12A2
  8
0
  6
CONTINUOUS
 10
31.181416365800011
 20
-11.820374213999999
 30
0.0
  0
VERTEX
  5
12A3
  8
0
  6
CONTINUOUS
 10
31.224059461300001
 20
-11.758730259300011
 30
0.0
  0
VERTEX
  5
12A4
  8
0
  6
CONTINUOUS
 10
31.261396662100001
 20
-11.695563548299999
 30
0.0
  0
VERTEX
  5
12A5
  8
0
  6
CONTINUOUS
 10
31.293367669300011
 20
-11.63116373020001
 30
0.0
  0
VERTEX
  5
12A6
  8
0
  6
CONTINUOUS
 10
31.320049585500001
 20
-11.565808044900001
 30
0.0
  0
VERTEX
  5
12A7
  8
0
  6
CONTINUOUS
 10
31.341474489900008
 20
-11.499765356799999
 30
0.0
  0
SEQEND
  5
12A8
  8
0
  6
CONTINUOUS
  0
POLYLINE
  5
6A6
  8
0
  6
CONTINUOUS
 66
     1
 10
0.0
 20
0.0
 30
0.0
  0
VERTEX
  5
12A9
  8
0
  6
CONTINUOUS
 10
30.639032556099998
 20
12.2391324997
 30
0.0
  0
VERTEX
  5
12AA
  8
0
  6
CONTINUOUS
 10
30.539125733800009
 20
12.27719225429999
 30
0.0
  0
VERTEX
  5
12AB
  8
0
  6
CONTINUOUS
 10
30.4338915075
 20
12.308874556299999
 30
0.0
  0
VERTEX
  5
12AC
  8
0
  6
CONTINUOUS
 10
30.3237253518
 20
12.333732561799989
 30
0.0
  0
VERTEX
  5
12AD
  8
0
  6
CONTINUOUS
 10
30.209067017799999
 20
12.3513460676
 30
0.0
  0
VERTEX
  5
12AE
  8
0
  6
CONTINUOUS
 10
30.090399549099999
 20
12.361327237599991
 30
0.0
  0
VERTEX
  5
12AF
  8
0
  6
CONTINUOUS
 10
29.968247760400001
 20
12.36332645589999
 30
0.0
  0
SEQEND
  5
12B0
  8
0
  6
CONTINUOUS
  0
POLYLINE
  5
6A7
  8
0
  6
CONTINUOUS
 66
     1
 10
0.0
 20
0.0
 30
0.0
  0
VERTEX
  5
12B1
  8
0
  6
CONTINUOUS
 10
25.271255975799999
 20
5.0
 30
0.0
  0
VERTEX
  5
12B2
  8
0
  6
CONTINUOUS
 10
25.27017299580001
 20
4.9734045784999941
 30
0.0
  0
VERTEX
  5
12B3
  8
0
  6
CONTINUOUS
 10
25.267461166699999
 20
4.9484562634999909
 30
0.0
  0
VERTEX
  5
12B4
  8
0
  6
CONTINUOUS
 10
25.2631204887
 20
4.9251550550000038
 30
0.0
  0
VERTEX
  5
12B5
  8
0
  6
CONTINUOUS
 10
25.256983744799999
 20
4.903060660899996
 30
0.0
  0
VERTEX
  5
12B6
  8
0
  6
CONTINUOUS
 10
25.249218151899999
 20
4.8826133734000052
 30
0.0
  0
VERTEX
  5
12B7
  8
0
  6
CONTINUOUS
 10
25.240325360500002
 20
4.865134069299998
 30
0.0
  0
VERTEX
  5
12B8
  8
0
  6
CONTINUOUS
 10
25.230230952100001
 20
4.8508186972999994
 30
0.0
  0
VERTEX
  5
12B9
  8
0
  6
CONTINUOUS
 10
25.219009345300002
 20
4.8394713088000003
 30
0.0
  0
VERTEX
  5
12BA
  8
0
  6
CONTINUOUS
 10
25.207385445900002
 20
4.8318249351999887
 30
0.0
  0
VERTEX
  5
12BB
  8
0
  6
CONTINUOUS
 10
25.195332694400001
 20
4.8281239203000013
 30
0.0
  0
VERTEX
  5
12BC
  8
0
  6
CONTINUOUS
 10
25.189105172400001
 20
4.8276612933999976
 30
0.0
  0
SEQEND
  5
12BD
  8
0
  6
CONTINUOUS
  0
POLYLINE
  5
6A8
  8
0
  6
CONTINUOUS
 66
     1
 10
0.0
 20
0.0
 30
0.0
  0
VERTEX
  5
12BE
  8
0
  6
CONTINUOUS
 10
25.106954369099999
 20
0.0
 30
0.0
  0
VERTEX
  5
12BF
  8
0
  6
CONTINUOUS
 10
25.108037349100002
 20
0.0265954215999926
 30
0.0
  0
VERTEX
  5
12C0
  8
0
  6
CONTINUOUS
 10
25.110749178100001
 20
0.0515437365999958
 30
0.0
  0
VERTEX
  5
12C1
  8
0
  6
CONTINUOUS
 10
25.115089856200001
 20
0.0748449449999953
 30
0.0
  0
VERTEX
  5
12C2
  8
0
  6
CONTINUOUS
 10
25.121226600100002
 20
0.0969393391999916
 30
0.0
  0
VERTEX
  5
12C3
  8
0
  6
CONTINUOUS
 10
25.128992192999998
 20
0.1173866266999965
 30
0.0
  0
VERTEX
  5
12C4
  8
0
  6
CONTINUOUS
 10
25.137884984300001
 20
0.1348659308000037
 30
0.0
  0
VERTEX
  5
12C5
  8
0
  6
CONTINUOUS
 10
25.147979392700002
 20
0.1491813027999882
 30
0.0
  0
VERTEX
  5
12C6
  8
0
  6
CONTINUOUS
 10
25.159200999599999
 20
0.1605286913000015
 30
0.0
  0
VERTEX
  5
12C7
  8
0
  6
CONTINUOUS
 10
25.170824898999999
 20
0.168175064899998
 30
0.0
  0
VERTEX
  5
12C8
  8
0
  6
CONTINUOUS
 10
25.182877650399998
 20
0.1718760797999863
 30
0.0
  0
VERTEX
  5
12C9
  8
0
  6
CONTINUOUS
 10
25.189105172400001
 20
0.1723387067000033
 30
0.0
  0
SEQEND
  5
12CA
  8
0
  6
CONTINUOUS
  0
POLYLINE
  5
6A9
  8
0
  6
CONTINUOUS
 66
     1
 10
0.0
 20
0.0
 30
0.0
  0
VERTEX
  5
12CB
  8
0
  6
CONTINUOUS
 10
25.271255975799999
 20
0.0
 30
0.0
  0
VERTEX
  5
12CC
  8
0
  6
CONTINUOUS
 10
25.27017299580001
 20
-0.0265954215000051
 30
0.0
  0
VERTEX
  5
12CD
  8
0
  6
CONTINUOUS
 10
25.267461166699999
 20
-0.0515437365000082
 30
0.0
  0
VERTEX
  5
12CE
  8
0
  6
CONTINUOUS
 10
25.2631204887
 20
-0.0748449449999953
 30
0.0
  0
VERTEX
  5
12CF
  8
0
  6
CONTINUOUS
 10
25.256983744799999
 20
-0.096939339100004
 30
0.0
  0
VERTEX
  5
12D0
  8
0
  6
CONTINUOUS
 10
25.249218151899999
 20
-0.1173866265999948
 30
0.0
  0
VERTEX
  5
12D1
  8
0
  6
CONTINUOUS
 10
25.240325360500002
 20
-0.134865930700002
 30
0.0
  0
VERTEX
  5
12D2
  8
0
  6
CONTINUOUS
 10
25.230230952100001
 20
-0.1491813027000006
 30
0.0
  0
VERTEX
  5
12D3
  8
0
  6
CONTINUOUS
 10
25.219009345300002
 20
-0.1605286911999997
 30
0.0
  0
VERTEX
  5
12D4
  8
0
  6
CONTINUOUS
 10
25.207385445900002
 20
-0.1681750648000104
 30
0.0
  0
VERTEX
  5
12D5
  8
0
  6
CONTINUOUS
 10
25.195332694400001
 20
-0.1718760796999987
 30
0.0
  0
VERTEX
  5
12D6
  8
0
  6
CONTINUOUS
 10
25.189105172400001
 20
-0.1723387066000015
 30
0.0
  0
SEQEND
  5
12D7
  8
0
  6
CONTINUOUS
  0
POLYLINE
  5
6AA
  8
0
  6
CONTINUOUS
 66
     1
 10
0.0
 20
0.0
 30
0.0
  0
VERTEX
  5
12D8
  8
0
  6
CONTINUOUS
 10
25.106954369099999
 20
-5.0
 30
0.0
  0
VERTEX
  5
12D9
  8
0
  6
CONTINUOUS
 10
25.108037349100002
 20
-4.9734045784000074
 30
0.0
  0
VERTEX
  5
12DA
  8
0
  6
CONTINUOUS
 10
25.110749178100001
 20
-4.9484562634000042
 30
0.0
  0
VERTEX
  5
12DB
  8
0
  6
CONTINUOUS
 10
25.115089856200001
 20
-4.9251550550000038
 30
0.0
  0
VERTEX
  5
12DC
  8
0
  6
CONTINUOUS
 10
25.121226600100002
 20
-4.9030606608000076
 30
0.0
  0
VERTEX
  5
12DD
  8
0
  6
CONTINUOUS
 10
25.128992192999998
 20
-4.8826133733000026
 30
0.0
  0
VERTEX
  5
12DE
  8
0
  6
CONTINUOUS
 10
25.137884984300001
 20
-4.8651340691999962
 30
0.0
  0
VERTEX
  5
12DF
  8
0
  6
CONTINUOUS
 10
25.147979392700002
 20
-4.8508186972000109
 30
0.0
  0
VERTEX
  5
12E0
  8
0
  6
CONTINUOUS
 10
25.159200999599999
 20
-4.8394713086999976
 30
0.0
  0
VERTEX
  5
12E1
  8
0
  6
CONTINUOUS
 10
25.170824898999999
 20
-4.8318249351000011
 30
0.0
  0
VERTEX
  5
12E2
  8
0
  6
CONTINUOUS
 10
25.182877650399998
 20
-4.8281239202000128
 30
0.0
  0
VERTEX
  5
12E3
  8
0
  6
CONTINUOUS
 10
25.189105172400001
 20
-4.8276612932999958
 30
0.0
  0
SEQEND
  5
12E4
  8
0
  6
CONTINUOUS
  0
POLYLINE
  5
6AB
  8
0
  6
CONTINUOUS
 66
     1
 10
0.0
 20
0.0
 30
0.0
  0
VERTEX
  5
12E5
  8
0
  6
CONTINUOUS
 10
25.271255975799999
 20
-5.0
 30
0.0
  0
VERTEX
  5
12E6
  8
0
  6
CONTINUOUS
 10
25.27017299580001
 20
-5.026595421500005
 30
0.0
  0
VERTEX
  5
12E7
  8
0
  6
CONTINUOUS
 10
25.267461166699999
 20
-5.0515437365000082
 30
0.0
  0
VERTEX
  5
12E8
  8
0
  6
CONTINUOUS
 10
25.2631204887
 20
-5.0748449449999953
 30
0.0
  0
VERTEX
  5
12E9
  8
0
  6
CONTINUOUS
 10
25.256983744799999
 20
-5.0969393391000031
 30
0.0
  0
VERTEX
  5
12EA
  8
0
  6
CONTINUOUS
 10
25.249218151899999
 20
-5.1173866265999939
 30
0.0
  0
VERTEX
  5
12EB
  8
0
  6
CONTINUOUS
 10
25.240325360500002
 20
-5.1348659307000011
 30
0.0
  0
VERTEX
  5
12EC
  8
0
  6
CONTINUOUS
 10
25.230230952100001
 20
-5.1491813026999997
 30
0.0
  0
VERTEX
  5
12ED
  8
0
  6
CONTINUOUS
 10
25.219009345300002
 20
-5.1605286911999988
 30
0.0
  0
VERTEX
  5
12EE
  8
0
  6
CONTINUOUS
 10
25.207385445900002
 20
-5.1681750648000104
 30
0.0
  0
VERTEX
  5
12EF
  8
0
  6
CONTINUOUS
 10
25.195332694400001
 20
-5.1718760796999979
 30
0.0
  0
VERTEX
  5
12F0
  8
0
  6
CONTINUOUS
 10
25.189105172400001
 20
-5.1723387066000006
 30
0.0
  0
SEQEND
  5
12F1
  8
0
  6
CONTINUOUS
  0
POLYLINE
  5
6AC
  8
0
  6
CONTINUOUS
 66
     1
 10
0.0
 20
0.0
 30
0.0
  0
VERTEX
  5
12F2
  8
0
  6
CONTINUOUS
 10
26.415937301700001
 20
7.5
 30
0.0
  0
VERTEX
  5
12F3
  8
0
  6
CONTINUOUS
 10
26.417020281700001
 20
7.5265954215999917
 30
0.0
  0
VERTEX
  5
12F4
  8
0
  6
CONTINUOUS
 10
26.4197321107
 20
7.5515437365999949
 30
0.0
  0
VERTEX
  5
12F5
  8
0
  6
CONTINUOUS
 10
26.424072788699998
 20
7.5748449449999953
 30
0.0
  0
VERTEX
  5
12F6
  8
0
  6
CONTINUOUS
 10
26.43020953260001
 20
7.5969393391999906
 30
0.0
  0
VERTEX
  5
12F7
  8
0
  6
CONTINUOUS
 10
26.4379751255
 20
7.6173866266999957
 30
0.0
  0
VERTEX
  5
12F8
  8
0
  6
CONTINUOUS
 10
26.4468679169
 20
7.6348659308000029
 30
0.0
  0
VERTEX
  5
12F9
  8
0
  6
CONTINUOUS
 10
26.456962325300001
 20
7.6491813027999882
 30
0.0
  0
VERTEX
  5
12FA
  8
0
  6
CONTINUOUS
 10
26.468183932199999
 20
7.6605286913000006
 30
0.0
  0
VERTEX
  5
12FB
  8
0
  6
CONTINUOUS
 10
26.479807831500001
 20
7.668175064899998
 30
0.0
  0
VERTEX
  5
12FC
  8
0
  6
CONTINUOUS
 10
26.491860583000001
 20
7.6718760797999863
 30
0.0
  0
VERTEX
  5
12FD
  8
0
  6
CONTINUOUS
 10
26.498088105000001
 20
7.6723387067000033
 30
0.0
  0
SEQEND
  5
12FE
  8
0
  6
CONTINUOUS
  0
POLYLINE
  5
6AD
  8
0
  6
CONTINUOUS
 66
     1
 10
0.0
 20
0.0
 30
0.0
  0
VERTEX
  5
12FF
  8
0
  6
CONTINUOUS
 10
26.5802389083
 20
7.5
 30
0.0
  0
VERTEX
  5
1300
  8
0
  6
CONTINUOUS
 10
26.579155928300011
 20
7.4734045784999941
 30
0.0
  0
VERTEX
  5
1301
  8
0
  6
CONTINUOUS
 10
26.576444099300002
 20
7.4484562634999909
 30
0.0
  0
VERTEX
  5
1302
  8
0
  6
CONTINUOUS
 10
26.5721034213
 20
7.4251550550000038
 30
0.0
  0
VERTEX
  5
1303
  8
0
  6
CONTINUOUS
 10
26.565966677399999
 20
7.403060660899996
 30
0.0
  0
VERTEX
  5
1304
  8
0
  6
CONTINUOUS
 10
26.558201084499999
 20
7.3826133734000052
 30
0.0
  0
VERTEX
  5
1305
  8
0
  6
CONTINUOUS
 10
26.549308293100001
 20
7.365134069299998
 30
0.0
  0
VERTEX
  5
1306
  8
0
  6
CONTINUOUS
 10
26.539213884700011
 20
7.3508186972999994
 30
0.0
  0
VERTEX
  5
1307
  8
0
  6
CONTINUOUS
 10
26.527992277799999
 20
7.3394713088000003
 30
0.0
  0
VERTEX
  5
1308
  8
0
  6
CONTINUOUS
 10
26.516368378500012
 20
7.3318249351999887
 30
0.0
  0
VERTEX
  5
1309
  8
0
  6
CONTINUOUS
 10
26.504315627000011
 20
7.3281239203000013
 30
0.0
  0
VERTEX
  5
130A
  8
0
  6
CONTINUOUS
 10
26.498088105000001
 20
7.3276612933999976
 30
0.0
  0
SEQEND
  5
130B
  8
0
  6
CONTINUOUS
  0
POLYLINE
  5
6AE
  8
0
  6
CONTINUOUS
 66
     1
 10
0.0
 20
0.0
 30
0.0
  0
VERTEX
  5
130C
  8
0
  6
CONTINUOUS
 10
26.415937301700001
 20
-7.5
 30
0.0
  0
VERTEX
  5
130D
  8
0
  6
CONTINUOUS
 10
26.417020281700001
 20
-7.4734045784000074
 30
0.0
  0
VERTEX
  5
130E
  8
0
  6
CONTINUOUS
 10
26.4197321107
 20
-7.4484562634000042
 30
0.0
  0
VERTEX
  5
130F
  8
0
  6
CONTINUOUS
 10
26.424072788699998
 20
-7.4251550550000038
 30
0.0
  0
VERTEX
  5
1310
  8
0
  6
CONTINUOUS
 10
26.43020953260001
 20
-7.4030606608000076
 30
0.0
  0
VERTEX
  5
1311
  8
0
  6
CONTINUOUS
 10
26.4379751255
 20
-7.3826133733000026
 30
0.0
  0
VERTEX
  5
1312
  8
0
  6
CONTINUOUS
 10
26.4468679169
 20
-7.3651340691999962
 30
0.0
  0
VERTEX
  5
1313
  8
0
  6
CONTINUOUS
 10
26.456962325300001
 20
-7.3508186972000109
 30
0.0
  0
VERTEX
  5
1314
  8
0
  6
CONTINUOUS
 10
26.468183932199999
 20
-7.3394713086999976
 30
0.0
  0
VERTEX
  5
1315
  8
0
  6
CONTINUOUS
 10
26.479807831500001
 20
-7.3318249351000011
 30
0.0
  0
VERTEX
  5
1316
  8
0
  6
CONTINUOUS
 10
26.491860583000001
 20
-7.3281239202000128
 30
0.0
  0
VERTEX
  5
1317
  8
0
  6
CONTINUOUS
 10
26.498088105000001
 20
-7.3276612932999958
 30
0.0
  0
SEQEND
  5
1318
  8
0
  6
CONTINUOUS
  0
POLYLINE
  5
6AF
  8
0
  6
CONTINUOUS
 66
     1
 10
0.0
 20
0.0
 30
0.0
  0
VERTEX
  5
1319
  8
0
  6
CONTINUOUS
 10
26.5802389083
 20
-7.5
 30
0.0
  0
VERTEX
  5
131A
  8
0
  6
CONTINUOUS
 10
26.579155928300011
 20
-7.526595421500005
 30
0.0
  0
VERTEX
  5
131B
  8
0
  6
CONTINUOUS
 10
26.576444099300002
 20
-7.5515437365000082
 30
0.0
  0
VERTEX
  5
131C
  8
0
  6
CONTINUOUS
 10
26.5721034213
 20
-7.5748449449999953
 30
0.0
  0
VERTEX
  5
131D
  8
0
  6
CONTINUOUS
 10
26.565966677399999
 20
-7.5969393391000031
 30
0.0
  0
VERTEX
  5
131E
  8
0
  6
CONTINUOUS
 10
26.558201084499999
 20
-7.6173866265999939
 30
0.0
  0
VERTEX
  5
131F
  8
0
  6
CONTINUOUS
 10
26.549308293100001
 20
-7.6348659307000011
 30
0.0
  0
VERTEX
  5
1320
  8
0
  6
CONTINUOUS
 10
26.539213884700011
 20
-7.6491813026999997
 30
0.0
  0
VERTEX
  5
1321
  8
0
  6
CONTINUOUS
 10
26.527992277799999
 20
-7.6605286911999988
 30
0.0
  0
VERTEX
  5
1322
  8
0
  6
CONTINUOUS
 10
26.516368378500012
 20
-7.6681750648000104
 30
0.0
  0
VERTEX
  5
1323
  8
0
  6
CONTINUOUS
 10
26.504315627000011
 20
-7.6718760796999979
 30
0.0
  0
VERTEX
  5
1324
  8
0
  6
CONTINUOUS
 10
26.498088105000001
 20
-7.6723387066000006
 30
0.0
  0
SEQEND
  5
1325
  8
0
  6
CONTINUOUS
  0
POLYLINE
  5
6B0
  8
0
  6
CONTINUOUS
 66
     1
 10
0.0
 20
0.0
 30
0.0
  0
VERTEX
  5
1326
  8
0
  6
CONTINUOUS
 10
31.030009149699989
 20
-12.640841422799999
 30
0.0
  0
VERTEX
  5
1327
  8
0
  6
CONTINUOUS
 10
30.927821914100011
 20
-12.6978618843
 30
0.0
  0
VERTEX
  5
1328
  8
0
  6
CONTINUOUS
 10
30.8203607831
 20
-12.74936300310001
 30
0.0
  0
VERTEX
  5
1329
  8
0
  6
CONTINUOUS
 10
30.707975003299989
 20
-12.795002772
 30
0.0
  0
VERTEX
  5
132A
  8
0
  6
CONTINUOUS
 10
30.590868965400009
 20
-12.834552899000011
 30
0.0
  0
VERTEX
  5
132B
  8
0
  6
CONTINUOUS
 10
30.469570686600001
 20
-12.867577426
 30
0.0
  0
VERTEX
  5
132C
  8
0
  6
CONTINUOUS
 10
30.3450139437
 20
-12.8935504604
 30
0.0
  0
VERTEX
  5
132D
  8
0
  6
CONTINUOUS
 10
30.217814225800009
 20
-12.9122435109
 30
0.0
  0
VERTEX
  5
132E
  8
0
  6
CONTINUOUS
 10
30.088206477
 20
-12.923600866299999
 30
0.0
  0
VERTEX
  5
132F
  8
0
  6
CONTINUOUS
 10
29.956628606900001
 20
-12.927483716299999
 30
0.0
  0
SEQEND
  5
1330
  8
0
  6
CONTINUOUS
  0
POLYLINE
  5
6B1
  8
0
  6
CONTINUOUS
 66
     1
 10
0.0
 20
0.0
 30
0.0
  0
VERTEX
  5
1331
  8
0
  6
CONTINUOUS
 10
30.878697555500001
 20
12.70435194309999
 30
0.0
  0
VERTEX
  5
1332
  8
0
  6
CONTINUOUS
 10
30.991361211200001
 20
12.6469461742
 30
0.0
  0
VERTEX
  5
1333
  8
0
  6
CONTINUOUS
 10
31.098484983599999
 20
12.582702711499991
 30
0.0
  0
VERTEX
  5
1334
  8
0
  6
CONTINUOUS
 10
31.199589067799991
 20
12.511984587200001
 30
0.0
  0
VERTEX
  5
1335
  8
0
  6
CONTINUOUS
 10
31.29427600990001
 20
12.43509783819999
 30
0.0
  0
VERTEX
  5
1336
  8
0
  6
CONTINUOUS
 10
31.382082347699988
 20
12.3526109209
 30
0.0
  0
VERTEX
  5
1337
  8
0
  6
CONTINUOUS
 10
31.46256561289999
 20
12.265356927999999
 30
0.0
  0
VERTEX
  5
1338
  8
0
  6
CONTINUOUS
 10
31.535364743500001
 20
12.173908334399989
 30
0.0
  0
VERTEX
  5
1339
  8
0
  6
CONTINUOUS
 10
31.6002942384
 20
12.07878226459999
 30
0.0
  0
VERTEX
  5
133A
  8
0
  6
CONTINUOUS
 10
31.657339891399999
 20
11.98067275449999
 30
0.0
  0
VERTEX
  5
133B
  8
0
  6
CONTINUOUS
 10
31.706394398300009
 20
11.880118105499999
 30
0.0
  0
VERTEX
  5
133C
  8
0
  6
CONTINUOUS
 10
31.747261396599999
 20
11.777674396099989
 30
0.0
  0
VERTEX
  5
133D
  8
0
  6
CONTINUOUS
 10
31.779926380799989
 20
11.6741385426
 30
0.0
  0
SEQEND
  5
133E
  8
0
  6
CONTINUOUS
  0
POLYLINE
  5
6B2
  8
0
  6
CONTINUOUS
 66
     1
 10
0.0
 20
0.0
 30
0.0
  0
VERTEX
  5
133F
  8
0
  6
CONTINUOUS
 10
31.374208267099991
 20
11.24616837889999
 30
0.0
  0
VERTEX
  5
1340
  8
0
  6
CONTINUOUS
 10
31.37377840100001
 20
11.294266242400001
 30
0.0
  0
VERTEX
  5
1341
  8
0
  6
CONTINUOUS
 10
31.37070347220001
 20
11.342248435199989
 30
0.0
  0
VERTEX
  5
1342
  8
0
  6
CONTINUOUS
 10
31.364978479600001
 20
11.39003516289999
 30
0.0
  0
VERTEX
  5
1343
  8
0
  6
CONTINUOUS
 10
31.35660134590001
 20
11.4375457671
 30
0.0
  0
VERTEX
  5
1344
  8
0
  6
CONTINUOUS
 10
31.345572967900001
 20
11.484698858899989
 30
0.0
  0
VERTEX
  5
1345
  8
0
  6
CONTINUOUS
 10
31.3318972635
 20
11.531412454999989
 30
0.0
  0
SEQEND
  5
1346
  8
0
  6
CONTINUOUS
  0
LINE
  5
6B3
  8
0
  6
CONTINUOUS
 10
31.374209392099999
 20
-11.246127518
 30
0.0
 11
31.374209392099999
 21
11.246168559999999
 31
0.0
  0
LINE
  5
6B4
  8
0
  6
CONTINUOUS
 10
31.843020331000009
 20
11.24313446769999
 30
0.0
 11
31.843020331000009
 21
-11.2444703056
 31
0.0
  0
POLYLINE
  5
6B5
  8
0
  6
CONTINUOUS
 66
     1
 10
0.0
 20
0.0
 30
0.0
  0
VERTEX
  5
1347
  8
0
  6
CONTINUOUS
 10
31.84206082750001
 20
-11.2460618695
 30
0.0
  0
VERTEX
  5
1348
  8
0
  6
CONTINUOUS
 10
31.841832849999999
 20
-11.289814658299999
 30
0.0
  0
VERTEX
  5
1349
  8
0
  6
CONTINUOUS
 10
31.840177437699989
 20
-11.3333676822
 30
0.0
  0
VERTEX
  5
134A
  8
0
  6
CONTINUOUS
 10
31.83710207230002
 20
-11.376663238000001
 30
0.0
  0
VERTEX
  5
134B
  8
0
  6
CONTINUOUS
 10
31.832568013900001
 20
-11.419730900799999
 30
0.0
  0
VERTEX
  5
134C
  8
0
  6
CONTINUOUS
 10
31.826636731499999
 20
-11.462429693100001
 30
0.0
  0
VERTEX
  5
134D
  8
0
  6
CONTINUOUS
 10
31.819504102100002
 20
-11.504464607899999
 30
0.0
  0
VERTEX
  5
134E
  8
0
  6
CONTINUOUS
 10
31.81128879940001
 20
-11.545724934400001
 30
0.0
  0
VERTEX
  5
134F
  8
0
  6
CONTINUOUS
 10
31.802001276199999
 20
-11.5862686225
 30
0.0
  0
VERTEX
  5
1350
  8
0
  6
CONTINUOUS
 10
31.791700559599999
 20
-11.626072297
 30
0.0
  0
SEQEND
  5
1351
  8
0
  6
CONTINUOUS
  0
LINE
  5
6B6
  8
0
  6
CONTINUOUS
 10
33.466099447900007
 20
12.972011315999991
 30
0.0
 11
33.466099447900007
 21
-15.3735861313
 31
0.0
  0
POLYLINE
  5
6B7
  8
0
  6
CONTINUOUS
 66
     1
 10
0.0
 20
0.0
 30
0.0
  0
VERTEX
  5
1352
  8
0
  6
CONTINUOUS
 10
33.466099447900007
 20
-15.3735861313
 30
0.0
  0
VERTEX
  5
1353
  8
0
  6
CONTINUOUS
 10
33.459740318900003
 20
-15.513021672500001
 30
0.0
  0
VERTEX
  5
1354
  8
0
  6
CONTINUOUS
 10
33.441868079000002
 20
-15.6493017157
 30
0.0
  0
VERTEX
  5
1355
  8
0
  6
CONTINUOUS
 10
33.412482728200011
 20
-15.782426260799999
 30
0.0
  0
VERTEX
  5
1356
  8
0
  6
CONTINUOUS
 10
33.37119129589999
 20
-15.913346535300001
 30
0.0
  0
VERTEX
  5
1357
  8
0
  6
CONTINUOUS
 10
33.318386752599991
 20
-16.041111311800009
 30
0.0
  0
VERTEX
  5
1358
  8
0
  6
CONTINUOUS
 10
33.25524801009999
 20
-16.1628669079
 30
0.0
  0
VERTEX
  5
1359
  8
0
  6
CONTINUOUS
 10
33.181542398799991
 20
-16.278478129300002
 30
0.0
  0
VERTEX
  5
135A
  8
0
  6
CONTINUOUS
 10
33.097502588400012
 20
-16.3880801703
 30
0.0
  0
VERTEX
  5
135B
  8
0
  6
CONTINUOUS
 10
33.005005498700001
 20
-16.489224932100001
 30
0.0
  0
VERTEX
  5
135C
  8
0
  6
CONTINUOUS
 10
32.903860736799999
 20
-16.581722021800001
 30
0.0
  0
VERTEX
  5
135D
  8
0
  6
CONTINUOUS
 10
32.794258695800004
 20
-16.66576183230001
 30
0.0
  0
VERTEX
  5
135E
  8
0
  6
CONTINUOUS
 10
32.678647474500004
 20
-16.739467443500001
 30
0.0
  0
VERTEX
  5
135F
  8
0
  6
CONTINUOUS
 10
32.556891878300007
 20
-16.802606185999998
 30
0.0
  0
VERTEX
  5
1360
  8
0
  6
CONTINUOUS
 10
32.429127101900008
 20
-16.855410729300001
 30
0.0
  0
VERTEX
  5
1361
  8
0
  6
CONTINUOUS
 10
32.298206827400001
 20
-16.8967021616
 30
0.0
  0
VERTEX
  5
1362
  8
0
  6
CONTINUOUS
 10
32.165082282300013
 20
-16.926087512500001
 30
0.0
  0
VERTEX
  5
1363
  8
0
  6
CONTINUOUS
 10
32.028802239100003
 20
-16.94395975230001
 30
0.0
  0
VERTEX
  5
1364
  8
0
  6
CONTINUOUS
 10
31.889366697899991
 20
-16.95031888130001
 30
0.0
  0
SEQEND
  5
1365
  8
0
  6
CONTINUOUS
  0
POLYLINE
  5
6B8
  8
0
  6
CONTINUOUS
 66
     1
 10
0.0
 20
0.0
 30
0.0
  0
VERTEX
  5
1366
  8
0
  6
CONTINUOUS
 10
31.341474489900008
 20
-11.499765356799999
 30
0.0
  0
VERTEX
  5
1367
  8
0
  6
CONTINUOUS
 10
31.35211744439999
 20
-11.45819571860001
 30
0.0
  0
VERTEX
  5
1368
  8
0
  6
CONTINUOUS
 10
31.360691968099999
 20
-11.41627028610001
 30
0.0
  0
VERTEX
  5
1369
  8
0
  6
CONTINUOUS
 10
31.367191870100001
 20
-11.374044941999999
 30
0.0
  0
VERTEX
  5
136A
  8
0
  6
CONTINUOUS
 10
31.371612760400001
 20
-11.3315755434
 30
0.0
  0
VERTEX
  5
136B
  8
0
  6
CONTINUOUS
 10
31.373952044199999
 20
-11.288917848100001
 30
0.0
  0
VERTEX
  5
136C
  8
0
  6
CONTINUOUS
 10
31.374208913300009
 20
-11.2461274409
 30
0.0
  0
SEQEND
  5
136D
  8
0
  6
CONTINUOUS
  0
POLYLINE
  5
6B9
  8
0
  6
CONTINUOUS
 66
     1
 10
0.0
 20
0.0
 30
0.0
  0
VERTEX
  5
136E
  8
0
  6
CONTINUOUS
 10
31.793431480300001
 20
-11.6265352979
 30
0.0
  0
VERTEX
  5
136F
  8
0
  6
CONTINUOUS
 10
31.756461154099998
 20
-11.7563123695
 30
0.0
  0
VERTEX
  5
1370
  8
0
  6
CONTINUOUS
 10
31.706710101799999
 20
-11.8850034993
 30
0.0
  0
VERTEX
  5
1371
  8
0
  6
CONTINUOUS
 10
31.6441523694
 20
-12.0112052481
 30
0.0
  0
VERTEX
  5
1372
  8
0
  6
CONTINUOUS
 10
31.5688819497
 20
-12.134427709600001
 30
0.0
  0
VERTEX
  5
1373
  8
0
  6
CONTINUOUS
 10
31.481330581799991
 20
-12.2528438558
 30
0.0
  0
VERTEX
  5
1374
  8
0
  6
CONTINUOUS
 10
31.382736237100008
 20
-12.36359093360001
 30
0.0
  0
VERTEX
  5
1375
  8
0
  6
CONTINUOUS
 10
31.274328253600011
 20
-12.465514048899999
 30
0.0
  0
VERTEX
  5
1376
  8
0
  6
CONTINUOUS
 10
31.156825209099988
 20
-12.558709716199999
 30
0.0
  0
VERTEX
  5
1377
  8
0
  6
CONTINUOUS
 10
31.031130510800011
 20
-12.64272069320001
 30
0.0
  0
SEQEND
  5
1378
  8
0
  6
CONTINUOUS
  0
POLYLINE
  5
6BA
  8
0
  6
CONTINUOUS
 66
     1
 10
0.0
 20
0.0
 30
0.0
  0
VERTEX
  5
1379
  8
0
  6
CONTINUOUS
 10
31.3318972635
 20
11.531412454999989
 30
0.0
  0
VERTEX
  5
137A
  8
0
  6
CONTINUOUS
 10
31.3055527862
 20
11.602893788899991
 30
0.0
  0
VERTEX
  5
137B
  8
0
  6
CONTINUOUS
 10
31.273230898599991
 20
11.673292268399999
 30
0.0
  0
VERTEX
  5
137C
  8
0
  6
CONTINUOUS
 10
31.234923711100009
 20
11.74226437639998
 30
0.0
  0
VERTEX
  5
137D
  8
0
  6
CONTINUOUS
 10
31.190583461300012
 20
11.809458429599999
 30
0.0
  0
VERTEX
  5
137E
  8
0
  6
CONTINUOUS
 10
31.140308398200009
 20
11.8745115096
 30
0.0
  0
VERTEX
  5
137F
  8
0
  6
CONTINUOUS
 10
31.084349717199999
 20
11.9370553287
 30
0.0
  0
VERTEX
  5
1380
  8
0
  6
CONTINUOUS
 10
31.022778901599992
 20
11.9967321715
 30
0.0
  0
VERTEX
  5
1381
  8
0
  6
CONTINUOUS
 10
30.955733215599992
 20
12.05316455779999
 30
0.0
  0
VERTEX
  5
1382
  8
0
  6
CONTINUOUS
 10
30.883616217699998
 20
12.105967504600001
 30
0.0
  0
VERTEX
  5
1383
  8
0
  6
CONTINUOUS
 10
30.806695201800011
 20
12.154785876199989
 30
0.0
  0
VERTEX
  5
1384
  8
0
  6
CONTINUOUS
 10
30.725090260199998
 20
12.19928488809999
 30
0.0
  0
VERTEX
  5
1385
  8
0
  6
CONTINUOUS
 10
30.639032556099998
 20
12.2391324997
 30
0.0
  0
SEQEND
  5
1386
  8
0
  6
CONTINUOUS
  0
POLYLINE
  5
6BB
  8
0
  6
CONTINUOUS
 66
     1
 10
0.0
 20
0.0
 30
0.0
  0
VERTEX
  5
1387
  8
0
  6
CONTINUOUS
 10
31.779211393499988
 20
11.6739221757
 30
0.0
  0
VERTEX
  5
1388
  8
0
  6
CONTINUOUS
 10
31.791531950700001
 20
11.6296848045
 30
0.0
  0
VERTEX
  5
1389
  8
0
  6
CONTINUOUS
 10
31.802797673400001
 20
11.58446095529999
 30
0.0
  0
VERTEX
  5
138A
  8
0
  6
CONTINUOUS
 10
31.812922084899991
 20
11.538265284299991
 30
0.0
  0
VERTEX
  5
138B
  8
0
  6
CONTINUOUS
 10
31.821931106699989
 20
11.4909905554
 30
0.0
  0
VERTEX
  5
138C
  8
0
  6
CONTINUOUS
 10
31.829603815700011
 20
11.44277952319999
 30
0.0
  0
VERTEX
  5
138D
  8
0
  6
CONTINUOUS
 10
31.835523247299999
 20
11.39406484209999
 30
0.0
  0
VERTEX
  5
138E
  8
0
  6
CONTINUOUS
 10
31.839540684999999
 20
11.345053558199989
 30
0.0
  0
VERTEX
  5
138F
  8
0
  6
CONTINUOUS
 10
31.841747671099998
 20
11.295692177899991
 30
0.0
  0
VERTEX
  5
1390
  8
0
  6
CONTINUOUS
 10
31.842134920700001
 20
11.246061876799979
 30
0.0
  0
SEQEND
  5
1391
  8
0
  6
CONTINUOUS
  0
ARC
  5
6BC
  8
0
  6
CONTINUOUS
 10
0.0
 20
0.0
 30
0.0
 40
3.4173132128999999
 50
246.2282292452
 51
293.77177075479989
  0
ARC
  5
6BD
  8
0
  6
CONTINUOUS
 10
0.0
 20
0.0
 30
0.0
 40
3.4173132128999999
 50
302.26937671689979
 51
57.730623283100222
  0
ARC
  5
6BE
  8
0
  6
CONTINUOUS
 10
0.0
 20
0.0
 30
0.0
 40
3.4173132128999999
 50
122.2693767168997
 51
237.73062328310019
  0
ARC
  5
6BF
  8
0
  6
CONTINUOUS
 10
0.0
 20
0.0
 30
0.0
 40
3.4173132128999999
 50
66.228229245200055
 51
113.7717707547999
  0
CIRCLE
  5
6C0
  8
0
  6
CONTINUOUS
 10
0.0
 20
0.0
 30
0.0
 40
2.417313229399999
  0
CIRCLE
  5
6C1
  8
0
  6
CONTINUOUS
 10
0.0
 20
0.0
 30
0.0
 40
1.1259842520000001
  0
ARC
  5
6C2
  8
0
  6
CONTINUOUS
 10
-21.3125
 20
8.1184999999999974
 30
0.0
 40
0.75
 50
90.0
 51
180.0
  0
ARC
  5
6C3
  8
0
  6
CONTINUOUS
 10
21.3125
 20
8.1184999999999974
 30
0.0
 40
0.75
 50
0.0
 51
90.0
  0
ARC
  5
6C4
  8
0
  6
CONTINUOUS
 10
21.3125
 20
-8.1185000000000045
 30
0.0
 40
0.75
 50
270.0
 51
0.0
  0
ARC
  5
6C5
  8
0
  6
CONTINUOUS
 10
-21.3125
 20
-8.1185000000000045
 30
0.0
 40
0.75
 50
180.0
 51
270.0
  0
ENDSEC
  0
EOF
