  0
SECTION
  2
HEADER
  9
$ACADVER
  1
AC1009
  9
$INSBASE
 10
0.0
 20
0.0
 30
0.0
  9
$EXTMIN
 10
-33.731274257442749
 20
-0.0060119891143415
 30
-0.0000000349181948
  9
$EXTMAX
 10
33.2103292177394
 20
22.048707892582971
 30
0.0000000814935747
  9
$LIMMIN
 10
0.0
 20
0.0
  9
$LIMMAX
 10
12.0
 20
9.0
  9
$ORTHOMODE
 70
     0
  9
$REGENMODE
 70
     1
  9
$FILLMODE
 70
     0
  9
$QTEXTMODE
 70
     0
  9
$MIRRTEXT
 70
     1
  9
$DRAGMODE
 70
     2
  9
$LTSCALE
 40
1.0
  9
$OSMODE
 70
    37
  9
$ATTMODE
 70
     1
  9
$TEXTSIZE
 40
0.001
  9
$TRACEWID
 40
0.05
  9
$TEXTSTYLE
  7
STANDARD
  9
$CLAYER
  8
0
  9
$CELTYPE
  6
BYLAYER
  9
$CECOLOR
 62
   256
  9
$DIMSCALE
 40
1.0
  9
$DIMASZ
 40
0.18
  9
$DIMEXO
 40
0.0625
  9
$DIMDLI
 40
0.38
  9
$DIMRND
 40
0.0
  9
$DIMDLE
 40
0.0
  9
$DIMEXE
 40
0.18
  9
$DIMTP
 40
0.0
  9
$DIMTM
 40
0.0
  9
$DIMTXT
 40
0.18
  9
$DIMCEN
 40
0.09
  9
$DIMTSZ
 40
0.0
  9
$DIMTOL
 70
     0
  9
$DIMLIM
 70
     0
  9
$DIMTIH
 70
     1
  9
$DIMTOH
 70
     1
  9
$DIMSE1
 70
     0
  9
$DIMSE2
 70
     0
  9
$DIMTAD
 70
     0
  9
$DIMZIN
 70
     0
  9
$DIMBLK
  1

  9
$DIMASO
 70
     1
  9
$DIMSHO
 70
     1
  9
$DIMPOST
  1

  9
$DIMAPOST
  1

  9
$DIMALT
 70
     0
  9
$DIMALTD
 70
     2
  9
$DIMALTF
 40
25.399999999999999
  9
$DIMLFAC
 40
1.0
  9
$DIMTOFL
 70
     0
  9
$DIMTVP
 40
0.0
  9
$DIMTIX
 70
     0
  9
$DIMSOXD
 70
     0
  9
$DIMSAH
 70
     0
  9
$DIMBLK1
  1

  9
$DIMBLK2
  1

  9
$DIMSTYLE
  2
STANDARD
  9
$DIMCLRD
 70
     0
  9
$DIMCLRE
 70
     0
  9
$DIMCLRT
 70
     0
  9
$DIMTFAC
 40
1.0
  9
$DIMGAP
 40
0.09
  9
$LUNITS
 70
     2
  9
$LUPREC
 70
     4
  9
$SKETCHINC
 40
0.1
  9
$FILLETRAD
 40
0.0
  9
$AUNITS
 70
     0
  9
$AUPREC
 70
     0
  9
$MENU
  1
acad
  9
$ELEVATION
 40
0.0
  9
$PELEVATION
 40
0.0
  9
$THICKNESS
 40
0.0
  9
$LIMCHECK
 70
     0
  9
$BLIPMODE
 70
     0
  9
$CHAMFERA
 40
0.0
  9
$CHAMFERB
 40
0.0
  9
$SKPOLY
 70
     0
  9
$TDCREATE
 40
2450907.6204812499
  9
$TDUPDATE
 40
2456959.5835942589
  9
$TDINDWG
 40
0.0752213194
  9
$TDUSRTIMER
 40
0.0752212731
  9
$USRTIMER
 70
     1
  9
$ANGBASE
 50
0.0
  9
$ANGDIR
 70
     0
  9
$PDMODE
 70
     0
  9
$PDSIZE
 40
0.0
  9
$PLINEWID
 40
0.0
  9
$COORDS
 70
     1
  9
$SPLFRAME
 70
     0
  9
$SPLINETYPE
 70
     6
  9
$SPLINESEGS
 70
     8
  9
$ATTDIA
 70
     0
  9
$ATTREQ
 70
     1
  9
$HANDLING
 70
     1
  9
$HANDSEED
  5
2FF8
  9
$SURFTAB1
 70
     6
  9
$SURFTAB2
 70
     6
  9
$SURFTYPE
 70
     6
  9
$SURFU
 70
     6
  9
$SURFV
 70
     6
  9
$UCSNAME
  2

  9
$UCSORG
 10
0.0
 20
0.0
 30
0.0
  9
$UCSXDIR
 10
1.0
 20
0.0
 30
0.0
  9
$UCSYDIR
 10
0.0
 20
1.0
 30
0.0
  9
$PUCSNAME
  2

  9
$PUCSORG
 10
0.0
 20
0.0
 30
0.0
  9
$PUCSXDIR
 10
1.0
 20
0.0
 30
0.0
  9
$PUCSYDIR
 10
0.0
 20
1.0
 30
0.0
  9
$USERI1
 70
     0
  9
$USERI2
 70
     0
  9
$USERI3
 70
     0
  9
$USERI4
 70
     0
  9
$USERI5
 70
     0
  9
$USERR1
 40
0.0
  9
$USERR2
 40
0.0
  9
$USERR3
 40
0.0
  9
$USERR4
 40
0.0
  9
$USERR5
 40
0.0
  9
$WORLDVIEW
 70
     1
  9
$SHADEDGE
 70
     3
  9
$SHADEDIF
 70
    70
  9
$TILEMODE
 70
     1
  9
$MAXACTVP
 70
    16
  9
$PLIMCHECK
 70
     0
  9
$PEXTMIN
 10
1.0000000000000000E+020
 20
1.0000000000000000E+020
 30
1.0000000000000000E+020
  9
$PEXTMAX
 10
-1.0000000000000000E+020
 20
-1.0000000000000000E+020
 30
-1.0000000000000000E+020
  9
$PLIMMIN
 10
0.0
 20
0.0
  9
$PLIMMAX
 10
12.0
 20
9.0
  9
$UNITMODE
 70
     0
  9
$VISRETAIN
 70
     0
  9
$PLINEGEN
 70
     0
  9
$PSLTSCALE
 70
     1
  0
ENDSEC
  0
SECTION
  2
TABLES
  0
TABLE
  2
VPORT
 70
     1
  0
VPORT
  2
*ACTIVE
 70
     0
 10
0.0
 20
0.0
 11
1.0
 21
1.0
 12
-0.2604725198516746
 22
11.02134795173431
 13
0.0
 23
0.0
 14
1.0
 24
1.0
 15
0.0
 25
0.0
 16
0.0
 26
0.0
 36
1.0
 17
0.0
 27
0.0
 37
0.0
 40
31.368140566585542
 41
2.1410256410256401
 42
50.0
 43
0.0
 44
0.0
 50
0.0
 51
0.0
 71
     0
 72
 10000
 73
     1
 74
     1
 75
     0
 76
     0
 77
     0
 78
     0
  0
ENDTAB
  0
TABLE
  2
LTYPE
 70
     2
  0
LTYPE
  2
CONTINUOUS
 70
     0
  3
Solid line
 72
    65
 73
     0
 40
0.0
  0
ENDTAB
  0
TABLE
  2
LAYER
 70
     2
  0
LAYER
  2
0
 70
     0
 62
     7
  6
CONTINUOUS
  0
LAYER
  2
DEFPOINTS
 70
     0
 62
     7
  6
CONTINUOUS
  0
ENDTAB
  0
TABLE
  2
STYLE
 70
     2
  0
STYLE
  2
STANDARD
 70
     0
 40
0.0
 41
1.0
 50
0.0
 71
     0
 42
0.001
  3
txt
  4

  0
ENDTAB
  0
TABLE
  2
VIEW
 70
     0
  0
ENDTAB
  0
TABLE
  2
UCS
 70
     0
  0
ENDTAB
  0
TABLE
  2
APPID
 70
     6
  0
APPID
  2
ACAD
 70
     0
  0
APPID
  2
ACADANNOTATIVE
 70
     0
  0
APPID
  2
ACAD_PSEXT
 70
     0
  0
APPID
  2
ACAD_EXEMPT_FROM_CAD_STANDARDS
 70
     0
  0
APPID
  2
ACAD_MLEADERVER
 70
     0
  0
APPID
  2
ACAD_NAV_VCDISPLAY
 70
     0
  0
ENDTAB
  0
TABLE
  2
DIMSTYLE
 70
     3
  0
DIMSTYLE
  2
STANDARD
 70
     0
  3

  4

  5

  6

  7

 40
1.0
 41
0.18
 42
0.0625
 43
0.38
 44
0.18
 45
0.0
 46
0.0
 47
0.0
 48
0.0
140
0.18
141
0.09
142
0.0
143
25.399999999999999
144
1.0
145
0.0
146
1.0
147
0.09
 71
     0
 72
     0
 73
     1
 74
     1
 75
     0
 76
     0
 77
     0
 78
     0
170
     0
171
     2
172
     0
173
     0
174
     0
175
     0
176
     0
177
     0
178
     0
  0
ENDTAB
  0
ENDSEC
  0
SECTION
  2
BLOCKS
  0
BLOCK
  8
0
  2
$MODEL_SPACE
 70
     0
 10
0.0
 20
0.0
 30
0.0
  3
$MODEL_SPACE
  1

  0
ENDBLK
  5
31C
  8
0
  0
BLOCK
 67
     1
  8
0
  2
$PAPER_SPACE
 70
     0
 10
0.0
 20
0.0
 30
0.0
  3
$PAPER_SPACE
  1

  0
ENDBLK
  5
318
 67
     1
  8
0
  0
ENDSEC
  0
SECTION
  2
ENTITIES
  0
ATTDEF
  5
55
  8
0
 10
0.0
 20
0.0
 30
0.0
 40
0.001
  1
K-819-F62
  3

  2
MODELNUMBER
 70
     8
  0
ATTDEF
  5
57
  8
0
 10
0.0
 20
-0.0016666666666667
 30
0.0
 40
0.001
  1
Rêve
  3

  2
TRADENAME
 70
     8
  0
ATTDEF
  5
58
  8
0
 10
0.0
 20
-0.0033333333333333
 30
0.0
 40
0.001
  1
FREESTANDING BATH
  3

  2
PRODUCT
 70
     8
  0
ATTDEF
  5
59
  8
0
 10
0.0
 20
-0.005
 30
0.0
 40
0.001
  1
CAST IRON
  3

  2
MATERIAL
 70
     8
  0
LINE
  5
236E
  8
0
  6
CONTINUOUS
 10
-33.669800268495102
 20
21.50884780281698
 30
0.0
 11
-33.725972114795091
 21
20.86680066171699
 31
0.0
  0
POLYLINE
  5
236F
  8
0
  6
CONTINUOUS
 66
     1
 10
0.0
 20
0.0
 30
0.0
  0
VERTEX
  5
254B
  8
0
  6
CONTINUOUS
 10
-29.6387692079951
 20
19.887545116716979
 30
0.0
  0
VERTEX
  5
254C
  8
0
  6
CONTINUOUS
 10
-29.641756124095089
 20
19.863783734116979
 30
0.0
  0
VERTEX
  5
254D
  8
0
  6
CONTINUOUS
 10
-29.648246638395101
 20
19.84143452371698
 30
0.0
  0
VERTEX
  5
254E
  8
0
  6
CONTINUOUS
 10
-29.657995548495091
 20
19.821341807716991
 30
0.0
  0
VERTEX
  5
254F
  8
0
  6
CONTINUOUS
 10
-29.670633598695101
 20
19.80426571311699
 30
0.0
  0
VERTEX
  5
2550
  8
0
  6
CONTINUOUS
 10
-29.6856839665951
 20
19.790849798616978
 30
0.0
  0
VERTEX
  5
2551
  8
0
  6
CONTINUOUS
 10
-29.702581769995088
 20
19.78159938271699
 30
0.0
  0
VERTEX
  5
2552
  8
0
  6
CONTINUOUS
 10
-29.720690660895102
 20
19.776866527216988
 30
0.0
  0
SEQEND
  5
2553
  8
0
  6
CONTINUOUS
  0
POLYLINE
  5
2370
  8
0
  6
CONTINUOUS
 66
     1
 10
0.0
 20
0.0
 30
0.0
  0
VERTEX
  5
2554
  8
0
  6
CONTINUOUS
 10
-29.740699808795089
 20
19.522660235816979
 30
0.0
  0
VERTEX
  5
2555
  8
0
  6
CONTINUOUS
 10
-29.730872294995091
 20
19.57547814861698
 30
0.0
  0
VERTEX
  5
2556
  8
0
  6
CONTINUOUS
 10
-29.723820453595089
 20
19.62477360941697
 30
0.0
  0
VERTEX
  5
2557
  8
0
  6
CONTINUOUS
 10
-29.719730394995089
 20
19.66924562401698
 30
0.0
  0
VERTEX
  5
2558
  8
0
  6
CONTINUOUS
 10
-29.7187100631951
 20
19.707720497916981
 30
0.0
  0
VERTEX
  5
2559
  8
0
  6
CONTINUOUS
 10
-29.720786386595091
 20
19.739182811216981
 30
0.0
  0
VERTEX
  5
255A
  8
0
  6
CONTINUOUS
 10
-29.725904567395101
 20
19.762802218216979
 30
0.0
  0
VERTEX
  5
255B
  8
0
  6
CONTINUOUS
 10
-29.733929527995091
 20
19.777955361216979
 30
0.0
  0
SEQEND
  5
255C
  8
0
  6
CONTINUOUS
  0
LINE
  5
2371
  8
0
  6
CONTINUOUS
 10
-29.371580735395099
 20
19.90664466661698
 30
0.0
 11
-29.302342058895089
 21
20.86680066171699
 31
0.0
  0
LINE
  5
2372
  8
0
  6
CONTINUOUS
 10
-29.113296369195091
 20
19.897962641916969
 30
0.0
 11
-29.043431615295098
 21
20.86680066171699
 31
0.0
  0
POLYLINE
  5
2373
  8
0
  6
CONTINUOUS
 66
     1
 10
0.0
 20
0.0
 30
0.0
  0
VERTEX
  5
255D
  8
0
  6
CONTINUOUS
 10
-29.861897170295091
 20
20.044683640716979
 30
0.0
  0
VERTEX
  5
255E
  8
0
  6
CONTINUOUS
 10
-29.87781284789509
 20
20.029861193516989
 30
0.0
  0
VERTEX
  5
255F
  8
0
  6
CONTINUOUS
 10
-29.896494748595089
 20
20.015918576916981
 30
0.0
  0
VERTEX
  5
2560
  8
0
  6
CONTINUOUS
 10
-29.917234333195101
 20
20.003384585816981
 30
0.0
  0
VERTEX
  5
2561
  8
0
  6
CONTINUOUS
 10
-29.939245021195099
 20
19.99273459121698
 30
0.0
  0
VERTEX
  5
2562
  8
0
  6
CONTINUOUS
 10
-29.9616920238951
 20
19.984372510016978
 30
0.0
  0
VERTEX
  5
2563
  8
0
  6
CONTINUOUS
 10
-29.983724004695102
 20
19.978615487016981
 30
0.0
  0
VERTEX
  5
2564
  8
0
  6
CONTINUOUS
 10
-30.004505367195101
 20
19.975681865916979
 30
0.0
  0
VERTEX
  5
2565
  8
0
  6
CONTINUOUS
 10
-30.02324794629509
 20
19.97568290911698
 30
0.0
  0
VERTEX
  5
2566
  8
0
  6
CONTINUOUS
 10
-30.039240900695098
 20
19.978618576916979
 30
0.0
  0
VERTEX
  5
2567
  8
0
  6
CONTINUOUS
 10
-30.05187767299509
 20
19.98437752951698
 30
0.0
  0
VERTEX
  5
2568
  8
0
  6
CONTINUOUS
 10
-30.060678994895088
 20
19.99274134971699
 30
0.0
  0
VERTEX
  5
2569
  8
0
  6
CONTINUOUS
 10
-30.061960480095092
 20
19.994723402116978
 30
0.0
  0
SEQEND
  5
256A
  8
0
  6
CONTINUOUS
  0
LINE
  5
2374
  8
0
  6
CONTINUOUS
 10
-31.4451679983951
 20
20.54516475181698
 30
0.0
 11
-31.399631945495099
 21
20.432568395316981
 31
0.0
  0
LINE
  5
2375
  8
0
  6
CONTINUOUS
 10
-31.366929728795089
 20
20.339162158916981
 30
0.0
 11
-31.357360368195099
 21
20.31255920731698
 31
0.0
  0
LINE
  5
2376
  8
0
  6
CONTINUOUS
 10
-31.399631945495099
 20
20.432568395316981
 30
0.0
 11
-31.366948490395099
 21
20.339118846016991
 31
0.0
  0
LINE
  5
2377
  8
0
  6
CONTINUOUS
 10
-31.334865988695089
 20
20.345706925116989
 30
0.0
 11
-31.342076995095091
 21
20.366619158316979
 31
0.0
  0
LINE
  5
2378
  8
0
  6
CONTINUOUS
 10
-31.342076995095091
 20
20.366619158316979
 30
0.0
 11
-31.37787648609509
 21
20.473818582216989
 31
0.0
  0
POLYLINE
  5
2379
  8
0
  6
CONTINUOUS
 66
     1
 10
0.0
 20
0.0
 30
0.0
  0
VERTEX
  5
256B
  8
0
  6
CONTINUOUS
 10
-30.137586970895089
 20
20.001580530316978
 30
0.0
  0
VERTEX
  5
256C
  8
0
  6
CONTINUOUS
 10
-30.1298545520951
 20
19.978399323016991
 30
0.0
  0
VERTEX
  5
256D
  8
0
  6
CONTINUOUS
 10
-30.12144933769509
 20
19.955164455216991
 30
0.0
  0
VERTEX
  5
256E
  8
0
  6
CONTINUOUS
 10
-30.112373049295101
 20
19.931874594416978
 30
0.0
  0
VERTEX
  5
256F
  8
0
  6
CONTINUOUS
 10
-30.10256383669509
 20
19.908315448216982
 30
0.0
  0
SEQEND
  5
2570
  8
0
  6
CONTINUOUS
  0
LINE
  5
237A
  8
0
  6
CONTINUOUS
 10
-30.209653607195101
 20
20.223207356616982
 30
0.0
 11
-30.137586970895089
 21
20.001580530316978
 31
0.0
  0
LINE
  5
237B
  8
0
  6
CONTINUOUS
 10
-31.366959682295089
 20
20.339153587716979
 30
0.0
 11
-31.366948490395099
 21
20.339118846016991
 31
0.0
  0
POLYLINE
  5
237C
  8
0
  6
CONTINUOUS
 66
     1
 10
0.0
 20
0.0
 30
0.0
  0
VERTEX
  5
2571
  8
0
  6
CONTINUOUS
 10
-29.270770426495091
 20
19.608308631616978
 30
0.0
  0
VERTEX
  5
2572
  8
0
  6
CONTINUOUS
 10
-29.255991865595099
 20
19.62138774851698
 30
0.0
  0
VERTEX
  5
2573
  8
0
  6
CONTINUOUS
 10
-29.242051693195101
 20
19.634572426916979
 30
0.0
  0
VERTEX
  5
2574
  8
0
  6
CONTINUOUS
 10
-29.228949909195091
 20
19.647862666916978
 30
0.0
  0
VERTEX
  5
2575
  8
0
  6
CONTINUOUS
 10
-29.216836796295102
 20
19.661065698516978
 30
0.0
  0
VERTEX
  5
2576
  8
0
  6
CONTINUOUS
 10
-29.205562071695091
 20
19.67437429171699
 30
0.0
  0
VERTEX
  5
2577
  8
0
  6
CONTINUOUS
 10
-29.19467488789509
 20
19.688366756216979
 30
0.0
  0
VERTEX
  5
2578
  8
0
  6
CONTINUOUS
 10
-29.183935040595099
 20
19.703280910016979
 30
0.0
  0
VERTEX
  5
2579
  8
0
  6
CONTINUOUS
 10
-29.17358273399509
 20
19.718878935016981
 30
0.0
  0
VERTEX
  5
257A
  8
0
  6
CONTINUOUS
 10
-29.163887732395089
 20
19.735025687216989
 30
0.0
  0
VERTEX
  5
257B
  8
0
  6
CONTINUOUS
 10
-29.154873342895101
 20
19.75174006911698
 30
0.0
  0
VERTEX
  5
257C
  8
0
  6
CONTINUOUS
 10
-29.146516258395099
 20
19.769003178016991
 30
0.0
  0
VERTEX
  5
257D
  8
0
  6
CONTINUOUS
 10
-29.139016321995101
 20
19.78662316261698
 30
0.0
  0
VERTEX
  5
257E
  8
0
  6
CONTINUOUS
 10
-29.1324075602951
 20
19.804591298416991
 30
0.0
  0
VERTEX
  5
257F
  8
0
  6
CONTINUOUS
 10
-29.126655946695099
 20
19.82291630991698
 30
0.0
  0
VERTEX
  5
2580
  8
0
  6
CONTINUOUS
 10
-29.121859244495091
 20
19.84143251781698
 30
0.0
  0
VERTEX
  5
2581
  8
0
  6
CONTINUOUS
 10
-29.118050041295099
 20
19.86008469601699
 30
0.0
  0
VERTEX
  5
2582
  8
0
  6
CONTINUOUS
 10
-29.115195749595092
 20
19.878928070716981
 30
0.0
  0
VERTEX
  5
2583
  8
0
  6
CONTINUOUS
 10
-29.113296369195091
 20
19.897962641916969
 30
0.0
  0
SEQEND
  5
2584
  8
0
  6
CONTINUOUS
  0
POLYLINE
  5
237D
  8
0
  6
CONTINUOUS
 66
     1
 10
0.0
 20
0.0
 30
0.0
  0
VERTEX
  5
2585
  8
0
  6
CONTINUOUS
 10
-31.342102363995089
 20
20.366600321316991
 30
0.0
  0
VERTEX
  5
2586
  8
0
  6
CONTINUOUS
 10
-31.3547585180951
 20
20.358319194616978
 30
0.0
  0
VERTEX
  5
2587
  8
0
  6
CONTINUOUS
 10
-31.3631854178951
 20
20.35052623131698
 30
0.0
  0
VERTEX
  5
2588
  8
0
  6
CONTINUOUS
 10
-31.3670620050951
 20
20.343518337416981
 30
0.0
  0
VERTEX
  5
2589
  8
0
  6
CONTINUOUS
 10
-31.366959682295089
 20
20.339153587716979
 30
0.0
  0
SEQEND
  5
258A
  8
0
  6
CONTINUOUS
  0
LINE
  5
237E
  8
0
  6
CONTINUOUS
 10
-25.451687560695088
 20
9.5458442121169824
 30
0.0
 11
-31.583096197895092
 21
20.86680066171699
 31
0.0
  0
LINE
  5
237F
  8
0
  6
CONTINUOUS
 10
-29.861884202095101
 20
20.044703501916981
 30
0.0
 11
-29.936019828495098
 21
20.195747774316981
 31
0.0
  0
POLYLINE
  5
2380
  8
0
  6
CONTINUOUS
 66
     1
 10
0.0
 20
0.0
 30
0.0
  0
VERTEX
  5
258B
  8
0
  6
CONTINUOUS
 10
-31.357360368195099
 20
20.31255920731698
 30
0.0
  0
VERTEX
  5
258C
  8
0
  6
CONTINUOUS
 10
-31.336443366295089
 20
20.267070037016978
 30
0.0
  0
VERTEX
  5
258D
  8
0
  6
CONTINUOUS
 10
-31.31073198499509
 20
20.224966582416979
 30
0.0
  0
VERTEX
  5
258E
  8
0
  6
CONTINUOUS
 10
-31.281287653095099
 20
20.188048358516991
 30
0.0
  0
SEQEND
  5
258F
  8
0
  6
CONTINUOUS
  0
POLYLINE
  5
2381
  8
0
  6
CONTINUOUS
 66
     1
 10
0.0
 20
0.0
 30
0.0
  0
VERTEX
  5
2590
  8
0
  6
CONTINUOUS
 10
-30.10256383669509
 20
19.908315448216982
 30
0.0
  0
VERTEX
  5
2591
  8
0
  6
CONTINUOUS
 10
-30.09208618919509
 20
19.884699276416988
 30
0.0
  0
VERTEX
  5
2592
  8
0
  6
CONTINUOUS
 10
-30.0811311964951
 20
19.861664690716971
 30
0.0
  0
VERTEX
  5
2593
  8
0
  6
CONTINUOUS
 10
-30.069710499495091
 20
19.839357315016979
 30
0.0
  0
VERTEX
  5
2594
  8
0
  6
CONTINUOUS
 10
-30.05781365019509
 20
19.817630612216981
 30
0.0
  0
VERTEX
  5
2595
  8
0
  6
CONTINUOUS
 10
-30.045598222395089
 20
19.796685247216981
 30
0.0
  0
SEQEND
  5
2596
  8
0
  6
CONTINUOUS
  0
POLYLINE
  5
2382
  8
0
  6
CONTINUOUS
 66
     1
 10
0.0
 20
0.0
 30
0.0
  0
VERTEX
  5
2597
  8
0
  6
CONTINUOUS
 10
-31.622360140995099
 20
20.86680066171699
 30
0.0
  0
VERTEX
  5
2598
  8
0
  6
CONTINUOUS
 10
-31.610241946695101
 20
20.84982877971699
 30
0.0
  0
VERTEX
  5
2599
  8
0
  6
CONTINUOUS
 10
-31.550668376895089
 20
20.754063054616989
 30
0.0
  0
VERTEX
  5
259A
  8
0
  6
CONTINUOUS
 10
-31.4956127931951
 20
20.65246167981698
 30
0.0
  0
VERTEX
  5
259B
  8
0
  6
CONTINUOUS
 10
-31.4451679983951
 20
20.54516475181698
 30
0.0
  0
SEQEND
  5
259C
  8
0
  6
CONTINUOUS
  0
LINE
  5
2383
  8
0
  6
CONTINUOUS
 10
-30.061986342195102
 20
19.99480690561699
 30
0.0
 11
-30.025340456295101
 21
19.93995766001699
 31
0.0
  0
POLYLINE
  5
2384
  8
0
  6
CONTINUOUS
 66
     1
 10
0.0
 20
0.0
 30
0.0
  0
VERTEX
  5
259D
  8
0
  6
CONTINUOUS
 10
-30.045598222395089
 20
19.796685247216981
 30
0.0
  0
VERTEX
  5
259E
  8
0
  6
CONTINUOUS
 10
-30.0330815418951
 20
19.776586378716981
 30
0.0
  0
VERTEX
  5
259F
  8
0
  6
CONTINUOUS
 10
-30.0202450262951
 20
19.757269809916981
 30
0.0
  0
VERTEX
  5
25A0
  8
0
  6
CONTINUOUS
 10
-30.007192001095088
 20
19.73874246861698
 30
0.0
  0
VERTEX
  5
25A1
  8
0
  6
CONTINUOUS
 10
-29.993933856695101
 20
19.721024130516991
 30
0.0
  0
VERTEX
  5
25A2
  8
0
  6
CONTINUOUS
 10
-29.980456388995101
 20
19.704097187816981
 30
0.0
  0
VERTEX
  5
25A3
  8
0
  6
CONTINUOUS
 10
-29.966824567695092
 20
19.687912470816979
 30
0.0
  0
VERTEX
  5
25A4
  8
0
  6
CONTINUOUS
 10
-29.953052176695088
 20
19.672479576116981
 30
0.0
  0
VERTEX
  5
25A5
  8
0
  6
CONTINUOUS
 10
-29.93912189799509
 20
19.657791665716982
 30
0.0
  0
VERTEX
  5
25A6
  8
0
  6
CONTINUOUS
 10
-29.925052294895089
 20
19.64377473881699
 30
0.0
  0
VERTEX
  5
25A7
  8
0
  6
CONTINUOUS
 10
-29.910855448495091
 20
19.630429316816979
 30
0.0
  0
VERTEX
  5
25A8
  8
0
  6
CONTINUOUS
 10
-29.8965154141951
 20
19.617757953516978
 30
0.0
  0
VERTEX
  5
25A9
  8
0
  6
CONTINUOUS
 10
-29.88200887199509
 20
19.605689594716981
 30
0.0
  0
VERTEX
  5
25AA
  8
0
  6
CONTINUOUS
 10
-29.8673445798951
 20
19.594217903416979
 30
0.0
  0
VERTEX
  5
25AB
  8
0
  6
CONTINUOUS
 10
-29.852509562195092
 20
19.583352661016988
 30
0.0
  0
VERTEX
  5
25AC
  8
0
  6
CONTINUOUS
 10
-29.8374477332951
 20
19.573047151416979
 30
0.0
  0
VERTEX
  5
25AD
  8
0
  6
CONTINUOUS
 10
-29.82218886789509
 20
19.563299819816969
 30
0.0
  0
VERTEX
  5
25AE
  8
0
  6
CONTINUOUS
 10
-29.806698403795089
 20
19.554116255216989
 30
0.0
  0
VERTEX
  5
25AF
  8
0
  6
CONTINUOUS
 10
-29.790822796495089
 20
19.545461273216979
 30
0.0
  0
VERTEX
  5
25B0
  8
0
  6
CONTINUOUS
 10
-29.774508288195101
 20
19.537325363616979
 30
0.0
  0
VERTEX
  5
25B1
  8
0
  6
CONTINUOUS
 10
-29.757801750995089
 20
19.529724011916979
 30
0.0
  0
VERTEX
  5
25B2
  8
0
  6
CONTINUOUS
 10
-29.740699771995089
 20
19.522660267016981
 30
0.0
  0
SEQEND
  5
25B3
  8
0
  6
CONTINUOUS
  0
LINE
  5
2385
  8
0
  6
CONTINUOUS
 10
-30.061960480095092
 20
19.994723402116978
 30
0.0
 11
-30.062004217495101
 21
19.994797871816981
 31
0.0
  0
POLYLINE
  5
2386
  8
0
  6
CONTINUOUS
 66
     1
 10
0.0
 20
0.0
 30
0.0
  0
VERTEX
  5
25B4
  8
0
  6
CONTINUOUS
 10
-29.936019828495098
 20
20.195747774316981
 30
0.0
  0
VERTEX
  5
25B5
  8
0
  6
CONTINUOUS
 10
-30.016430962595091
 20
20.338183191516979
 30
0.0
  0
VERTEX
  5
25B6
  8
0
  6
CONTINUOUS
 10
-30.10311760429509
 20
20.47200975361698
 30
0.0
  0
VERTEX
  5
25B7
  8
0
  6
CONTINUOUS
 10
-30.19644082899509
 20
20.597731411016991
 30
0.0
  0
VERTEX
  5
25B8
  8
0
  6
CONTINUOUS
 10
-30.296039561395101
 20
20.714844213316979
 30
0.0
  0
VERTEX
  5
25B9
  8
0
  6
CONTINUOUS
 10
-30.4008305756951
 20
20.82183630861698
 30
0.0
  0
VERTEX
  5
25BA
  8
0
  6
CONTINUOUS
 10
-30.452040254795101
 20
20.86680066171699
 30
0.0
  0
SEQEND
  5
25BB
  8
0
  6
CONTINUOUS
  0
POLYLINE
  5
2387
  8
0
  6
CONTINUOUS
 66
     1
 10
0.0
 20
0.0
 30
0.0
  0
VERTEX
  5
25BC
  8
0
  6
CONTINUOUS
 10
-19.932211373595091
 20
10.174745893216979
 30
0.0
  0
VERTEX
  5
25BD
  8
0
  6
CONTINUOUS
 10
-19.931748746695089
 20
10.16171911431698
 30
0.0
  0
VERTEX
  5
25BE
  8
0
  6
CONTINUOUS
 10
-19.92804773179509
 20
10.13650707511699
 30
0.0
  0
VERTEX
  5
25BF
  8
0
  6
CONTINUOUS
 10
-19.92040135819509
 20
10.112192112116981
 30
0.0
  0
VERTEX
  5
25C0
  8
0
  6
CONTINUOUS
 10
-19.909053969695091
 20
10.08871866761698
 30
0.0
  0
VERTEX
  5
25C1
  8
0
  6
CONTINUOUS
 10
-19.894738597695088
 20
10.06760310571698
 30
0.0
  0
VERTEX
  5
25C2
  8
0
  6
CONTINUOUS
 10
-19.877259293595088
 20
10.04900109561698
 30
0.0
  0
VERTEX
  5
25C3
  8
0
  6
CONTINUOUS
 10
-19.85681200609509
 20
10.032756968016979
 30
0.0
  0
VERTEX
  5
25C4
  8
0
  6
CONTINUOUS
 10
-19.834717611895091
 20
10.01992007941698
 30
0.0
  0
VERTEX
  5
25C5
  8
0
  6
CONTINUOUS
 10
-19.811416403495091
 20
10.01084021541698
 30
0.0
  0
VERTEX
  5
25C6
  8
0
  6
CONTINUOUS
 10
-19.786468088495091
 20
10.005167590416979
 30
0.0
  0
VERTEX
  5
25C7
  8
0
  6
CONTINUOUS
 10
-19.75987266699509
 20
10.00290220441698
 30
0.0
  0
SEQEND
  5
25C8
  8
0
  6
CONTINUOUS
  0
POLYLINE
  5
2388
  8
0
  6
CONTINUOUS
 66
     1
 10
0.0
 20
0.0
 30
0.0
  0
VERTEX
  5
25C9
  8
0
  6
CONTINUOUS
 10
-19.58753396029509
 20
10.174745893216979
 30
0.0
  0
VERTEX
  5
25CA
  8
0
  6
CONTINUOUS
 10
-19.587996587195089
 20
10.18777267211698
 30
0.0
  0
VERTEX
  5
25CB
  8
0
  6
CONTINUOUS
 10
-19.591697602095088
 20
10.212984711416979
 30
0.0
  0
VERTEX
  5
25CC
  8
0
  6
CONTINUOUS
 10
-19.599343975695088
 20
10.237299674416979
 30
0.0
  0
VERTEX
  5
25CD
  8
0
  6
CONTINUOUS
 10
-19.610691364195091
 20
10.26077311881698
 30
0.0
  0
VERTEX
  5
25CE
  8
0
  6
CONTINUOUS
 10
-19.62500673619509
 20
10.28188868071698
 30
0.0
  0
VERTEX
  5
25CF
  8
0
  6
CONTINUOUS
 10
-19.64248604029509
 20
10.300490690916989
 30
0.0
  0
VERTEX
  5
25D0
  8
0
  6
CONTINUOUS
 10
-19.662933327795091
 20
10.316734818516981
 30
0.0
  0
VERTEX
  5
25D1
  8
0
  6
CONTINUOUS
 10
-19.685027721995091
 20
10.32957170701698
 30
0.0
  0
VERTEX
  5
25D2
  8
0
  6
CONTINUOUS
 10
-19.708328930395091
 20
10.33865157111698
 30
0.0
  0
VERTEX
  5
25D3
  8
0
  6
CONTINUOUS
 10
-19.73327724539509
 20
10.344324196116981
 30
0.0
  0
VERTEX
  5
25D4
  8
0
  6
CONTINUOUS
 10
-19.75987266699509
 20
10.34658958211698
 30
0.0
  0
SEQEND
  5
25D5
  8
0
  6
CONTINUOUS
  0
POLYLINE
  5
2389
  8
0
  6
CONTINUOUS
 66
     1
 10
0.0
 20
0.0
 30
0.0
  0
VERTEX
  5
25D6
  8
0
  6
CONTINUOUS
 10
-29.46418526509509
 20
19.820617695016981
 30
0.0
  0
VERTEX
  5
25D7
  8
0
  6
CONTINUOUS
 10
-29.455474323195091
 20
19.824452613516989
 30
0.0
  0
VERTEX
  5
25D8
  8
0
  6
CONTINUOUS
 10
-29.447254802995101
 20
19.828350308316981
 30
0.0
  0
VERTEX
  5
25D9
  8
0
  6
CONTINUOUS
 10
-29.4395268001951
 20
19.832298580416978
 30
0.0
  0
VERTEX
  5
25DA
  8
0
  6
CONTINUOUS
 10
-29.432383154395101
 20
19.83622546601698
 30
0.0
  0
VERTEX
  5
25DB
  8
0
  6
CONTINUOUS
 10
-29.425726989795091
 20
19.840176195616991
 30
0.0
  0
VERTEX
  5
25DC
  8
0
  6
CONTINUOUS
 10
-29.41928529049509
 20
19.844329241916981
 30
0.0
  0
VERTEX
  5
25DD
  8
0
  6
CONTINUOUS
 10
-29.412936970695089
 20
19.848765266716981
 30
0.0
  0
VERTEX
  5
25DE
  8
0
  6
CONTINUOUS
 10
-29.406829719595098
 20
19.853411932716991
 30
0.0
  0
VERTEX
  5
25DF
  8
0
  6
CONTINUOUS
 10
-29.401104073195089
 20
19.858228320216991
 30
0.0
  0
VERTEX
  5
25E0
  8
0
  6
CONTINUOUS
 10
-29.395779381595091
 20
19.86321187541699
 30
0.0
  0
VERTEX
  5
25E1
  8
0
  6
CONTINUOUS
 10
-29.390856562695092
 20
19.868358319616981
 30
0.0
  0
VERTEX
  5
25E2
  8
0
  6
CONTINUOUS
 10
-29.386442905995089
 20
19.873616919316991
 30
0.0
  0
VERTEX
  5
25E3
  8
0
  6
CONTINUOUS
 10
-29.382561399595101
 20
19.87897387331698
 30
0.0
  0
VERTEX
  5
25E4
  8
0
  6
CONTINUOUS
 10
-29.379202058295089
 20
19.884425992716992
 30
0.0
  0
VERTEX
  5
25E5
  8
0
  6
CONTINUOUS
 10
-29.376416755595098
 20
19.889933388016981
 30
0.0
  0
VERTEX
  5
25E6
  8
0
  6
CONTINUOUS
 10
-29.374223899795101
 20
19.89547477331698
 30
0.0
  0
VERTEX
  5
25E7
  8
0
  6
CONTINUOUS
 10
-29.372611029895101
 20
19.901049022216981
 30
0.0
  0
VERTEX
  5
25E8
  8
0
  6
CONTINUOUS
 10
-29.371580735395099
 20
19.90664466661698
 30
0.0
  0
SEQEND
  5
25E9
  8
0
  6
CONTINUOUS
  0
POLYLINE
  5
238A
  8
0
  6
CONTINUOUS
 66
     1
 10
0.0
 20
0.0
 30
0.0
  0
VERTEX
  5
25EA
  8
0
  6
CONTINUOUS
 10
-16.682211373595091
 20
7.757856129416985
 30
0.0
  0
VERTEX
  5
25EB
  8
0
  6
CONTINUOUS
 10
-16.681748746695089
 20
7.744829350616981
 30
0.0
  0
VERTEX
  5
25EC
  8
0
  6
CONTINUOUS
 10
-16.67804773179509
 20
7.7196173113169841
 30
0.0
  0
VERTEX
  5
25ED
  8
0
  6
CONTINUOUS
 10
-16.67040135819509
 20
7.6953023483169822
 30
0.0
  0
VERTEX
  5
25EE
  8
0
  6
CONTINUOUS
 10
-16.659053969695091
 20
7.6718289038169827
 30
0.0
  0
VERTEX
  5
25EF
  8
0
  6
CONTINUOUS
 10
-16.644738597695088
 20
7.6507133419169833
 30
0.0
  0
VERTEX
  5
25F0
  8
0
  6
CONTINUOUS
 10
-16.627259293595088
 20
7.632111331816982
 30
0.0
  0
VERTEX
  5
25F1
  8
0
  6
CONTINUOUS
 10
-16.60681200609509
 20
7.6158672042169817
 30
0.0
  0
VERTEX
  5
25F2
  8
0
  6
CONTINUOUS
 10
-16.584717611895091
 20
7.6030303157169854
 30
0.0
  0
VERTEX
  5
25F3
  8
0
  6
CONTINUOUS
 10
-16.561416403495091
 20
7.5939504516169833
 30
0.0
  0
VERTEX
  5
25F4
  8
0
  6
CONTINUOUS
 10
-16.536468088495091
 20
7.5882778266169799
 30
0.0
  0
VERTEX
  5
25F5
  8
0
  6
CONTINUOUS
 10
-16.50987266699509
 20
7.5860124406169831
 30
0.0
  0
SEQEND
  5
25F6
  8
0
  6
CONTINUOUS
  0
POLYLINE
  5
238B
  8
0
  6
CONTINUOUS
 66
     1
 10
0.0
 20
0.0
 30
0.0
  0
VERTEX
  5
25F7
  8
0
  6
CONTINUOUS
 10
-16.33753396029509
 20
7.757856129416985
 30
0.0
  0
VERTEX
  5
25F8
  8
0
  6
CONTINUOUS
 10
-16.337996587195089
 20
7.7708829083169837
 30
0.0
  0
VERTEX
  5
25F9
  8
0
  6
CONTINUOUS
 10
-16.341697602095088
 20
7.796094947616985
 30
0.0
  0
VERTEX
  5
25FA
  8
0
  6
CONTINUOUS
 10
-16.349343975695088
 20
7.8204099106169842
 30
0.0
  0
VERTEX
  5
25FB
  8
0
  6
CONTINUOUS
 10
-16.360691364195091
 20
7.8438833551169864
 30
0.0
  0
VERTEX
  5
25FC
  8
0
  6
CONTINUOUS
 10
-16.37500673619509
 20
7.8649989170169832
 30
0.0
  0
VERTEX
  5
25FD
  8
0
  6
CONTINUOUS
 10
-16.39248604029509
 20
7.8836009271169827
 30
0.0
  0
VERTEX
  5
25FE
  8
0
  6
CONTINUOUS
 10
-16.412933327795091
 20
7.8998450547169803
 30
0.0
  0
VERTEX
  5
25FF
  8
0
  6
CONTINUOUS
 10
-16.435027721995091
 20
7.9126819432169837
 30
0.0
  0
VERTEX
  5
2600
  8
0
  6
CONTINUOUS
 10
-16.458328930395091
 20
7.9217618073169831
 30
0.0
  0
VERTEX
  5
2601
  8
0
  6
CONTINUOUS
 10
-16.48327724539509
 20
7.9274344323169821
 30
0.0
  0
VERTEX
  5
2602
  8
0
  6
CONTINUOUS
 10
-16.50987266699509
 20
7.9296998183169833
 30
0.0
  0
SEQEND
  5
2603
  8
0
  6
CONTINUOUS
  0
POLYLINE
  5
238C
  8
0
  6
CONTINUOUS
 66
     1
 10
0.0
 20
0.0
 30
0.0
  0
VERTEX
  5
2604
  8
0
  6
CONTINUOUS
 10
-19.894738597695088
 20
10.09505157501698
 30
0.0
  0
VERTEX
  5
2605
  8
0
  6
CONTINUOUS
 10
-19.877259293595088
 20
10.076449564816979
 30
0.0
  0
VERTEX
  5
2606
  8
0
  6
CONTINUOUS
 10
-19.85681200609509
 20
10.060205437216981
 30
0.0
  0
VERTEX
  5
2607
  8
0
  6
CONTINUOUS
 10
-19.834717611895091
 20
10.04736854871698
 30
0.0
  0
VERTEX
  5
2608
  8
0
  6
CONTINUOUS
 10
-19.811416403495091
 20
10.03828868461698
 30
0.0
  0
VERTEX
  5
2609
  8
0
  6
CONTINUOUS
 10
-19.786468088495091
 20
10.032616059616981
 30
0.0
  0
VERTEX
  5
260A
  8
0
  6
CONTINUOUS
 10
-19.75987266699509
 20
10.03035067361699
 30
0.0
  0
SEQEND
  5
260B
  8
0
  6
CONTINUOUS
  0
POLYLINE
  5
238D
  8
0
  6
CONTINUOUS
 66
     1
 10
0.0
 20
0.0
 30
0.0
  0
VERTEX
  5
260C
  8
0
  6
CONTINUOUS
 10
-29.270737934095099
 20
19.608339435316982
 30
0.0
  0
VERTEX
  5
260D
  8
0
  6
CONTINUOUS
 10
-29.2962471079951
 20
19.638019421116979
 30
0.0
  0
VERTEX
  5
260E
  8
0
  6
CONTINUOUS
 10
-29.321440417395092
 20
19.666949513016991
 30
0.0
  0
VERTEX
  5
260F
  8
0
  6
CONTINUOUS
 10
-29.346005901995088
 20
19.694771480216978
 30
0.0
  0
VERTEX
  5
2610
  8
0
  6
CONTINUOUS
 10
-29.369639375995089
 20
19.72114081361698
 30
0.0
  0
VERTEX
  5
2611
  8
0
  6
CONTINUOUS
 10
-29.392048194095089
 20
19.745730991716979
 30
0.0
  0
VERTEX
  5
2612
  8
0
  6
CONTINUOUS
 10
-29.412954875595091
 20
19.768237523416978
 30
0.0
  0
VERTEX
  5
2613
  8
0
  6
CONTINUOUS
 10
-29.432100539995091
 20
19.788381719016979
 30
0.0
  0
VERTEX
  5
2614
  8
0
  6
CONTINUOUS
 10
-29.449248112895098
 20
19.805914140416981
 30
0.0
  0
VERTEX
  5
2615
  8
0
  6
CONTINUOUS
 10
-29.464185261595102
 20
19.820617690616981
 30
0.0
  0
SEQEND
  5
2616
  8
0
  6
CONTINUOUS
  0
LINE
  5
238E
  8
0
  6
CONTINUOUS
 10
-30.025340456295101
 20
19.93995766001699
 30
0.0
 11
-29.987613069395088
 21
19.895412273716978
 31
0.0
  0
LINE
  5
238F
  8
0
  6
CONTINUOUS
 10
-29.987613069395088
 20
19.895412273716978
 30
0.0
 11
-29.946208288595098
 21
19.85704578601699
 31
0.0
  0
LINE
  5
2390
  8
0
  6
CONTINUOUS
 10
-31.281287653095099
 20
20.188048358516991
 30
0.0
 11
-31.24878545679509
 21
20.15691754811699
 31
0.0
  0
POLYLINE
  5
2391
  8
0
  6
CONTINUOUS
 66
     1
 10
0.0
 20
0.0
 30
0.0
  0
VERTEX
  5
2617
  8
0
  6
CONTINUOUS
 10
-16.644738597695088
 20
7.67816181121698
 30
0.0
  0
VERTEX
  5
2618
  8
0
  6
CONTINUOUS
 10
-16.627259293595088
 20
7.6595598010169823
 30
0.0
  0
VERTEX
  5
2619
  8
0
  6
CONTINUOUS
 10
-16.60681200609509
 20
7.6433156735169829
 30
0.0
  0
VERTEX
  5
261A
  8
0
  6
CONTINUOUS
 10
-16.584717611895091
 20
7.6304787849169813
 30
0.0
  0
VERTEX
  5
261B
  8
0
  6
CONTINUOUS
 10
-16.561416403495091
 20
7.6213989209169837
 30
0.0
  0
VERTEX
  5
261C
  8
0
  6
CONTINUOUS
 10
-16.536468088495091
 20
7.6157262958169829
 30
0.0
  0
VERTEX
  5
261D
  8
0
  6
CONTINUOUS
 10
-16.50987266699509
 20
7.6134609098169816
 30
0.0
  0
SEQEND
  5
261E
  8
0
  6
CONTINUOUS
  0
POLYLINE
  5
2392
  8
0
  6
CONTINUOUS
 66
     1
 10
0.0
 20
0.0
 30
0.0
  0
VERTEX
  5
261F
  8
0
  6
CONTINUOUS
 10
-13.43221137359509
 20
10.174745893216979
 30
0.0
  0
VERTEX
  5
2620
  8
0
  6
CONTINUOUS
 10
-13.43174874669509
 20
10.16171911431698
 30
0.0
  0
VERTEX
  5
2621
  8
0
  6
CONTINUOUS
 10
-13.42804773179509
 20
10.13650707511699
 30
0.0
  0
VERTEX
  5
2622
  8
0
  6
CONTINUOUS
 10
-13.42040135819509
 20
10.112192112116981
 30
0.0
  0
VERTEX
  5
2623
  8
0
  6
CONTINUOUS
 10
-13.409053969695091
 20
10.08871866761698
 30
0.0
  0
VERTEX
  5
2624
  8
0
  6
CONTINUOUS
 10
-13.39473859769509
 20
10.06760310571698
 30
0.0
  0
VERTEX
  5
2625
  8
0
  6
CONTINUOUS
 10
-13.37725929359509
 20
10.04900109561698
 30
0.0
  0
VERTEX
  5
2626
  8
0
  6
CONTINUOUS
 10
-13.35681200609509
 20
10.032756968016979
 30
0.0
  0
VERTEX
  5
2627
  8
0
  6
CONTINUOUS
 10
-13.334717611895091
 20
10.01992007941698
 30
0.0
  0
VERTEX
  5
2628
  8
0
  6
CONTINUOUS
 10
-13.311416403495089
 20
10.01084021541698
 30
0.0
  0
VERTEX
  5
2629
  8
0
  6
CONTINUOUS
 10
-13.28646808849509
 20
10.005167590416979
 30
0.0
  0
VERTEX
  5
262A
  8
0
  6
CONTINUOUS
 10
-13.25987266699509
 20
10.00290220441698
 30
0.0
  0
SEQEND
  5
262B
  8
0
  6
CONTINUOUS
  0
POLYLINE
  5
2393
  8
0
  6
CONTINUOUS
 66
     1
 10
0.0
 20
0.0
 30
0.0
  0
VERTEX
  5
262C
  8
0
  6
CONTINUOUS
 10
-13.08753396029509
 20
10.174745893216979
 30
0.0
  0
VERTEX
  5
262D
  8
0
  6
CONTINUOUS
 10
-13.087996587195089
 20
10.18777267211698
 30
0.0
  0
VERTEX
  5
262E
  8
0
  6
CONTINUOUS
 10
-13.09169760209509
 20
10.212984711416979
 30
0.0
  0
VERTEX
  5
262F
  8
0
  6
CONTINUOUS
 10
-13.09934397569509
 20
10.237299674416979
 30
0.0
  0
VERTEX
  5
2630
  8
0
  6
CONTINUOUS
 10
-13.110691364195089
 20
10.26077311881698
 30
0.0
  0
VERTEX
  5
2631
  8
0
  6
CONTINUOUS
 10
-13.12500673619509
 20
10.28188868071698
 30
0.0
  0
VERTEX
  5
2632
  8
0
  6
CONTINUOUS
 10
-13.14248604029509
 20
10.300490690916989
 30
0.0
  0
VERTEX
  5
2633
  8
0
  6
CONTINUOUS
 10
-13.16293332779509
 20
10.316734818516981
 30
0.0
  0
VERTEX
  5
2634
  8
0
  6
CONTINUOUS
 10
-13.185027721995089
 20
10.32957170701698
 30
0.0
  0
VERTEX
  5
2635
  8
0
  6
CONTINUOUS
 10
-13.208328930395091
 20
10.33865157111698
 30
0.0
  0
VERTEX
  5
2636
  8
0
  6
CONTINUOUS
 10
-13.23327724539509
 20
10.344324196116981
 30
0.0
  0
VERTEX
  5
2637
  8
0
  6
CONTINUOUS
 10
-13.25987266699509
 20
10.34658958211698
 30
0.0
  0
SEQEND
  5
2638
  8
0
  6
CONTINUOUS
  0
LINE
  5
2394
  8
0
  6
CONTINUOUS
 10
-31.24878545679509
 20
20.15691754811699
 30
0.0
 11
-31.213311804395101
 21
20.131435683016988
 31
0.0
  0
POLYLINE
  5
2395
  8
0
  6
CONTINUOUS
 66
     1
 10
0.0
 20
0.0
 30
0.0
  0
VERTEX
  5
2639
  8
0
  6
CONTINUOUS
 10
-10.18221137359509
 20
7.757856129416985
 30
0.0
  0
VERTEX
  5
263A
  8
0
  6
CONTINUOUS
 10
-10.18174874669509
 20
7.744829350616981
 30
0.0
  0
VERTEX
  5
263B
  8
0
  6
CONTINUOUS
 10
-10.17804773179509
 20
7.7196173113169841
 30
0.0
  0
VERTEX
  5
263C
  8
0
  6
CONTINUOUS
 10
-10.17040135819509
 20
7.6953023483169822
 30
0.0
  0
VERTEX
  5
263D
  8
0
  6
CONTINUOUS
 10
-10.159053969695091
 20
7.6718289038169827
 30
0.0
  0
VERTEX
  5
263E
  8
0
  6
CONTINUOUS
 10
-10.14473859769509
 20
7.6507133419169833
 30
0.0
  0
VERTEX
  5
263F
  8
0
  6
CONTINUOUS
 10
-10.12725929359509
 20
7.632111331816982
 30
0.0
  0
VERTEX
  5
2640
  8
0
  6
CONTINUOUS
 10
-10.10681200609509
 20
7.6158672042169817
 30
0.0
  0
VERTEX
  5
2641
  8
0
  6
CONTINUOUS
 10
-10.084717611895091
 20
7.6030303157169854
 30
0.0
  0
VERTEX
  5
2642
  8
0
  6
CONTINUOUS
 10
-10.061416403495089
 20
7.5939504516169833
 30
0.0
  0
VERTEX
  5
2643
  8
0
  6
CONTINUOUS
 10
-10.03646808849509
 20
7.5882778266169799
 30
0.0
  0
VERTEX
  5
2644
  8
0
  6
CONTINUOUS
 10
-10.00987266699509
 20
7.5860124406169831
 30
0.0
  0
SEQEND
  5
2645
  8
0
  6
CONTINUOUS
  0
POLYLINE
  5
2396
  8
0
  6
CONTINUOUS
 66
     1
 10
0.0
 20
0.0
 30
0.0
  0
VERTEX
  5
2646
  8
0
  6
CONTINUOUS
 10
-9.8375339602950937
 20
7.757856129416985
 30
0.0
  0
VERTEX
  5
2647
  8
0
  6
CONTINUOUS
 10
-9.8379965871950912
 20
7.7708829083169837
 30
0.0
  0
VERTEX
  5
2648
  8
0
  6
CONTINUOUS
 10
-9.8416976020950955
 20
7.796094947616985
 30
0.0
  0
VERTEX
  5
2649
  8
0
  6
CONTINUOUS
 10
-9.849343975695092
 20
7.8204099106169842
 30
0.0
  0
VERTEX
  5
264A
  8
0
  6
CONTINUOUS
 10
-9.8606913641950946
 20
7.8438833551169864
 30
0.0
  0
VERTEX
  5
264B
  8
0
  6
CONTINUOUS
 10
-9.8750067361950933
 20
7.8649989170169832
 30
0.0
  0
VERTEX
  5
264C
  8
0
  6
CONTINUOUS
 10
-9.8924860402950934
 20
7.8836009271169827
 30
0.0
  0
VERTEX
  5
264D
  8
0
  6
CONTINUOUS
 10
-9.9129333277950948
 20
7.8998450547169803
 30
0.0
  0
VERTEX
  5
264E
  8
0
  6
CONTINUOUS
 10
-9.9350277219950947
 20
7.9126819432169837
 30
0.0
  0
VERTEX
  5
264F
  8
0
  6
CONTINUOUS
 10
-9.9583289303950941
 20
7.9217618073169831
 30
0.0
  0
VERTEX
  5
2650
  8
0
  6
CONTINUOUS
 10
-9.9832772453950938
 20
7.9274344323169821
 30
0.0
  0
VERTEX
  5
2651
  8
0
  6
CONTINUOUS
 10
-10.00987266699509
 20
7.9296998183169833
 30
0.0
  0
SEQEND
  5
2652
  8
0
  6
CONTINUOUS
  0
POLYLINE
  5
2397
  8
0
  6
CONTINUOUS
 66
     1
 10
0.0
 20
0.0
 30
0.0
  0
VERTEX
  5
2653
  8
0
  6
CONTINUOUS
 10
-30.831961219495088
 20
20.86680066171699
 30
0.0
  0
VERTEX
  5
2654
  8
0
  6
CONTINUOUS
 10
-30.765575783595089
 20
20.82036833861698
 30
0.0
  0
VERTEX
  5
2655
  8
0
  6
CONTINUOUS
 10
-30.622309142595089
 20
20.70031993311699
 30
0.0
  0
VERTEX
  5
2656
  8
0
  6
CONTINUOUS
 10
-30.48399641399509
 20
20.564052759816981
 30
0.0
  0
VERTEX
  5
2657
  8
0
  6
CONTINUOUS
 10
-30.3514771468951
 20
20.412598528916991
 30
0.0
  0
VERTEX
  5
2658
  8
0
  6
CONTINUOUS
 10
-30.225483390795102
 20
20.247003959516981
 30
0.0
  0
VERTEX
  5
2659
  8
0
  6
CONTINUOUS
 10
-30.106682643095098
 20
20.068413128616982
 30
0.0
  0
VERTEX
  5
265A
  8
0
  6
CONTINUOUS
 10
-30.061960480095092
 20
19.994723402116978
 30
0.0
  0
SEQEND
  5
265B
  8
0
  6
CONTINUOUS
  0
POLYLINE
  5
2398
  8
0
  6
CONTINUOUS
 66
     1
 10
0.0
 20
0.0
 30
0.0
  0
VERTEX
  5
265C
  8
0
  6
CONTINUOUS
 10
-29.946208288595098
 20
19.85704578601699
 30
0.0
  0
VERTEX
  5
265D
  8
0
  6
CONTINUOUS
 10
-29.901742993895098
 20
19.825609212416978
 30
0.0
  0
VERTEX
  5
265E
  8
0
  6
CONTINUOUS
 10
-29.854445641395088
 20
19.801513871616979
 30
0.0
  0
VERTEX
  5
265F
  8
0
  6
CONTINUOUS
 10
-29.80482341289509
 20
19.785220040616981
 30
0.0
  0
SEQEND
  5
2660
  8
0
  6
CONTINUOUS
  0
POLYLINE
  5
2399
  8
0
  6
CONTINUOUS
 66
     1
 10
0.0
 20
0.0
 30
0.0
  0
VERTEX
  5
2661
  8
0
  6
CONTINUOUS
 10
-13.39473859769509
 20
10.09505157501698
 30
0.0
  0
VERTEX
  5
2662
  8
0
  6
CONTINUOUS
 10
-13.37725929359509
 20
10.076449564816979
 30
0.0
  0
VERTEX
  5
2663
  8
0
  6
CONTINUOUS
 10
-13.35681200609509
 20
10.060205437216981
 30
0.0
  0
VERTEX
  5
2664
  8
0
  6
CONTINUOUS
 10
-13.334717611895091
 20
10.04736854871698
 30
0.0
  0
VERTEX
  5
2665
  8
0
  6
CONTINUOUS
 10
-13.311416403495089
 20
10.03828868461698
 30
0.0
  0
VERTEX
  5
2666
  8
0
  6
CONTINUOUS
 10
-13.28646808849509
 20
10.032616059616981
 30
0.0
  0
VERTEX
  5
2667
  8
0
  6
CONTINUOUS
 10
-13.25987266699509
 20
10.03035067361699
 30
0.0
  0
SEQEND
  5
2668
  8
0
  6
CONTINUOUS
  0
POLYLINE
  5
239A
  8
0
  6
CONTINUOUS
 66
     1
 10
0.0
 20
0.0
 30
0.0
  0
VERTEX
  5
2669
  8
0
  6
CONTINUOUS
 10
-10.14473859769509
 20
7.67816181121698
 30
0.0
  0
VERTEX
  5
266A
  8
0
  6
CONTINUOUS
 10
-10.12725929359509
 20
7.6595598010169823
 30
0.0
  0
VERTEX
  5
266B
  8
0
  6
CONTINUOUS
 10
-10.10681200609509
 20
7.6433156735169829
 30
0.0
  0
VERTEX
  5
266C
  8
0
  6
CONTINUOUS
 10
-10.084717611895091
 20
7.6304787849169813
 30
0.0
  0
VERTEX
  5
266D
  8
0
  6
CONTINUOUS
 10
-10.061416403495089
 20
7.6213989209169837
 30
0.0
  0
VERTEX
  5
266E
  8
0
  6
CONTINUOUS
 10
-10.03646808849509
 20
7.6157262958169829
 30
0.0
  0
VERTEX
  5
266F
  8
0
  6
CONTINUOUS
 10
-10.00987266699509
 20
7.6134609098169816
 30
0.0
  0
SEQEND
  5
2670
  8
0
  6
CONTINUOUS
  0
POLYLINE
  5
239B
  8
0
  6
CONTINUOUS
 66
     1
 10
0.0
 20
0.0
 30
0.0
  0
VERTEX
  5
2671
  8
0
  6
CONTINUOUS
 10
-6.9322113735950941
 20
10.174745893216979
 30
0.0
  0
VERTEX
  5
2672
  8
0
  6
CONTINUOUS
 10
-6.9317487466950922
 20
10.16171911431698
 30
0.0
  0
VERTEX
  5
2673
  8
0
  6
CONTINUOUS
 10
-6.9280477317950933
 20
10.13650707511699
 30
0.0
  0
VERTEX
  5
2674
  8
0
  6
CONTINUOUS
 10
-6.9204013581950932
 20
10.112192112116981
 30
0.0
  0
VERTEX
  5
2675
  8
0
  6
CONTINUOUS
 10
-6.9090539696950941
 20
10.08871866761698
 30
0.0
  0
VERTEX
  5
2676
  8
0
  6
CONTINUOUS
 10
-6.8947385976950946
 20
10.06760310571698
 30
0.0
  0
VERTEX
  5
2677
  8
0
  6
CONTINUOUS
 10
-6.8772592935950954
 20
10.04900109561698
 30
0.0
  0
VERTEX
  5
2678
  8
0
  6
CONTINUOUS
 10
-6.856812006095093
 20
10.032756968016979
 30
0.0
  0
VERTEX
  5
2679
  8
0
  6
CONTINUOUS
 10
-6.8347176118950941
 20
10.01992007941698
 30
0.0
  0
VERTEX
  5
267A
  8
0
  6
CONTINUOUS
 10
-6.8114164034950937
 20
10.01084021541698
 30
0.0
  0
VERTEX
  5
267B
  8
0
  6
CONTINUOUS
 10
-6.7864680884950914
 20
10.005167590416979
 30
0.0
  0
VERTEX
  5
267C
  8
0
  6
CONTINUOUS
 10
-6.7598726669950926
 20
10.00290220441698
 30
0.0
  0
SEQEND
  5
267D
  8
0
  6
CONTINUOUS
  0
POLYLINE
  5
239C
  8
0
  6
CONTINUOUS
 66
     1
 10
0.0
 20
0.0
 30
0.0
  0
VERTEX
  5
267E
  8
0
  6
CONTINUOUS
 10
19.24012733300491
 20
7.1461770476169866
 30
0.0
  0
VERTEX
  5
267F
  8
0
  6
CONTINUOUS
 10
19.255816634204901
 20
7.1478019493169809
 30
0.0
  0
VERTEX
  5
2680
  8
0
  6
CONTINUOUS
 10
19.270219521304909
 20
7.1516465080169844
 30
0.0
  0
VERTEX
  5
2681
  8
0
  6
CONTINUOUS
 10
19.28333599450491
 20
7.157710723816983
 30
0.0
  0
VERTEX
  5
2682
  8
0
  6
CONTINUOUS
 10
19.295479960404901
 20
7.1663073090169851
 30
0.0
  0
VERTEX
  5
2683
  8
0
  6
CONTINUOUS
 10
19.306337512404909
 20
7.1771235512169831
 30
0.0
  0
VERTEX
  5
2684
  8
0
  6
CONTINUOUS
 10
19.31496693000491
 20
7.1892213129169837
 30
0.0
  0
VERTEX
  5
2685
  8
0
  6
CONTINUOUS
 10
19.321169204204899
 20
7.2027150550169843
 30
0.0
  0
VERTEX
  5
2686
  8
0
  6
CONTINUOUS
 10
19.3251433440049
 20
7.2174903166169813
 30
0.0
  0
VERTEX
  5
2687
  8
0
  6
CONTINUOUS
 10
19.3265446559049
 20
7.2322655783169827
 30
0.0
  0
SEQEND
  5
2688
  8
0
  6
CONTINUOUS
  0
POLYLINE
  5
239D
  8
0
  6
CONTINUOUS
 66
     1
 10
0.0
 20
0.0
 30
0.0
  0
VERTEX
  5
2689
  8
0
  6
CONTINUOUS
 10
19.24012733300491
 20
7.1736255169169851
 30
0.0
  0
VERTEX
  5
268A
  8
0
  6
CONTINUOUS
 10
19.255816634204901
 20
7.1752504186169856
 30
0.0
  0
VERTEX
  5
268B
  8
0
  6
CONTINUOUS
 10
19.270219521304909
 20
7.1790949773169821
 30
0.0
  0
VERTEX
  5
268C
  8
0
  6
CONTINUOUS
 10
19.28333599450491
 20
7.185159193016986
 30
0.0
  0
VERTEX
  5
268D
  8
0
  6
CONTINUOUS
 10
19.295479960404901
 20
7.1937557782169854
 30
0.0
  0
VERTEX
  5
268E
  8
0
  6
CONTINUOUS
 10
19.306337512404909
 20
7.2045720204169816
 30
0.0
  0
VERTEX
  5
268F
  8
0
  6
CONTINUOUS
 10
19.31496693000491
 20
7.2166697822169823
 30
0.0
  0
VERTEX
  5
2690
  8
0
  6
CONTINUOUS
 10
19.321169204204899
 20
7.2301635242169828
 30
0.0
  0
VERTEX
  5
2691
  8
0
  6
CONTINUOUS
 10
19.3251433440049
 20
7.244938785916986
 30
0.0
  0
SEQEND
  5
2692
  8
0
  6
CONTINUOUS
  0
POLYLINE
  5
239E
  8
0
  6
CONTINUOUS
 66
     1
 10
0.0
 20
0.0
 30
0.0
  0
VERTEX
  5
2693
  8
0
  6
CONTINUOUS
 10
19.24012733300491
 20
7.3183541089169806
 30
0.0
  0
VERTEX
  5
2694
  8
0
  6
CONTINUOUS
 10
19.22443803190491
 20
7.3167292072169801
 30
0.0
  0
VERTEX
  5
2695
  8
0
  6
CONTINUOUS
 10
19.210035144804898
 20
7.3128846485169801
 30
0.0
  0
VERTEX
  5
2696
  8
0
  6
CONTINUOUS
 10
19.196918671604902
 20
7.3068204328169841
 30
0.0
  0
VERTEX
  5
2697
  8
0
  6
CONTINUOUS
 10
19.1847747057049
 20
7.2982238476169838
 30
0.0
  0
VERTEX
  5
2698
  8
0
  6
CONTINUOUS
 10
19.173917153704899
 20
7.2874076054169841
 30
0.0
  0
VERTEX
  5
2699
  8
0
  6
CONTINUOUS
 10
19.165287736104901
 20
7.2753098436169843
 30
0.0
  0
VERTEX
  5
269A
  8
0
  6
CONTINUOUS
 10
19.159085461904908
 20
7.2618161015169838
 30
0.0
  0
VERTEX
  5
269B
  8
0
  6
CONTINUOUS
 10
19.155111322104911
 20
7.2470408399169797
 30
0.0
  0
VERTEX
  5
269C
  8
0
  6
CONTINUOUS
 10
19.1537100102049
 20
7.2322655783169827
 30
0.0
  0
SEQEND
  5
269D
  8
0
  6
CONTINUOUS
  0
POLYLINE
  5
239F
  8
0
  6
CONTINUOUS
 66
     1
 10
0.0
 20
0.0
 30
0.0
  0
VERTEX
  5
269E
  8
0
  6
CONTINUOUS
 10
-31.233553819395091
 20
20.221409972716991
 30
0.0
  0
VERTEX
  5
269F
  8
0
  6
CONTINUOUS
 10
-31.241712499695101
 20
20.225501803816979
 30
0.0
  0
VERTEX
  5
26A0
  8
0
  6
CONTINUOUS
 10
-31.255772008495089
 20
20.234683212616989
 30
0.0
  0
VERTEX
  5
26A1
  8
0
  6
CONTINUOUS
 10
-31.2696491029951
 20
20.245888656716989
 30
0.0
  0
VERTEX
  5
26A2
  8
0
  6
CONTINUOUS
 10
-31.282789820595099
 20
20.258796483116988
 30
0.0
  0
VERTEX
  5
26A3
  8
0
  6
CONTINUOUS
 10
-31.29512007319509
 20
20.273474696716981
 30
0.0
  0
VERTEX
  5
26A4
  8
0
  6
CONTINUOUS
 10
-31.306713948795089
 20
20.289855292616981
 30
0.0
  0
VERTEX
  5
26A5
  8
0
  6
CONTINUOUS
 10
-31.317239748695101
 20
20.30741260351699
 30
0.0
  0
VERTEX
  5
26A6
  8
0
  6
CONTINUOUS
 10
-31.326586906595089
 20
20.32597140681699
 30
0.0
  0
VERTEX
  5
26A7
  8
0
  6
CONTINUOUS
 10
-31.334865988695089
 20
20.345706925116989
 30
0.0
  0
SEQEND
  5
26A8
  8
0
  6
CONTINUOUS
  0
POLYLINE
  5
23A0
  8
0
  6
CONTINUOUS
 66
     1
 10
0.0
 20
0.0
 30
0.0
  0
VERTEX
  5
26A9
  8
0
  6
CONTINUOUS
 10
-31.213311804395101
 20
20.131435683016988
 30
0.0
  0
VERTEX
  5
26AA
  8
0
  6
CONTINUOUS
 10
-31.17551782359509
 20
20.112003612616991
 30
0.0
  0
VERTEX
  5
26AB
  8
0
  6
CONTINUOUS
 10
-31.174032084895099
 20
20.111509784316979
 30
0.0
  0
SEQEND
  5
26AC
  8
0
  6
CONTINUOUS
  0
POLYLINE
  5
23A1
  8
0
  6
CONTINUOUS
 66
     1
 10
0.0
 20
0.0
 30
0.0
  0
VERTEX
  5
26AD
  8
0
  6
CONTINUOUS
 10
-6.5875339602950929
 20
10.174745893216979
 30
0.0
  0
VERTEX
  5
26AE
  8
0
  6
CONTINUOUS
 10
-6.5879965871950921
 20
10.18777267211698
 30
0.0
  0
VERTEX
  5
26AF
  8
0
  6
CONTINUOUS
 10
-6.5916976020950946
 20
10.212984711416979
 30
0.0
  0
VERTEX
  5
26B0
  8
0
  6
CONTINUOUS
 10
-6.599343975695092
 20
10.237299674416979
 30
0.0
  0
VERTEX
  5
26B1
  8
0
  6
CONTINUOUS
 10
-6.6106913641950937
 20
10.26077311881698
 30
0.0
  0
VERTEX
  5
26B2
  8
0
  6
CONTINUOUS
 10
-6.6250067361950933
 20
10.28188868071698
 30
0.0
  0
VERTEX
  5
26B3
  8
0
  6
CONTINUOUS
 10
-6.6424860402950934
 20
10.300490690916989
 30
0.0
  0
VERTEX
  5
26B4
  8
0
  6
CONTINUOUS
 10
-6.662933327795094
 20
10.316734818516981
 30
0.0
  0
VERTEX
  5
26B5
  8
0
  6
CONTINUOUS
 10
-6.6850277219950938
 20
10.32957170701698
 30
0.0
  0
VERTEX
  5
26B6
  8
0
  6
CONTINUOUS
 10
-6.7083289303950941
 20
10.33865157111698
 30
0.0
  0
VERTEX
  5
26B7
  8
0
  6
CONTINUOUS
 10
-6.7332772453950929
 20
10.344324196116981
 30
0.0
  0
VERTEX
  5
26B8
  8
0
  6
CONTINUOUS
 10
-6.7598726669950926
 20
10.34658958211698
 30
0.0
  0
SEQEND
  5
26B9
  8
0
  6
CONTINUOUS
  0
POLYLINE
  5
23A2
  8
0
  6
CONTINUOUS
 66
     1
 10
0.0
 20
0.0
 30
0.0
  0
VERTEX
  5
26BA
  8
0
  6
CONTINUOUS
 10
-4.386336326395095
 20
19.647139172316969
 30
0.0
  0
VERTEX
  5
26BB
  8
0
  6
CONTINUOUS
 10
-4.381547525095093
 20
19.708887541416981
 30
0.0
  0
VERTEX
  5
26BC
  8
0
  6
CONTINUOUS
 10
-4.370511745395091
 20
19.767322868916981
 30
0.0
  0
VERTEX
  5
26BD
  8
0
  6
CONTINUOUS
 10
-4.3532289871950951
 20
19.822445154916981
 30
0.0
  0
VERTEX
  5
26BE
  8
0
  6
CONTINUOUS
 10
-4.3287036182950942
 20
19.874958399116981
 30
0.0
  0
VERTEX
  5
26BF
  8
0
  6
CONTINUOUS
 10
-4.2979312709950932
 20
19.924158601716979
 30
0.0
  0
VERTEX
  5
26C0
  8
0
  6
CONTINUOUS
 10
-4.2638988417950934
 20
19.96793376341699
 30
0.0
  0
VERTEX
  5
26C1
  8
0
  6
CONTINUOUS
 10
-4.226745871295094
 20
20.005473315316991
 30
0.0
  0
VERTEX
  5
26C2
  8
0
  6
CONTINUOUS
 10
-4.186332818895095
 20
20.037587826416988
 30
0.0
  0
VERTEX
  5
26C3
  8
0
  6
CONTINUOUS
 10
-4.1452279597950934
 20
20.06459700391699
 30
0.0
  0
VERTEX
  5
26C4
  8
0
  6
CONTINUOUS
 10
-4.1038282173950931
 20
20.08623901641699
 30
0.0
  0
VERTEX
  5
26C5
  8
0
  6
CONTINUOUS
 10
-4.061736668195091
 20
20.102775695316978
 30
0.0
  0
VERTEX
  5
26C6
  8
0
  6
CONTINUOUS
 10
-4.0203308164950933
 20
20.11531224201698
 30
0.0
  0
VERTEX
  5
26C7
  8
0
  6
CONTINUOUS
 10
-3.980069830295093
 20
20.124217056816988
 30
0.0
  0
VERTEX
  5
26C8
  8
0
  6
CONTINUOUS
 10
-3.9404945415950929
 20
20.129121739416981
 30
0.0
  0
VERTEX
  5
26C9
  8
0
  6
CONTINUOUS
 10
-3.9016049503950931
 20
20.130026289616978
 30
0.0
  0
SEQEND
  5
26CA
  8
0
  6
CONTINUOUS
  0
POLYLINE
  5
23A3
  8
0
  6
CONTINUOUS
 66
     1
 10
0.0
 20
0.0
 30
0.0
  0
VERTEX
  5
26CB
  8
0
  6
CONTINUOUS
 10
15.990127333004899
 20
7.5860124406169831
 30
0.0
  0
VERTEX
  5
26CC
  8
0
  6
CONTINUOUS
 10
16.016722754604899
 20
7.5882778266169799
 30
0.0
  0
VERTEX
  5
26CD
  8
0
  6
CONTINUOUS
 10
16.041671069604909
 20
7.5939504516169833
 30
0.0
  0
VERTEX
  5
26CE
  8
0
  6
CONTINUOUS
 10
16.064972278004898
 20
7.6030303157169854
 30
0.0
  0
VERTEX
  5
26CF
  8
0
  6
CONTINUOUS
 10
16.087066672204902
 20
7.6158672042169817
 30
0.0
  0
VERTEX
  5
26D0
  8
0
  6
CONTINUOUS
 10
16.1075139597049
 20
7.632111331816982
 30
0.0
  0
VERTEX
  5
26D1
  8
0
  6
CONTINUOUS
 10
16.12499326380491
 20
7.6507133419169833
 30
0.0
  0
VERTEX
  5
26D2
  8
0
  6
CONTINUOUS
 10
16.139308635804909
 20
7.6718289038169827
 30
0.0
  0
VERTEX
  5
26D3
  8
0
  6
CONTINUOUS
 10
16.150656024304901
 20
7.6953023483169822
 30
0.0
  0
VERTEX
  5
26D4
  8
0
  6
CONTINUOUS
 10
16.158302397904901
 20
7.7196173113169841
 30
0.0
  0
VERTEX
  5
26D5
  8
0
  6
CONTINUOUS
 10
16.162003412804911
 20
7.744829350616981
 30
0.0
  0
VERTEX
  5
26D6
  8
0
  6
CONTINUOUS
 10
16.16246603970491
 20
7.757856129416985
 30
0.0
  0
SEQEND
  5
26D7
  8
0
  6
CONTINUOUS
  0
POLYLINE
  5
23A4
  8
0
  6
CONTINUOUS
 66
     1
 10
0.0
 20
0.0
 30
0.0
  0
VERTEX
  5
26D8
  8
0
  6
CONTINUOUS
 10
15.990127333004899
 20
7.6134609098169816
 30
0.0
  0
VERTEX
  5
26D9
  8
0
  6
CONTINUOUS
 10
16.016722754604899
 20
7.6157262958169829
 30
0.0
  0
VERTEX
  5
26DA
  8
0
  6
CONTINUOUS
 10
16.041671069604909
 20
7.6213989209169837
 30
0.0
  0
VERTEX
  5
26DB
  8
0
  6
CONTINUOUS
 10
16.064972278004898
 20
7.6304787849169813
 30
0.0
  0
VERTEX
  5
26DC
  8
0
  6
CONTINUOUS
 10
16.087066672204902
 20
7.6433156735169829
 30
0.0
  0
VERTEX
  5
26DD
  8
0
  6
CONTINUOUS
 10
16.1075139597049
 20
7.6595598010169823
 30
0.0
  0
VERTEX
  5
26DE
  8
0
  6
CONTINUOUS
 10
16.12499326380491
 20
7.67816181121698
 30
0.0
  0
VERTEX
  5
26DF
  8
0
  6
CONTINUOUS
 10
16.139308635804909
 20
7.6992773731169839
 30
0.0
  0
VERTEX
  5
26E0
  8
0
  6
CONTINUOUS
 10
16.150656024304901
 20
7.7227508175169852
 30
0.0
  0
VERTEX
  5
26E1
  8
0
  6
CONTINUOUS
 10
16.158302397904901
 20
7.7470657806169809
 30
0.0
  0
VERTEX
  5
26E2
  8
0
  6
CONTINUOUS
 10
16.162003412804911
 20
7.772277819816984
 30
0.0
  0
SEQEND
  5
26E3
  8
0
  6
CONTINUOUS
  0
POLYLINE
  5
23A5
  8
0
  6
CONTINUOUS
 66
     1
 10
0.0
 20
0.0
 30
0.0
  0
VERTEX
  5
26E4
  8
0
  6
CONTINUOUS
 10
15.990127333004899
 20
7.9296998183169833
 30
0.0
  0
VERTEX
  5
26E5
  8
0
  6
CONTINUOUS
 10
15.96353191150491
 20
7.9274344323169821
 30
0.0
  0
VERTEX
  5
26E6
  8
0
  6
CONTINUOUS
 10
15.938583596504911
 20
7.9217618073169831
 30
0.0
  0
VERTEX
  5
26E7
  8
0
  6
CONTINUOUS
 10
15.915282388104901
 20
7.9126819432169837
 30
0.0
  0
VERTEX
  5
26E8
  8
0
  6
CONTINUOUS
 10
15.893187993904901
 20
7.8998450547169803
 30
0.0
  0
VERTEX
  5
26E9
  8
0
  6
CONTINUOUS
 10
15.872740706404899
 20
7.8836009271169827
 30
0.0
  0
VERTEX
  5
26EA
  8
0
  6
CONTINUOUS
 10
15.855261402304899
 20
7.8649989170169832
 30
0.0
  0
VERTEX
  5
26EB
  8
0
  6
CONTINUOUS
 10
15.840946030304901
 20
7.8438833551169864
 30
0.0
  0
VERTEX
  5
26EC
  8
0
  6
CONTINUOUS
 10
15.8295986418049
 20
7.8204099106169842
 30
0.0
  0
VERTEX
  5
26ED
  8
0
  6
CONTINUOUS
 10
15.8219522682049
 20
7.796094947616985
 30
0.0
  0
VERTEX
  5
26EE
  8
0
  6
CONTINUOUS
 10
15.81825125330491
 20
7.7708829083169837
 30
0.0
  0
VERTEX
  5
26EF
  8
0
  6
CONTINUOUS
 10
15.8177886264049
 20
7.757856129416985
 30
0.0
  0
SEQEND
  5
26F0
  8
0
  6
CONTINUOUS
  0
POLYLINE
  5
23A6
  8
0
  6
CONTINUOUS
 66
     1
 10
0.0
 20
0.0
 30
0.0
  0
VERTEX
  5
26F1
  8
0
  6
CONTINUOUS
 10
9.4901273330049065
 20
7.5860124406169831
 30
0.0
  0
VERTEX
  5
26F2
  8
0
  6
CONTINUOUS
 10
9.5167227546049062
 20
7.5882778266169799
 30
0.0
  0
VERTEX
  5
26F3
  8
0
  6
CONTINUOUS
 10
9.5416710696049023
 20
7.5939504516169833
 30
0.0
  0
VERTEX
  5
26F4
  8
0
  6
CONTINUOUS
 10
9.5649722780049018
 20
7.6030303157169854
 30
0.0
  0
VERTEX
  5
26F5
  8
0
  6
CONTINUOUS
 10
9.5870666722049052
 20
7.6158672042169817
 30
0.0
  0
VERTEX
  5
26F6
  8
0
  6
CONTINUOUS
 10
9.6075139597049031
 20
7.632111331816982
 30
0.0
  0
VERTEX
  5
26F7
  8
0
  6
CONTINUOUS
 10
9.6249932638049103
 20
7.6507133419169833
 30
0.0
  0
VERTEX
  5
26F8
  8
0
  6
CONTINUOUS
 10
9.6393086358049072
 20
7.6718289038169827
 30
0.0
  0
VERTEX
  5
26F9
  8
0
  6
CONTINUOUS
 10
9.6506560243049062
 20
7.6953023483169822
 30
0.0
  0
VERTEX
  5
26FA
  8
0
  6
CONTINUOUS
 10
9.6583023979049045
 20
7.7196173113169841
 30
0.0
  0
VERTEX
  5
26FB
  8
0
  6
CONTINUOUS
 10
9.662003412804907
 20
7.744829350616981
 30
0.0
  0
VERTEX
  5
26FC
  8
0
  6
CONTINUOUS
 10
9.6624660397049098
 20
7.757856129416985
 30
0.0
  0
SEQEND
  5
26FD
  8
0
  6
CONTINUOUS
  0
POLYLINE
  5
23A7
  8
0
  6
CONTINUOUS
 66
     1
 10
0.0
 20
0.0
 30
0.0
  0
VERTEX
  5
26FE
  8
0
  6
CONTINUOUS
 10
9.4901273330049065
 20
7.6134609098169816
 30
0.0
  0
VERTEX
  5
26FF
  8
0
  6
CONTINUOUS
 10
9.5167227546049062
 20
7.6157262958169829
 30
0.0
  0
VERTEX
  5
2700
  8
0
  6
CONTINUOUS
 10
9.5416710696049023
 20
7.6213989209169837
 30
0.0
  0
VERTEX
  5
2701
  8
0
  6
CONTINUOUS
 10
9.5649722780049018
 20
7.6304787849169813
 30
0.0
  0
VERTEX
  5
2702
  8
0
  6
CONTINUOUS
 10
9.5870666722049052
 20
7.6433156735169829
 30
0.0
  0
VERTEX
  5
2703
  8
0
  6
CONTINUOUS
 10
9.6075139597049031
 20
7.6595598010169823
 30
0.0
  0
VERTEX
  5
2704
  8
0
  6
CONTINUOUS
 10
9.6249932638049103
 20
7.67816181121698
 30
0.0
  0
VERTEX
  5
2705
  8
0
  6
CONTINUOUS
 10
9.6393086358049072
 20
7.6992773731169839
 30
0.0
  0
VERTEX
  5
2706
  8
0
  6
CONTINUOUS
 10
9.6506560243049062
 20
7.7227508175169852
 30
0.0
  0
VERTEX
  5
2707
  8
0
  6
CONTINUOUS
 10
9.6583023979049045
 20
7.7470657806169809
 30
0.0
  0
VERTEX
  5
2708
  8
0
  6
CONTINUOUS
 10
9.662003412804907
 20
7.772277819816984
 30
0.0
  0
SEQEND
  5
2709
  8
0
  6
CONTINUOUS
  0
POLYLINE
  5
23A8
  8
0
  6
CONTINUOUS
 66
     1
 10
0.0
 20
0.0
 30
0.0
  0
VERTEX
  5
270A
  8
0
  6
CONTINUOUS
 10
9.4901273330049065
 20
7.9296998183169833
 30
0.0
  0
VERTEX
  5
270B
  8
0
  6
CONTINUOUS
 10
9.4635319115049015
 20
7.9274344323169821
 30
0.0
  0
VERTEX
  5
270C
  8
0
  6
CONTINUOUS
 10
9.4385835965049054
 20
7.9217618073169831
 30
0.0
  0
VERTEX
  5
270D
  8
0
  6
CONTINUOUS
 10
9.4152823881049041
 20
7.9126819432169837
 30
0.0
  0
VERTEX
  5
270E
  8
0
  6
CONTINUOUS
 10
9.3931879939049026
 20
7.8998450547169803
 30
0.0
  0
VERTEX
  5
270F
  8
0
  6
CONTINUOUS
 10
9.3727407064049046
 20
7.8836009271169827
 30
0.0
  0
VERTEX
  5
2710
  8
0
  6
CONTINUOUS
 10
9.3552614023049045
 20
7.8649989170169832
 30
0.0
  0
VERTEX
  5
2711
  8
0
  6
CONTINUOUS
 10
9.3409460303049041
 20
7.8438833551169864
 30
0.0
  0
VERTEX
  5
2712
  8
0
  6
CONTINUOUS
 10
9.3295986418049068
 20
7.8204099106169842
 30
0.0
  0
VERTEX
  5
2713
  8
0
  6
CONTINUOUS
 10
9.3219522682049103
 20
7.796094947616985
 30
0.0
  0
VERTEX
  5
2714
  8
0
  6
CONTINUOUS
 10
9.3182512533049078
 20
7.7708829083169837
 30
0.0
  0
VERTEX
  5
2715
  8
0
  6
CONTINUOUS
 10
9.317788626404905
 20
7.757856129416985
 30
0.0
  0
SEQEND
  5
2716
  8
0
  6
CONTINUOUS
  0
POLYLINE
  5
23A9
  8
0
  6
CONTINUOUS
 66
     1
 10
0.0
 20
0.0
 30
0.0
  0
VERTEX
  5
2717
  8
0
  6
CONTINUOUS
 10
2.9901273330049061
 20
7.5860124406169831
 30
0.0
  0
VERTEX
  5
2718
  8
0
  6
CONTINUOUS
 10
3.0167227546049058
 20
7.5882778266169799
 30
0.0
  0
VERTEX
  5
2719
  8
0
  6
CONTINUOUS
 10
3.0416710696049019
 20
7.5939504516169833
 30
0.0
  0
VERTEX
  5
271A
  8
0
  6
CONTINUOUS
 10
3.064972278004908
 20
7.6030303157169854
 30
0.0
  0
VERTEX
  5
271B
  8
0
  6
CONTINUOUS
 10
3.0870666722049052
 20
7.6158672042169817
 30
0.0
  0
VERTEX
  5
271C
  8
0
  6
CONTINUOUS
 10
3.1075139597049031
 20
7.632111331816982
 30
0.0
  0
VERTEX
  5
271D
  8
0
  6
CONTINUOUS
 10
3.1249932638049098
 20
7.6507133419169833
 30
0.0
  0
VERTEX
  5
271E
  8
0
  6
CONTINUOUS
 10
3.139308635804908
 20
7.6718289038169827
 30
0.0
  0
VERTEX
  5
271F
  8
0
  6
CONTINUOUS
 10
3.1506560243049071
 20
7.6953023483169822
 30
0.0
  0
VERTEX
  5
2720
  8
0
  6
CONTINUOUS
 10
3.1583023979049041
 20
7.7196173113169841
 30
0.0
  0
VERTEX
  5
2721
  8
0
  6
CONTINUOUS
 10
3.162003412804907
 20
7.744829350616981
 30
0.0
  0
VERTEX
  5
2722
  8
0
  6
CONTINUOUS
 10
3.1624660397049018
 20
7.757856129416985
 30
0.0
  0
SEQEND
  5
2723
  8
0
  6
CONTINUOUS
  0
POLYLINE
  5
23AA
  8
0
  6
CONTINUOUS
 66
     1
 10
0.0
 20
0.0
 30
0.0
  0
VERTEX
  5
2724
  8
0
  6
CONTINUOUS
 10
2.9901273330049061
 20
7.6134609098169816
 30
0.0
  0
VERTEX
  5
2725
  8
0
  6
CONTINUOUS
 10
3.0167227546049058
 20
7.6157262958169829
 30
0.0
  0
VERTEX
  5
2726
  8
0
  6
CONTINUOUS
 10
3.0416710696049019
 20
7.6213989209169837
 30
0.0
  0
VERTEX
  5
2727
  8
0
  6
CONTINUOUS
 10
3.064972278004908
 20
7.6304787849169813
 30
0.0
  0
VERTEX
  5
2728
  8
0
  6
CONTINUOUS
 10
3.0870666722049052
 20
7.6433156735169829
 30
0.0
  0
VERTEX
  5
2729
  8
0
  6
CONTINUOUS
 10
3.1075139597049031
 20
7.6595598010169823
 30
0.0
  0
VERTEX
  5
272A
  8
0
  6
CONTINUOUS
 10
3.1249932638049098
 20
7.67816181121698
 30
0.0
  0
VERTEX
  5
272B
  8
0
  6
CONTINUOUS
 10
3.139308635804908
 20
7.6992773731169839
 30
0.0
  0
VERTEX
  5
272C
  8
0
  6
CONTINUOUS
 10
3.1506560243049071
 20
7.7227508175169852
 30
0.0
  0
VERTEX
  5
272D
  8
0
  6
CONTINUOUS
 10
3.1583023979049041
 20
7.7470657806169809
 30
0.0
  0
VERTEX
  5
272E
  8
0
  6
CONTINUOUS
 10
3.162003412804907
 20
7.772277819816984
 30
0.0
  0
SEQEND
  5
272F
  8
0
  6
CONTINUOUS
  0
POLYLINE
  5
23AB
  8
0
  6
CONTINUOUS
 66
     1
 10
0.0
 20
0.0
 30
0.0
  0
VERTEX
  5
2730
  8
0
  6
CONTINUOUS
 10
2.9901273330049061
 20
7.9296998183169833
 30
0.0
  0
VERTEX
  5
2731
  8
0
  6
CONTINUOUS
 10
2.963531911504901
 20
7.9274344323169821
 30
0.0
  0
VERTEX
  5
2732
  8
0
  6
CONTINUOUS
 10
2.938583596504905
 20
7.9217618073169831
 30
0.0
  0
VERTEX
  5
2733
  8
0
  6
CONTINUOUS
 10
2.915282388104905
 20
7.9126819432169837
 30
0.0
  0
VERTEX
  5
2734
  8
0
  6
CONTINUOUS
 10
2.8931879939049021
 20
7.8998450547169803
 30
0.0
  0
VERTEX
  5
2735
  8
0
  6
CONTINUOUS
 10
2.8727407064049042
 20
7.8836009271169827
 30
0.0
  0
VERTEX
  5
2736
  8
0
  6
CONTINUOUS
 10
2.8552614023049041
 20
7.8649989170169832
 30
0.0
  0
VERTEX
  5
2737
  8
0
  6
CONTINUOUS
 10
2.840946030304905
 20
7.8438833551169864
 30
0.0
  0
VERTEX
  5
2738
  8
0
  6
CONTINUOUS
 10
2.8295986418049059
 20
7.8204099106169842
 30
0.0
  0
VERTEX
  5
2739
  8
0
  6
CONTINUOUS
 10
2.8219522682049099
 20
7.796094947616985
 30
0.0
  0
VERTEX
  5
273A
  8
0
  6
CONTINUOUS
 10
2.8182512533049069
 20
7.7708829083169837
 30
0.0
  0
VERTEX
  5
273B
  8
0
  6
CONTINUOUS
 10
2.817788626404905
 20
7.757856129416985
 30
0.0
  0
SEQEND
  5
273C
  8
0
  6
CONTINUOUS
  0
POLYLINE
  5
23AC
  8
0
  6
CONTINUOUS
 66
     1
 10
0.0
 20
0.0
 30
0.0
  0
VERTEX
  5
273D
  8
0
  6
CONTINUOUS
 10
-3.509872666995093
 20
7.5860124406169831
 30
0.0
  0
VERTEX
  5
273E
  8
0
  6
CONTINUOUS
 10
-3.4832772453950929
 20
7.5882778266169799
 30
0.0
  0
VERTEX
  5
273F
  8
0
  6
CONTINUOUS
 10
-3.4583289303950941
 20
7.5939504516169833
 30
0.0
  0
VERTEX
  5
2740
  8
0
  6
CONTINUOUS
 10
-3.4350277219950911
 20
7.6030303157169854
 30
0.0
  0
VERTEX
  5
2741
  8
0
  6
CONTINUOUS
 10
-3.412933327795094
 20
7.6158672042169817
 30
0.0
  0
VERTEX
  5
2742
  8
0
  6
CONTINUOUS
 10
-3.3924860402950929
 20
7.632111331816982
 30
0.0
  0
VERTEX
  5
2743
  8
0
  6
CONTINUOUS
 10
-3.3750067361950928
 20
7.6507133419169833
 30
0.0
  0
VERTEX
  5
2744
  8
0
  6
CONTINUOUS
 10
-3.3606913641950911
 20
7.6718289038169827
 30
0.0
  0
VERTEX
  5
2745
  8
0
  6
CONTINUOUS
 10
-3.349343975695092
 20
7.6953023483169822
 30
0.0
  0
VERTEX
  5
2746
  8
0
  6
CONTINUOUS
 10
-3.341697602095095
 20
7.7196173113169841
 30
0.0
  0
VERTEX
  5
2747
  8
0
  6
CONTINUOUS
 10
-3.3379965871950921
 20
7.744829350616981
 30
0.0
  0
VERTEX
  5
2748
  8
0
  6
CONTINUOUS
 10
-3.3375339602950929
 20
7.757856129416985
 30
0.0
  0
SEQEND
  5
2749
  8
0
  6
CONTINUOUS
  0
POLYLINE
  5
23AD
  8
0
  6
CONTINUOUS
 66
     1
 10
0.0
 20
0.0
 30
0.0
  0
VERTEX
  5
274A
  8
0
  6
CONTINUOUS
 10
-3.509872666995093
 20
7.6134609098169816
 30
0.0
  0
VERTEX
  5
274B
  8
0
  6
CONTINUOUS
 10
-3.4832772453950929
 20
7.6157262958169829
 30
0.0
  0
VERTEX
  5
274C
  8
0
  6
CONTINUOUS
 10
-3.4583289303950941
 20
7.6213989209169837
 30
0.0
  0
VERTEX
  5
274D
  8
0
  6
CONTINUOUS
 10
-3.4350277219950911
 20
7.6304787849169813
 30
0.0
  0
VERTEX
  5
274E
  8
0
  6
CONTINUOUS
 10
-3.412933327795094
 20
7.6433156735169829
 30
0.0
  0
VERTEX
  5
274F
  8
0
  6
CONTINUOUS
 10
-3.3924860402950929
 20
7.6595598010169823
 30
0.0
  0
VERTEX
  5
2750
  8
0
  6
CONTINUOUS
 10
-3.3750067361950928
 20
7.67816181121698
 30
0.0
  0
VERTEX
  5
2751
  8
0
  6
CONTINUOUS
 10
-3.3606913641950911
 20
7.6992773731169839
 30
0.0
  0
VERTEX
  5
2752
  8
0
  6
CONTINUOUS
 10
-3.349343975695092
 20
7.7227508175169852
 30
0.0
  0
VERTEX
  5
2753
  8
0
  6
CONTINUOUS
 10
-3.341697602095095
 20
7.7470657806169809
 30
0.0
  0
VERTEX
  5
2754
  8
0
  6
CONTINUOUS
 10
-3.3379965871950921
 20
7.772277819816984
 30
0.0
  0
SEQEND
  5
2755
  8
0
  6
CONTINUOUS
  0
POLYLINE
  5
23AE
  8
0
  6
CONTINUOUS
 66
     1
 10
0.0
 20
0.0
 30
0.0
  0
VERTEX
  5
2756
  8
0
  6
CONTINUOUS
 10
-6.8947385976950946
 20
10.09505157501698
 30
0.0
  0
VERTEX
  5
2757
  8
0
  6
CONTINUOUS
 10
-6.8772592935950954
 20
10.076449564816979
 30
0.0
  0
VERTEX
  5
2758
  8
0
  6
CONTINUOUS
 10
-6.856812006095093
 20
10.060205437216981
 30
0.0
  0
VERTEX
  5
2759
  8
0
  6
CONTINUOUS
 10
-6.8347176118950941
 20
10.04736854871698
 30
0.0
  0
VERTEX
  5
275A
  8
0
  6
CONTINUOUS
 10
-6.8114164034950937
 20
10.03828868461698
 30
0.0
  0
VERTEX
  5
275B
  8
0
  6
CONTINUOUS
 10
-6.7864680884950914
 20
10.032616059616981
 30
0.0
  0
VERTEX
  5
275C
  8
0
  6
CONTINUOUS
 10
-6.7598726669950926
 20
10.03035067361699
 30
0.0
  0
SEQEND
  5
275D
  8
0
  6
CONTINUOUS
  0
POLYLINE
  5
23AF
  8
0
  6
CONTINUOUS
 66
     1
 10
0.0
 20
0.0
 30
0.0
  0
VERTEX
  5
275E
  8
0
  6
CONTINUOUS
 10
-3.644738597695095
 20
7.67816181121698
 30
0.0
  0
VERTEX
  5
275F
  8
0
  6
CONTINUOUS
 10
-3.6272592935950949
 20
7.6595598010169823
 30
0.0
  0
VERTEX
  5
2760
  8
0
  6
CONTINUOUS
 10
-3.606812006095093
 20
7.6433156735169829
 30
0.0
  0
VERTEX
  5
2761
  8
0
  6
CONTINUOUS
 10
-3.5847176118950941
 20
7.6304787849169813
 30
0.0
  0
VERTEX
  5
2762
  8
0
  6
CONTINUOUS
 10
-3.5614164034950941
 20
7.6213989209169837
 30
0.0
  0
VERTEX
  5
2763
  8
0
  6
CONTINUOUS
 10
-3.5364680884950941
 20
7.6157262958169829
 30
0.0
  0
VERTEX
  5
2764
  8
0
  6
CONTINUOUS
 10
-3.509872666995093
 20
7.6134609098169816
 30
0.0
  0
SEQEND
  5
2765
  8
0
  6
CONTINUOUS
  0
POLYLINE
  5
23B0
  8
0
  6
CONTINUOUS
 66
     1
 10
0.0
 20
0.0
 30
0.0
  0
VERTEX
  5
2766
  8
0
  6
CONTINUOUS
 10
-3.6822113735950941
 20
7.757856129416985
 30
0.0
  0
VERTEX
  5
2767
  8
0
  6
CONTINUOUS
 10
-3.6817487466950918
 20
7.744829350616981
 30
0.0
  0
VERTEX
  5
2768
  8
0
  6
CONTINUOUS
 10
-3.6780477317950928
 20
7.7196173113169841
 30
0.0
  0
VERTEX
  5
2769
  8
0
  6
CONTINUOUS
 10
-3.6704013581950932
 20
7.6953023483169822
 30
0.0
  0
VERTEX
  5
276A
  8
0
  6
CONTINUOUS
 10
-3.6590539696950941
 20
7.6718289038169827
 30
0.0
  0
VERTEX
  5
276B
  8
0
  6
CONTINUOUS
 10
-3.644738597695095
 20
7.6507133419169833
 30
0.0
  0
VERTEX
  5
276C
  8
0
  6
CONTINUOUS
 10
-3.6272592935950949
 20
7.632111331816982
 30
0.0
  0
VERTEX
  5
276D
  8
0
  6
CONTINUOUS
 10
-3.606812006095093
 20
7.6158672042169817
 30
0.0
  0
VERTEX
  5
276E
  8
0
  6
CONTINUOUS
 10
-3.5847176118950941
 20
7.6030303157169854
 30
0.0
  0
VERTEX
  5
276F
  8
0
  6
CONTINUOUS
 10
-3.5614164034950941
 20
7.5939504516169833
 30
0.0
  0
VERTEX
  5
2770
  8
0
  6
CONTINUOUS
 10
-3.5364680884950941
 20
7.5882778266169799
 30
0.0
  0
VERTEX
  5
2771
  8
0
  6
CONTINUOUS
 10
-3.509872666995093
 20
7.5860124406169831
 30
0.0
  0
SEQEND
  5
2772
  8
0
  6
CONTINUOUS
  0
POLYLINE
  5
23B1
  8
0
  6
CONTINUOUS
 66
     1
 10
0.0
 20
0.0
 30
0.0
  0
VERTEX
  5
2773
  8
0
  6
CONTINUOUS
 10
-3.3375339602950929
 20
7.757856129416985
 30
0.0
  0
VERTEX
  5
2774
  8
0
  6
CONTINUOUS
 10
-3.3379965871950921
 20
7.7708829083169837
 30
0.0
  0
VERTEX
  5
2775
  8
0
  6
CONTINUOUS
 10
-3.341697602095095
 20
7.796094947616985
 30
0.0
  0
VERTEX
  5
2776
  8
0
  6
CONTINUOUS
 10
-3.349343975695092
 20
7.8204099106169842
 30
0.0
  0
VERTEX
  5
2777
  8
0
  6
CONTINUOUS
 10
-3.3606913641950911
 20
7.8438833551169864
 30
0.0
  0
VERTEX
  5
2778
  8
0
  6
CONTINUOUS
 10
-3.3750067361950928
 20
7.8649989170169832
 30
0.0
  0
VERTEX
  5
2779
  8
0
  6
CONTINUOUS
 10
-3.3924860402950929
 20
7.8836009271169827
 30
0.0
  0
VERTEX
  5
277A
  8
0
  6
CONTINUOUS
 10
-3.412933327795094
 20
7.8998450547169803
 30
0.0
  0
VERTEX
  5
277B
  8
0
  6
CONTINUOUS
 10
-3.4350277219950911
 20
7.9126819432169837
 30
0.0
  0
VERTEX
  5
277C
  8
0
  6
CONTINUOUS
 10
-3.4583289303950941
 20
7.9217618073169831
 30
0.0
  0
VERTEX
  5
277D
  8
0
  6
CONTINUOUS
 10
-3.4832772453950929
 20
7.9274344323169821
 30
0.0
  0
VERTEX
  5
277E
  8
0
  6
CONTINUOUS
 10
-3.509872666995093
 20
7.9296998183169833
 30
0.0
  0
SEQEND
  5
277F
  8
0
  6
CONTINUOUS
  0
LINE
  5
23B2
  8
0
  6
CONTINUOUS
 10
-4.386336326395095
 20
19.56869859761699
 30
0.0
 11
-4.386336326395095
 21
19.647139172316969
 31
0.0
  0
POLYLINE
  5
23B3
  8
0
  6
CONTINUOUS
 66
     1
 10
0.0
 20
0.0
 30
0.0
  0
VERTEX
  5
2780
  8
0
  6
CONTINUOUS
 10
-3.509872666995093
 20
7.9296998183169833
 30
0.0
  0
VERTEX
  5
2781
  8
0
  6
CONTINUOUS
 10
-3.5364680884950941
 20
7.9274344323169821
 30
0.0
  0
VERTEX
  5
2782
  8
0
  6
CONTINUOUS
 10
-3.5614164034950941
 20
7.9217618073169831
 30
0.0
  0
VERTEX
  5
2783
  8
0
  6
CONTINUOUS
 10
-3.5847176118950941
 20
7.9126819432169837
 30
0.0
  0
VERTEX
  5
2784
  8
0
  6
CONTINUOUS
 10
-3.606812006095093
 20
7.8998450547169803
 30
0.0
  0
VERTEX
  5
2785
  8
0
  6
CONTINUOUS
 10
-3.6272592935950949
 20
7.8836009271169827
 30
0.0
  0
VERTEX
  5
2786
  8
0
  6
CONTINUOUS
 10
-3.644738597695095
 20
7.8649989170169832
 30
0.0
  0
VERTEX
  5
2787
  8
0
  6
CONTINUOUS
 10
-3.6590539696950941
 20
7.8438833551169864
 30
0.0
  0
VERTEX
  5
2788
  8
0
  6
CONTINUOUS
 10
-3.6704013581950932
 20
7.8204099106169842
 30
0.0
  0
VERTEX
  5
2789
  8
0
  6
CONTINUOUS
 10
-3.6780477317950928
 20
7.796094947616985
 30
0.0
  0
VERTEX
  5
278A
  8
0
  6
CONTINUOUS
 10
-3.6817487466950918
 20
7.7708829083169837
 30
0.0
  0
VERTEX
  5
278B
  8
0
  6
CONTINUOUS
 10
-3.6822113735950941
 20
7.757856129416985
 30
0.0
  0
SEQEND
  5
278C
  8
0
  6
CONTINUOUS
  0
POLYLINE
  5
23B4
  8
0
  6
CONTINUOUS
 66
     1
 10
0.0
 20
0.0
 30
0.0
  0
VERTEX
  5
278D
  8
0
  6
CONTINUOUS
 10
19.24012733300491
 20
10.00290220441698
 30
0.0
  0
VERTEX
  5
278E
  8
0
  6
CONTINUOUS
 10
19.266722754604899
 20
10.005167590416979
 30
0.0
  0
VERTEX
  5
278F
  8
0
  6
CONTINUOUS
 10
19.291671069604909
 20
10.01084021541698
 30
0.0
  0
VERTEX
  5
2790
  8
0
  6
CONTINUOUS
 10
19.314972278004898
 20
10.01992007941698
 30
0.0
  0
VERTEX
  5
2791
  8
0
  6
CONTINUOUS
 10
19.337066672204902
 20
10.032756968016979
 30
0.0
  0
VERTEX
  5
2792
  8
0
  6
CONTINUOUS
 10
19.3575139597049
 20
10.04900109561698
 30
0.0
  0
VERTEX
  5
2793
  8
0
  6
CONTINUOUS
 10
19.37499326380491
 20
10.06760310571698
 30
0.0
  0
VERTEX
  5
2794
  8
0
  6
CONTINUOUS
 10
19.389308635804909
 20
10.08871866761698
 30
0.0
  0
VERTEX
  5
2795
  8
0
  6
CONTINUOUS
 10
19.400656024304912
 20
10.112192112116981
 30
0.0
  0
VERTEX
  5
2796
  8
0
  6
CONTINUOUS
 10
19.408302397904901
 20
10.13650707511699
 30
0.0
  0
VERTEX
  5
2797
  8
0
  6
CONTINUOUS
 10
19.412003412804911
 20
10.16171911431698
 30
0.0
  0
VERTEX
  5
2798
  8
0
  6
CONTINUOUS
 10
19.41246603970491
 20
10.174745893216979
 30
0.0
  0
SEQEND
  5
2799
  8
0
  6
CONTINUOUS
  0
POLYLINE
  5
23B5
  8
0
  6
CONTINUOUS
 66
     1
 10
0.0
 20
0.0
 30
0.0
  0
VERTEX
  5
279A
  8
0
  6
CONTINUOUS
 10
19.24012733300491
 20
10.03035067361699
 30
0.0
  0
VERTEX
  5
279B
  8
0
  6
CONTINUOUS
 10
19.266722754604899
 20
10.032616059616981
 30
0.0
  0
VERTEX
  5
279C
  8
0
  6
CONTINUOUS
 10
19.291671069604909
 20
10.03828868461698
 30
0.0
  0
VERTEX
  5
279D
  8
0
  6
CONTINUOUS
 10
19.314972278004898
 20
10.04736854871698
 30
0.0
  0
VERTEX
  5
279E
  8
0
  6
CONTINUOUS
 10
19.337066672204902
 20
10.060205437216981
 30
0.0
  0
VERTEX
  5
279F
  8
0
  6
CONTINUOUS
 10
19.3575139597049
 20
10.076449564816979
 30
0.0
  0
VERTEX
  5
27A0
  8
0
  6
CONTINUOUS
 10
19.37499326380491
 20
10.09505157501698
 30
0.0
  0
VERTEX
  5
27A1
  8
0
  6
CONTINUOUS
 10
19.389308635804909
 20
10.11616713691698
 30
0.0
  0
VERTEX
  5
27A2
  8
0
  6
CONTINUOUS
 10
19.400656024304912
 20
10.13964058131698
 30
0.0
  0
VERTEX
  5
27A3
  8
0
  6
CONTINUOUS
 10
19.408302397904901
 20
10.16395554431698
 30
0.0
  0
VERTEX
  5
27A4
  8
0
  6
CONTINUOUS
 10
19.412003412804911
 20
10.18916758361698
 30
0.0
  0
SEQEND
  5
27A5
  8
0
  6
CONTINUOUS
  0
POLYLINE
  5
23B6
  8
0
  6
CONTINUOUS
 66
     1
 10
0.0
 20
0.0
 30
0.0
  0
VERTEX
  5
27A6
  8
0
  6
CONTINUOUS
 10
-10.00987266699509
 20
7.5860124406169831
 30
0.0
  0
VERTEX
  5
27A7
  8
0
  6
CONTINUOUS
 10
-9.9832772453950938
 20
7.5882778266169799
 30
0.0
  0
VERTEX
  5
27A8
  8
0
  6
CONTINUOUS
 10
-9.9583289303950941
 20
7.5939504516169833
 30
0.0
  0
VERTEX
  5
27A9
  8
0
  6
CONTINUOUS
 10
-9.9350277219950947
 20
7.6030303157169854
 30
0.0
  0
VERTEX
  5
27AA
  8
0
  6
CONTINUOUS
 10
-9.9129333277950948
 20
7.6158672042169817
 30
0.0
  0
VERTEX
  5
27AB
  8
0
  6
CONTINUOUS
 10
-9.8924860402950934
 20
7.632111331816982
 30
0.0
  0
VERTEX
  5
27AC
  8
0
  6
CONTINUOUS
 10
-9.8750067361950933
 20
7.6507133419169833
 30
0.0
  0
VERTEX
  5
27AD
  8
0
  6
CONTINUOUS
 10
-9.8606913641950946
 20
7.6718289038169827
 30
0.0
  0
VERTEX
  5
27AE
  8
0
  6
CONTINUOUS
 10
-9.849343975695092
 20
7.6953023483169822
 30
0.0
  0
VERTEX
  5
27AF
  8
0
  6
CONTINUOUS
 10
-9.8416976020950955
 20
7.7196173113169841
 30
0.0
  0
VERTEX
  5
27B0
  8
0
  6
CONTINUOUS
 10
-9.8379965871950912
 20
7.744829350616981
 30
0.0
  0
VERTEX
  5
27B1
  8
0
  6
CONTINUOUS
 10
-9.8375339602950937
 20
7.757856129416985
 30
0.0
  0
SEQEND
  5
27B2
  8
0
  6
CONTINUOUS
  0
POLYLINE
  5
23B7
  8
0
  6
CONTINUOUS
 66
     1
 10
0.0
 20
0.0
 30
0.0
  0
VERTEX
  5
27B3
  8
0
  6
CONTINUOUS
 10
-10.00987266699509
 20
7.6134609098169816
 30
0.0
  0
VERTEX
  5
27B4
  8
0
  6
CONTINUOUS
 10
-9.9832772453950938
 20
7.6157262958169829
 30
0.0
  0
VERTEX
  5
27B5
  8
0
  6
CONTINUOUS
 10
-9.9583289303950941
 20
7.6213989209169837
 30
0.0
  0
VERTEX
  5
27B6
  8
0
  6
CONTINUOUS
 10
-9.9350277219950947
 20
7.6304787849169813
 30
0.0
  0
VERTEX
  5
27B7
  8
0
  6
CONTINUOUS
 10
-9.9129333277950948
 20
7.6433156735169829
 30
0.0
  0
VERTEX
  5
27B8
  8
0
  6
CONTINUOUS
 10
-9.8924860402950934
 20
7.6595598010169823
 30
0.0
  0
VERTEX
  5
27B9
  8
0
  6
CONTINUOUS
 10
-9.8750067361950933
 20
7.67816181121698
 30
0.0
  0
VERTEX
  5
27BA
  8
0
  6
CONTINUOUS
 10
-9.8606913641950946
 20
7.6992773731169839
 30
0.0
  0
VERTEX
  5
27BB
  8
0
  6
CONTINUOUS
 10
-9.849343975695092
 20
7.7227508175169852
 30
0.0
  0
VERTEX
  5
27BC
  8
0
  6
CONTINUOUS
 10
-9.8416976020950955
 20
7.7470657806169809
 30
0.0
  0
VERTEX
  5
27BD
  8
0
  6
CONTINUOUS
 10
-9.8379965871950912
 20
7.772277819816984
 30
0.0
  0
SEQEND
  5
27BE
  8
0
  6
CONTINUOUS
  0
POLYLINE
  5
23B8
  8
0
  6
CONTINUOUS
 66
     1
 10
0.0
 20
0.0
 30
0.0
  0
VERTEX
  5
27BF
  8
0
  6
CONTINUOUS
 10
19.24012733300491
 20
10.34658958211698
 30
0.0
  0
VERTEX
  5
27C0
  8
0
  6
CONTINUOUS
 10
19.213531911504909
 20
10.344324196116981
 30
0.0
  0
VERTEX
  5
27C1
  8
0
  6
CONTINUOUS
 10
19.188583596504909
 20
10.33865157111698
 30
0.0
  0
VERTEX
  5
27C2
  8
0
  6
CONTINUOUS
 10
19.165282388104899
 20
10.32957170701698
 30
0.0
  0
VERTEX
  5
27C3
  8
0
  6
CONTINUOUS
 10
19.143187993904899
 20
10.316734818516981
 30
0.0
  0
VERTEX
  5
27C4
  8
0
  6
CONTINUOUS
 10
19.122740706404901
 20
10.300490690916989
 30
0.0
  0
VERTEX
  5
27C5
  8
0
  6
CONTINUOUS
 10
19.105261402304901
 20
10.28188868071698
 30
0.0
  0
VERTEX
  5
27C6
  8
0
  6
CONTINUOUS
 10
19.090946030304899
 20
10.26077311881698
 30
0.0
  0
VERTEX
  5
27C7
  8
0
  6
CONTINUOUS
 10
19.0795986418049
 20
10.237299674416979
 30
0.0
  0
VERTEX
  5
27C8
  8
0
  6
CONTINUOUS
 10
19.0719522682049
 20
10.212984711416979
 30
0.0
  0
VERTEX
  5
27C9
  8
0
  6
CONTINUOUS
 10
19.068251253304911
 20
10.18777267211698
 30
0.0
  0
VERTEX
  5
27CA
  8
0
  6
CONTINUOUS
 10
19.067788626404901
 20
10.174745893216979
 30
0.0
  0
SEQEND
  5
27CB
  8
0
  6
CONTINUOUS
  0
POLYLINE
  5
23B9
  8
0
  6
CONTINUOUS
 66
     1
 10
0.0
 20
0.0
 30
0.0
  0
VERTEX
  5
27CC
  8
0
  6
CONTINUOUS
 10
-10.00987266699509
 20
7.9296998183169833
 30
0.0
  0
VERTEX
  5
27CD
  8
0
  6
CONTINUOUS
 10
-10.03646808849509
 20
7.9274344323169821
 30
0.0
  0
VERTEX
  5
27CE
  8
0
  6
CONTINUOUS
 10
-10.061416403495089
 20
7.9217618073169831
 30
0.0
  0
VERTEX
  5
27CF
  8
0
  6
CONTINUOUS
 10
-10.084717611895091
 20
7.9126819432169837
 30
0.0
  0
VERTEX
  5
27D0
  8
0
  6
CONTINUOUS
 10
-10.10681200609509
 20
7.8998450547169803
 30
0.0
  0
VERTEX
  5
27D1
  8
0
  6
CONTINUOUS
 10
-10.12725929359509
 20
7.8836009271169827
 30
0.0
  0
VERTEX
  5
27D2
  8
0
  6
CONTINUOUS
 10
-10.14473859769509
 20
7.8649989170169832
 30
0.0
  0
VERTEX
  5
27D3
  8
0
  6
CONTINUOUS
 10
-10.159053969695091
 20
7.8438833551169864
 30
0.0
  0
VERTEX
  5
27D4
  8
0
  6
CONTINUOUS
 10
-10.17040135819509
 20
7.8204099106169842
 30
0.0
  0
VERTEX
  5
27D5
  8
0
  6
CONTINUOUS
 10
-10.17804773179509
 20
7.796094947616985
 30
0.0
  0
VERTEX
  5
27D6
  8
0
  6
CONTINUOUS
 10
-10.18174874669509
 20
7.7708829083169837
 30
0.0
  0
VERTEX
  5
27D7
  8
0
  6
CONTINUOUS
 10
-10.18221137359509
 20
7.757856129416985
 30
0.0
  0
SEQEND
  5
27D8
  8
0
  6
CONTINUOUS
  0
POLYLINE
  5
23BA
  8
0
  6
CONTINUOUS
 66
     1
 10
0.0
 20
0.0
 30
0.0
  0
VERTEX
  5
27D9
  8
0
  6
CONTINUOUS
 10
12.740127333004899
 20
10.00290220441698
 30
0.0
  0
VERTEX
  5
27DA
  8
0
  6
CONTINUOUS
 10
12.766722754604899
 20
10.005167590416979
 30
0.0
  0
VERTEX
  5
27DB
  8
0
  6
CONTINUOUS
 10
12.791671069604909
 20
10.01084021541698
 30
0.0
  0
VERTEX
  5
27DC
  8
0
  6
CONTINUOUS
 10
12.8149722780049
 20
10.01992007941698
 30
0.0
  0
VERTEX
  5
27DD
  8
0
  6
CONTINUOUS
 10
12.8370666722049
 20
10.032756968016979
 30
0.0
  0
VERTEX
  5
27DE
  8
0
  6
CONTINUOUS
 10
12.8575139597049
 20
10.04900109561698
 30
0.0
  0
VERTEX
  5
27DF
  8
0
  6
CONTINUOUS
 10
12.87499326380491
 20
10.06760310571698
 30
0.0
  0
VERTEX
  5
27E0
  8
0
  6
CONTINUOUS
 10
12.889308635804911
 20
10.08871866761698
 30
0.0
  0
VERTEX
  5
27E1
  8
0
  6
CONTINUOUS
 10
12.90065602430491
 20
10.112192112116981
 30
0.0
  0
VERTEX
  5
27E2
  8
0
  6
CONTINUOUS
 10
12.908302397904899
 20
10.13650707511699
 30
0.0
  0
VERTEX
  5
27E3
  8
0
  6
CONTINUOUS
 10
12.912003412804911
 20
10.16171911431698
 30
0.0
  0
VERTEX
  5
27E4
  8
0
  6
CONTINUOUS
 10
12.91246603970491
 20
10.174745893216979
 30
0.0
  0
SEQEND
  5
27E5
  8
0
  6
CONTINUOUS
  0
POLYLINE
  5
23BB
  8
0
  6
CONTINUOUS
 66
     1
 10
0.0
 20
0.0
 30
0.0
  0
VERTEX
  5
27E6
  8
0
  6
CONTINUOUS
 10
12.740127333004899
 20
10.03035067361699
 30
0.0
  0
VERTEX
  5
27E7
  8
0
  6
CONTINUOUS
 10
12.766722754604899
 20
10.032616059616981
 30
0.0
  0
VERTEX
  5
27E8
  8
0
  6
CONTINUOUS
 10
12.791671069604909
 20
10.03828868461698
 30
0.0
  0
VERTEX
  5
27E9
  8
0
  6
CONTINUOUS
 10
12.8149722780049
 20
10.04736854871698
 30
0.0
  0
VERTEX
  5
27EA
  8
0
  6
CONTINUOUS
 10
12.8370666722049
 20
10.060205437216981
 30
0.0
  0
VERTEX
  5
27EB
  8
0
  6
CONTINUOUS
 10
12.8575139597049
 20
10.076449564816979
 30
0.0
  0
VERTEX
  5
27EC
  8
0
  6
CONTINUOUS
 10
12.87499326380491
 20
10.09505157501698
 30
0.0
  0
VERTEX
  5
27ED
  8
0
  6
CONTINUOUS
 10
12.889308635804911
 20
10.11616713691698
 30
0.0
  0
VERTEX
  5
27EE
  8
0
  6
CONTINUOUS
 10
12.90065602430491
 20
10.13964058131698
 30
0.0
  0
VERTEX
  5
27EF
  8
0
  6
CONTINUOUS
 10
12.908302397904899
 20
10.16395554431698
 30
0.0
  0
VERTEX
  5
27F0
  8
0
  6
CONTINUOUS
 10
12.912003412804911
 20
10.18916758361698
 30
0.0
  0
SEQEND
  5
27F1
  8
0
  6
CONTINUOUS
  0
POLYLINE
  5
23BC
  8
0
  6
CONTINUOUS
 66
     1
 10
0.0
 20
0.0
 30
0.0
  0
VERTEX
  5
27F2
  8
0
  6
CONTINUOUS
 10
-16.50987266699509
 20
7.5860124406169831
 30
0.0
  0
VERTEX
  5
27F3
  8
0
  6
CONTINUOUS
 10
-16.48327724539509
 20
7.5882778266169799
 30
0.0
  0
VERTEX
  5
27F4
  8
0
  6
CONTINUOUS
 10
-16.458328930395091
 20
7.5939504516169833
 30
0.0
  0
VERTEX
  5
27F5
  8
0
  6
CONTINUOUS
 10
-16.435027721995091
 20
7.6030303157169854
 30
0.0
  0
VERTEX
  5
27F6
  8
0
  6
CONTINUOUS
 10
-16.412933327795091
 20
7.6158672042169817
 30
0.0
  0
VERTEX
  5
27F7
  8
0
  6
CONTINUOUS
 10
-16.39248604029509
 20
7.632111331816982
 30
0.0
  0
VERTEX
  5
27F8
  8
0
  6
CONTINUOUS
 10
-16.37500673619509
 20
7.6507133419169833
 30
0.0
  0
VERTEX
  5
27F9
  8
0
  6
CONTINUOUS
 10
-16.360691364195091
 20
7.6718289038169827
 30
0.0
  0
VERTEX
  5
27FA
  8
0
  6
CONTINUOUS
 10
-16.349343975695088
 20
7.6953023483169822
 30
0.0
  0
VERTEX
  5
27FB
  8
0
  6
CONTINUOUS
 10
-16.341697602095088
 20
7.7196173113169841
 30
0.0
  0
VERTEX
  5
27FC
  8
0
  6
CONTINUOUS
 10
-16.337996587195089
 20
7.744829350616981
 30
0.0
  0
VERTEX
  5
27FD
  8
0
  6
CONTINUOUS
 10
-16.33753396029509
 20
7.757856129416985
 30
0.0
  0
SEQEND
  5
27FE
  8
0
  6
CONTINUOUS
  0
POLYLINE
  5
23BD
  8
0
  6
CONTINUOUS
 66
     1
 10
0.0
 20
0.0
 30
0.0
  0
VERTEX
  5
27FF
  8
0
  6
CONTINUOUS
 10
-16.50987266699509
 20
7.6134609098169816
 30
0.0
  0
VERTEX
  5
2800
  8
0
  6
CONTINUOUS
 10
-16.48327724539509
 20
7.6157262958169829
 30
0.0
  0
VERTEX
  5
2801
  8
0
  6
CONTINUOUS
 10
-16.458328930395091
 20
7.6213989209169837
 30
0.0
  0
VERTEX
  5
2802
  8
0
  6
CONTINUOUS
 10
-16.435027721995091
 20
7.6304787849169813
 30
0.0
  0
VERTEX
  5
2803
  8
0
  6
CONTINUOUS
 10
-16.412933327795091
 20
7.6433156735169829
 30
0.0
  0
VERTEX
  5
2804
  8
0
  6
CONTINUOUS
 10
-16.39248604029509
 20
7.6595598010169823
 30
0.0
  0
VERTEX
  5
2805
  8
0
  6
CONTINUOUS
 10
-16.37500673619509
 20
7.67816181121698
 30
0.0
  0
VERTEX
  5
2806
  8
0
  6
CONTINUOUS
 10
-16.360691364195091
 20
7.6992773731169839
 30
0.0
  0
VERTEX
  5
2807
  8
0
  6
CONTINUOUS
 10
-16.349343975695088
 20
7.7227508175169852
 30
0.0
  0
VERTEX
  5
2808
  8
0
  6
CONTINUOUS
 10
-16.341697602095088
 20
7.7470657806169809
 30
0.0
  0
VERTEX
  5
2809
  8
0
  6
CONTINUOUS
 10
-16.337996587195089
 20
7.772277819816984
 30
0.0
  0
SEQEND
  5
280A
  8
0
  6
CONTINUOUS
  0
POLYLINE
  5
23BE
  8
0
  6
CONTINUOUS
 66
     1
 10
0.0
 20
0.0
 30
0.0
  0
VERTEX
  5
280B
  8
0
  6
CONTINUOUS
 10
12.740127333004899
 20
10.34658958211698
 30
0.0
  0
VERTEX
  5
280C
  8
0
  6
CONTINUOUS
 10
12.71353191150491
 20
10.344324196116981
 30
0.0
  0
VERTEX
  5
280D
  8
0
  6
CONTINUOUS
 10
12.688583596504911
 20
10.33865157111698
 30
0.0
  0
VERTEX
  5
280E
  8
0
  6
CONTINUOUS
 10
12.665282388104901
 20
10.32957170701698
 30
0.0
  0
VERTEX
  5
280F
  8
0
  6
CONTINUOUS
 10
12.643187993904901
 20
10.316734818516981
 30
0.0
  0
VERTEX
  5
2810
  8
0
  6
CONTINUOUS
 10
12.622740706404899
 20
10.300490690916989
 30
0.0
  0
VERTEX
  5
2811
  8
0
  6
CONTINUOUS
 10
12.605261402304899
 20
10.28188868071698
 30
0.0
  0
VERTEX
  5
2812
  8
0
  6
CONTINUOUS
 10
12.590946030304901
 20
10.26077311881698
 30
0.0
  0
VERTEX
  5
2813
  8
0
  6
CONTINUOUS
 10
12.5795986418049
 20
10.237299674416979
 30
0.0
  0
VERTEX
  5
2814
  8
0
  6
CONTINUOUS
 10
12.5719522682049
 20
10.212984711416979
 30
0.0
  0
VERTEX
  5
2815
  8
0
  6
CONTINUOUS
 10
12.56825125330491
 20
10.18777267211698
 30
0.0
  0
VERTEX
  5
2816
  8
0
  6
CONTINUOUS
 10
12.5677886264049
 20
10.174745893216979
 30
0.0
  0
SEQEND
  5
2817
  8
0
  6
CONTINUOUS
  0
POLYLINE
  5
23BF
  8
0
  6
CONTINUOUS
 66
     1
 10
0.0
 20
0.0
 30
0.0
  0
VERTEX
  5
2818
  8
0
  6
CONTINUOUS
 10
-16.50987266699509
 20
7.9296998183169833
 30
0.0
  0
VERTEX
  5
2819
  8
0
  6
CONTINUOUS
 10
-16.536468088495091
 20
7.9274344323169821
 30
0.0
  0
VERTEX
  5
281A
  8
0
  6
CONTINUOUS
 10
-16.561416403495091
 20
7.9217618073169831
 30
0.0
  0
VERTEX
  5
281B
  8
0
  6
CONTINUOUS
 10
-16.584717611895091
 20
7.9126819432169837
 30
0.0
  0
VERTEX
  5
281C
  8
0
  6
CONTINUOUS
 10
-16.60681200609509
 20
7.8998450547169803
 30
0.0
  0
VERTEX
  5
281D
  8
0
  6
CONTINUOUS
 10
-16.627259293595088
 20
7.8836009271169827
 30
0.0
  0
VERTEX
  5
281E
  8
0
  6
CONTINUOUS
 10
-16.644738597695088
 20
7.8649989170169832
 30
0.0
  0
VERTEX
  5
281F
  8
0
  6
CONTINUOUS
 10
-16.659053969695091
 20
7.8438833551169864
 30
0.0
  0
VERTEX
  5
2820
  8
0
  6
CONTINUOUS
 10
-16.67040135819509
 20
7.8204099106169842
 30
0.0
  0
VERTEX
  5
2821
  8
0
  6
CONTINUOUS
 10
-16.67804773179509
 20
7.796094947616985
 30
0.0
  0
VERTEX
  5
2822
  8
0
  6
CONTINUOUS
 10
-16.681748746695089
 20
7.7708829083169837
 30
0.0
  0
VERTEX
  5
2823
  8
0
  6
CONTINUOUS
 10
-16.682211373595091
 20
7.757856129416985
 30
0.0
  0
SEQEND
  5
2824
  8
0
  6
CONTINUOUS
  0
POLYLINE
  5
23C0
  8
0
  6
CONTINUOUS
 66
     1
 10
0.0
 20
0.0
 30
0.0
  0
VERTEX
  5
2825
  8
0
  6
CONTINUOUS
 10
6.2401273330049056
 20
10.00290220441698
 30
0.0
  0
VERTEX
  5
2826
  8
0
  6
CONTINUOUS
 10
6.2667227546049062
 20
10.005167590416979
 30
0.0
  0
VERTEX
  5
2827
  8
0
  6
CONTINUOUS
 10
6.2916710696049023
 20
10.01084021541698
 30
0.0
  0
VERTEX
  5
2828
  8
0
  6
CONTINUOUS
 10
6.3149722780049009
 20
10.01992007941698
 30
0.0
  0
VERTEX
  5
2829
  8
0
  6
CONTINUOUS
 10
6.3370666722049052
 20
10.032756968016979
 30
0.0
  0
VERTEX
  5
282A
  8
0
  6
CONTINUOUS
 10
6.3575139597049031
 20
10.04900109561698
 30
0.0
  0
VERTEX
  5
282B
  8
0
  6
CONTINUOUS
 10
6.3749932638049103
 20
10.06760310571698
 30
0.0
  0
VERTEX
  5
282C
  8
0
  6
CONTINUOUS
 10
6.389308635804908
 20
10.08871866761698
 30
0.0
  0
VERTEX
  5
282D
  8
0
  6
CONTINUOUS
 10
6.4006560243049071
 20
10.112192112116981
 30
0.0
  0
VERTEX
  5
282E
  8
0
  6
CONTINUOUS
 10
6.4083023979049036
 20
10.13650707511699
 30
0.0
  0
VERTEX
  5
282F
  8
0
  6
CONTINUOUS
 10
6.412003412804907
 20
10.16171911431698
 30
0.0
  0
VERTEX
  5
2830
  8
0
  6
CONTINUOUS
 10
6.4124660397049089
 20
10.174745893216979
 30
0.0
  0
SEQEND
  5
2831
  8
0
  6
CONTINUOUS
  0
POLYLINE
  5
23C1
  8
0
  6
CONTINUOUS
 66
     1
 10
0.0
 20
0.0
 30
0.0
  0
VERTEX
  5
2832
  8
0
  6
CONTINUOUS
 10
6.2401273330049056
 20
10.03035067361699
 30
0.0
  0
VERTEX
  5
2833
  8
0
  6
CONTINUOUS
 10
6.2667227546049062
 20
10.032616059616981
 30
0.0
  0
VERTEX
  5
2834
  8
0
  6
CONTINUOUS
 10
6.2916710696049023
 20
10.03828868461698
 30
0.0
  0
VERTEX
  5
2835
  8
0
  6
CONTINUOUS
 10
6.3149722780049009
 20
10.04736854871698
 30
0.0
  0
VERTEX
  5
2836
  8
0
  6
CONTINUOUS
 10
6.3370666722049052
 20
10.060205437216981
 30
0.0
  0
VERTEX
  5
2837
  8
0
  6
CONTINUOUS
 10
6.3575139597049031
 20
10.076449564816979
 30
0.0
  0
VERTEX
  5
2838
  8
0
  6
CONTINUOUS
 10
6.3749932638049103
 20
10.09505157501698
 30
0.0
  0
VERTEX
  5
2839
  8
0
  6
CONTINUOUS
 10
6.389308635804908
 20
10.11616713691698
 30
0.0
  0
VERTEX
  5
283A
  8
0
  6
CONTINUOUS
 10
6.4006560243049071
 20
10.13964058131698
 30
0.0
  0
VERTEX
  5
283B
  8
0
  6
CONTINUOUS
 10
6.4083023979049036
 20
10.16395554431698
 30
0.0
  0
VERTEX
  5
283C
  8
0
  6
CONTINUOUS
 10
6.412003412804907
 20
10.18916758361698
 30
0.0
  0
SEQEND
  5
283D
  8
0
  6
CONTINUOUS
  0
POLYLINE
  5
23C2
  8
0
  6
CONTINUOUS
 66
     1
 10
0.0
 20
0.0
 30
0.0
  0
VERTEX
  5
283E
  8
0
  6
CONTINUOUS
 10
6.2401273330049056
 20
10.34658958211698
 30
0.0
  0
VERTEX
  5
283F
  8
0
  6
CONTINUOUS
 10
6.2135319115049006
 20
10.344324196116981
 30
0.0
  0
VERTEX
  5
2840
  8
0
  6
CONTINUOUS
 10
6.1885835965049054
 20
10.33865157111698
 30
0.0
  0
VERTEX
  5
2841
  8
0
  6
CONTINUOUS
 10
6.165282388104905
 20
10.32957170701698
 30
0.0
  0
VERTEX
  5
2842
  8
0
  6
CONTINUOUS
 10
6.1431879939049017
 20
10.316734818516981
 30
0.0
  0
VERTEX
  5
2843
  8
0
  6
CONTINUOUS
 10
6.1227407064049038
 20
10.300490690916989
 30
0.0
  0
VERTEX
  5
2844
  8
0
  6
CONTINUOUS
 10
6.1052614023049037
 20
10.28188868071698
 30
0.0
  0
VERTEX
  5
2845
  8
0
  6
CONTINUOUS
 10
6.090946030304905
 20
10.26077311881698
 30
0.0
  0
VERTEX
  5
2846
  8
0
  6
CONTINUOUS
 10
6.0795986418049059
 20
10.237299674416979
 30
0.0
  0
VERTEX
  5
2847
  8
0
  6
CONTINUOUS
 10
6.0719522682049103
 20
10.212984711416979
 30
0.0
  0
VERTEX
  5
2848
  8
0
  6
CONTINUOUS
 10
6.0682512533049069
 20
10.18777267211698
 30
0.0
  0
VERTEX
  5
2849
  8
0
  6
CONTINUOUS
 10
6.067788626404905
 20
10.174745893216979
 30
0.0
  0
SEQEND
  5
284A
  8
0
  6
CONTINUOUS
  0
POLYLINE
  5
23C3
  8
0
  6
CONTINUOUS
 66
     1
 10
0.0
 20
0.0
 30
0.0
  0
VERTEX
  5
284B
  8
0
  6
CONTINUOUS
 10
-0.2598726669950935
 20
10.00290220441698
 30
0.0
  0
VERTEX
  5
284C
  8
0
  6
CONTINUOUS
 10
-0.2332772453950938
 20
10.005167590416979
 30
0.0
  0
VERTEX
  5
284D
  8
0
  6
CONTINUOUS
 10
-0.2083289303950977
 20
10.01084021541698
 30
0.0
  0
VERTEX
  5
284E
  8
0
  6
CONTINUOUS
 10
-0.1850277219950911
 20
10.01992007941698
 30
0.0
  0
VERTEX
  5
284F
  8
0
  6
CONTINUOUS
 10
-0.1629333277950948
 20
10.032756968016979
 30
0.0
  0
VERTEX
  5
2850
  8
0
  6
CONTINUOUS
 10
-0.1424860402950969
 20
10.04900109561698
 30
0.0
  0
VERTEX
  5
2851
  8
0
  6
CONTINUOUS
 10
-0.1250067361950897
 20
10.06760310571698
 30
0.0
  0
VERTEX
  5
2852
  8
0
  6
CONTINUOUS
 10
-0.1106913641950911
 20
10.08871866761698
 30
0.0
  0
VERTEX
  5
2853
  8
0
  6
CONTINUOUS
 10
-0.099343975695092
 20
10.112192112116981
 30
0.0
  0
VERTEX
  5
2854
  8
0
  6
CONTINUOUS
 10
-0.0916976020950955
 20
10.13650707511699
 30
0.0
  0
VERTEX
  5
2855
  8
0
  6
CONTINUOUS
 10
-0.087996587195093
 20
10.16171911431698
 30
0.0
  0
VERTEX
  5
2856
  8
0
  6
CONTINUOUS
 10
-0.0875339602950973
 20
10.174745893216979
 30
0.0
  0
SEQEND
  5
2857
  8
0
  6
CONTINUOUS
  0
POLYLINE
  5
23C4
  8
0
  6
CONTINUOUS
 66
     1
 10
0.0
 20
0.0
 30
0.0
  0
VERTEX
  5
2858
  8
0
  6
CONTINUOUS
 10
-0.2598726669950935
 20
10.03035067361699
 30
0.0
  0
VERTEX
  5
2859
  8
0
  6
CONTINUOUS
 10
-0.2332772453950938
 20
10.032616059616981
 30
0.0
  0
VERTEX
  5
285A
  8
0
  6
CONTINUOUS
 10
-0.2083289303950977
 20
10.03828868461698
 30
0.0
  0
VERTEX
  5
285B
  8
0
  6
CONTINUOUS
 10
-0.1850277219950911
 20
10.04736854871698
 30
0.0
  0
VERTEX
  5
285C
  8
0
  6
CONTINUOUS
 10
-0.1629333277950948
 20
10.060205437216981
 30
0.0
  0
VERTEX
  5
285D
  8
0
  6
CONTINUOUS
 10
-0.1424860402950969
 20
10.076449564816979
 30
0.0
  0
VERTEX
  5
285E
  8
0
  6
CONTINUOUS
 10
-0.1250067361950897
 20
10.09505157501698
 30
0.0
  0
VERTEX
  5
285F
  8
0
  6
CONTINUOUS
 10
-0.1106913641950911
 20
10.11616713691698
 30
0.0
  0
VERTEX
  5
2860
  8
0
  6
CONTINUOUS
 10
-0.099343975695092
 20
10.13964058131698
 30
0.0
  0
VERTEX
  5
2861
  8
0
  6
CONTINUOUS
 10
-0.0916976020950955
 20
10.16395554431698
 30
0.0
  0
VERTEX
  5
2862
  8
0
  6
CONTINUOUS
 10
-0.087996587195093
 20
10.18916758361698
 30
0.0
  0
SEQEND
  5
2863
  8
0
  6
CONTINUOUS
  0
POLYLINE
  5
23C5
  8
0
  6
CONTINUOUS
 66
     1
 10
0.0
 20
0.0
 30
0.0
  0
VERTEX
  5
2864
  8
0
  6
CONTINUOUS
 10
-0.2598726669950935
 20
10.34658958211698
 30
0.0
  0
VERTEX
  5
2865
  8
0
  6
CONTINUOUS
 10
-0.2864680884950985
 20
10.344324196116981
 30
0.0
  0
VERTEX
  5
2866
  8
0
  6
CONTINUOUS
 10
-0.3114164034950946
 20
10.33865157111698
 30
0.0
  0
VERTEX
  5
2867
  8
0
  6
CONTINUOUS
 10
-0.3347176118950941
 20
10.32957170701698
 30
0.0
  0
VERTEX
  5
2868
  8
0
  6
CONTINUOUS
 10
-0.3568120060950974
 20
10.316734818516981
 30
0.0
  0
VERTEX
  5
2869
  8
0
  6
CONTINUOUS
 10
-0.3772592935950954
 20
10.300490690916989
 30
0.0
  0
VERTEX
  5
286A
  8
0
  6
CONTINUOUS
 10
-0.3947385976950954
 20
10.28188868071698
 30
0.0
  0
VERTEX
  5
286B
  8
0
  6
CONTINUOUS
 10
-0.4090539696950941
 20
10.26077311881698
 30
0.0
  0
VERTEX
  5
286C
  8
0
  6
CONTINUOUS
 10
-0.4204013581950932
 20
10.237299674416979
 30
0.0
  0
VERTEX
  5
286D
  8
0
  6
CONTINUOUS
 10
-0.4280477317950897
 20
10.212984711416979
 30
0.0
  0
VERTEX
  5
286E
  8
0
  6
CONTINUOUS
 10
-0.4317487466950923
 20
10.18777267211698
 30
0.0
  0
VERTEX
  5
286F
  8
0
  6
CONTINUOUS
 10
-0.432211373595095
 20
10.174745893216979
 30
0.0
  0
SEQEND
  5
2870
  8
0
  6
CONTINUOUS
  0
LINE
  5
23C6
  8
0
  6
CONTINUOUS
 10
19.22443803190491
 20
7.1752504186169856
 30
0.0
 11
19.24012733300491
 21
7.1736255169169851
 31
0.0
  0
POLYLINE
  5
23C7
  8
0
  6
CONTINUOUS
 66
     1
 10
0.0
 20
0.0
 30
0.0
  0
VERTEX
  5
2871
  8
0
  6
CONTINUOUS
 10
-29.740699771995089
 20
19.522660267016981
 30
0.0
  0
VERTEX
  5
2872
  8
0
  6
CONTINUOUS
 10
-29.72425856519509
 20
19.516635324916979
 30
0.0
  0
VERTEX
  5
2873
  8
0
  6
CONTINUOUS
 10
-29.707831217395089
 20
19.511229088616979
 30
0.0
  0
VERTEX
  5
2874
  8
0
  6
CONTINUOUS
 10
-29.691416762695091
 20
19.506442652816979
 30
0.0
  0
VERTEX
  5
2875
  8
0
  6
CONTINUOUS
 10
-29.67502488859509
 20
19.502284818116991
 30
0.0
  0
VERTEX
  5
2876
  8
0
  6
CONTINUOUS
 10
-29.658644194495089
 20
19.49874888861698
 30
0.0
  0
VERTEX
  5
2877
  8
0
  6
CONTINUOUS
 10
-29.642242071695101
 20
19.49581278021699
 30
0.0
  0
VERTEX
  5
2878
  8
0
  6
CONTINUOUS
 10
-29.625816961695101
 20
19.49346800151698
 30
0.0
  0
VERTEX
  5
2879
  8
0
  6
CONTINUOUS
 10
-29.609368942895099
 20
19.491725193416979
 30
0.0
  0
VERTEX
  5
287A
  8
0
  6
CONTINUOUS
 10
-29.592867700695098
 20
19.490591192816979
 30
0.0
  0
VERTEX
  5
287B
  8
0
  6
CONTINUOUS
 10
-29.576321558395101
 20
19.490055828816981
 30
0.0
  0
VERTEX
  5
287C
  8
0
  6
CONTINUOUS
 10
-29.5597209991951
 20
19.490131497816979
 30
0.0
  0
VERTEX
  5
287D
  8
0
  6
CONTINUOUS
 10
-29.543008536295101
 20
19.490859393416979
 30
0.0
  0
VERTEX
  5
287E
  8
0
  6
CONTINUOUS
 10
-29.526190665195092
 20
19.492222093316979
 30
0.0
  0
VERTEX
  5
287F
  8
0
  6
CONTINUOUS
 10
-29.5092597354951
 20
19.494239725816978
 30
0.0
  0
VERTEX
  5
2880
  8
0
  6
CONTINUOUS
 10
-29.4921362697951
 20
19.497010782916981
 30
0.0
  0
VERTEX
  5
2881
  8
0
  6
CONTINUOUS
 10
-29.474810551295089
 20
19.500513166716981
 30
0.0
  0
VERTEX
  5
2882
  8
0
  6
CONTINUOUS
 10
-29.457291140995089
 20
19.50477258661698
 30
0.0
  0
VERTEX
  5
2883
  8
0
  6
CONTINUOUS
 10
-29.439525156895101
 20
19.509960485516981
 30
0.0
  0
VERTEX
  5
2884
  8
0
  6
CONTINUOUS
 10
-29.421484703495089
 20
19.516056086216981
 30
0.0
  0
VERTEX
  5
2885
  8
0
  6
CONTINUOUS
 10
-29.403197319195101
 20
19.523084534616981
 30
0.0
  0
VERTEX
  5
2886
  8
0
  6
CONTINUOUS
 10
-29.38469297019509
 20
19.531287129116979
 30
0.0
  0
VERTEX
  5
2887
  8
0
  6
CONTINUOUS
 10
-29.3659262430951
 20
19.54065064871698
 30
0.0
  0
VERTEX
  5
2888
  8
0
  6
CONTINUOUS
 10
-29.346944679995101
 20
19.55119250431699
 30
0.0
  0
VERTEX
  5
2889
  8
0
  6
CONTINUOUS
 10
-29.327918341695089
 20
19.563199982116981
 30
0.0
  0
VERTEX
  5
288A
  8
0
  6
CONTINUOUS
 10
-29.308906149195089
 20
19.576769523216981
 30
0.0
  0
VERTEX
  5
288B
  8
0
  6
CONTINUOUS
 10
-29.289855914395101
 20
19.591806754416979
 30
0.0
  0
VERTEX
  5
288C
  8
0
  6
CONTINUOUS
 10
-29.270772321295091
 20
19.60831213021698
 30
0.0
  0
SEQEND
  5
288D
  8
0
  6
CONTINUOUS
  0
POLYLINE
  5
23C8
  8
0
  6
CONTINUOUS
 66
     1
 10
0.0
 20
0.0
 30
0.0
  0
VERTEX
  5
288E
  8
0
  6
CONTINUOUS
 10
-0.432211373595095
 20
10.174745893216979
 30
0.0
  0
VERTEX
  5
288F
  8
0
  6
CONTINUOUS
 10
-0.4317487466950923
 20
10.16171911431698
 30
0.0
  0
VERTEX
  5
2890
  8
0
  6
CONTINUOUS
 10
-0.4280477317950897
 20
10.13650707511699
 30
0.0
  0
VERTEX
  5
2891
  8
0
  6
CONTINUOUS
 10
-0.4204013581950932
 20
10.112192112116981
 30
0.0
  0
VERTEX
  5
2892
  8
0
  6
CONTINUOUS
 10
-0.4090539696950941
 20
10.08871866761698
 30
0.0
  0
VERTEX
  5
2893
  8
0
  6
CONTINUOUS
 10
-0.3947385976950954
 20
10.06760310571698
 30
0.0
  0
VERTEX
  5
2894
  8
0
  6
CONTINUOUS
 10
-0.3772592935950954
 20
10.04900109561698
 30
0.0
  0
VERTEX
  5
2895
  8
0
  6
CONTINUOUS
 10
-0.3568120060950974
 20
10.032756968016979
 30
0.0
  0
VERTEX
  5
2896
  8
0
  6
CONTINUOUS
 10
-0.3347176118950941
 20
10.01992007941698
 30
0.0
  0
VERTEX
  5
2897
  8
0
  6
CONTINUOUS
 10
-0.3114164034950946
 20
10.01084021541698
 30
0.0
  0
VERTEX
  5
2898
  8
0
  6
CONTINUOUS
 10
-0.2864680884950985
 20
10.005167590416979
 30
0.0
  0
VERTEX
  5
2899
  8
0
  6
CONTINUOUS
 10
-0.2598726669950935
 20
10.00290220441698
 30
0.0
  0
SEQEND
  5
289A
  8
0
  6
CONTINUOUS
  0
POLYLINE
  5
23C9
  8
0
  6
CONTINUOUS
 66
     1
 10
0.0
 20
0.0
 30
0.0
  0
VERTEX
  5
289B
  8
0
  6
CONTINUOUS
 10
-0.0875339602950973
 20
10.174745893216979
 30
0.0
  0
VERTEX
  5
289C
  8
0
  6
CONTINUOUS
 10
-0.087996587195093
 20
10.18777267211698
 30
0.0
  0
VERTEX
  5
289D
  8
0
  6
CONTINUOUS
 10
-0.0916976020950955
 20
10.212984711416979
 30
0.0
  0
VERTEX
  5
289E
  8
0
  6
CONTINUOUS
 10
-0.099343975695092
 20
10.237299674416979
 30
0.0
  0
VERTEX
  5
289F
  8
0
  6
CONTINUOUS
 10
-0.1106913641950911
 20
10.26077311881698
 30
0.0
  0
VERTEX
  5
28A0
  8
0
  6
CONTINUOUS
 10
-0.1250067361950897
 20
10.28188868071698
 30
0.0
  0
VERTEX
  5
28A1
  8
0
  6
CONTINUOUS
 10
-0.1424860402950969
 20
10.300490690916989
 30
0.0
  0
VERTEX
  5
28A2
  8
0
  6
CONTINUOUS
 10
-0.1629333277950948
 20
10.316734818516981
 30
0.0
  0
VERTEX
  5
28A3
  8
0
  6
CONTINUOUS
 10
-0.1850277219950911
 20
10.32957170701698
 30
0.0
  0
VERTEX
  5
28A4
  8
0
  6
CONTINUOUS
 10
-0.2083289303950977
 20
10.33865157111698
 30
0.0
  0
VERTEX
  5
28A5
  8
0
  6
CONTINUOUS
 10
-0.2332772453950938
 20
10.344324196116981
 30
0.0
  0
VERTEX
  5
28A6
  8
0
  6
CONTINUOUS
 10
-0.2598726669950935
 20
10.34658958211698
 30
0.0
  0
SEQEND
  5
28A7
  8
0
  6
CONTINUOUS
  0
POLYLINE
  5
23CA
  8
0
  6
CONTINUOUS
 66
     1
 10
0.0
 20
0.0
 30
0.0
  0
VERTEX
  5
28A8
  8
0
  6
CONTINUOUS
 10
-6.7598726669950926
 20
10.00290220441698
 30
0.0
  0
VERTEX
  5
28A9
  8
0
  6
CONTINUOUS
 10
-6.7332772453950929
 20
10.005167590416979
 30
0.0
  0
VERTEX
  5
28AA
  8
0
  6
CONTINUOUS
 10
-6.7083289303950941
 20
10.01084021541698
 30
0.0
  0
VERTEX
  5
28AB
  8
0
  6
CONTINUOUS
 10
-6.6850277219950938
 20
10.01992007941698
 30
0.0
  0
VERTEX
  5
28AC
  8
0
  6
CONTINUOUS
 10
-6.662933327795094
 20
10.032756968016979
 30
0.0
  0
VERTEX
  5
28AD
  8
0
  6
CONTINUOUS
 10
-6.6424860402950934
 20
10.04900109561698
 30
0.0
  0
VERTEX
  5
28AE
  8
0
  6
CONTINUOUS
 10
-6.6250067361950933
 20
10.06760310571698
 30
0.0
  0
VERTEX
  5
28AF
  8
0
  6
CONTINUOUS
 10
-6.6106913641950937
 20
10.08871866761698
 30
0.0
  0
VERTEX
  5
28B0
  8
0
  6
CONTINUOUS
 10
-6.599343975695092
 20
10.112192112116981
 30
0.0
  0
VERTEX
  5
28B1
  8
0
  6
CONTINUOUS
 10
-6.5916976020950946
 20
10.13650707511699
 30
0.0
  0
VERTEX
  5
28B2
  8
0
  6
CONTINUOUS
 10
-6.5879965871950921
 20
10.16171911431698
 30
0.0
  0
VERTEX
  5
28B3
  8
0
  6
CONTINUOUS
 10
-6.5875339602950929
 20
10.174745893216979
 30
0.0
  0
SEQEND
  5
28B4
  8
0
  6
CONTINUOUS
  0
POLYLINE
  5
23CB
  8
0
  6
CONTINUOUS
 66
     1
 10
0.0
 20
0.0
 30
0.0
  0
VERTEX
  5
28B5
  8
0
  6
CONTINUOUS
 10
-6.7598726669950926
 20
10.03035067361699
 30
0.0
  0
VERTEX
  5
28B6
  8
0
  6
CONTINUOUS
 10
-6.7332772453950929
 20
10.032616059616981
 30
0.0
  0
VERTEX
  5
28B7
  8
0
  6
CONTINUOUS
 10
-6.7083289303950941
 20
10.03828868461698
 30
0.0
  0
VERTEX
  5
28B8
  8
0
  6
CONTINUOUS
 10
-6.6850277219950938
 20
10.04736854871698
 30
0.0
  0
VERTEX
  5
28B9
  8
0
  6
CONTINUOUS
 10
-6.662933327795094
 20
10.060205437216981
 30
0.0
  0
VERTEX
  5
28BA
  8
0
  6
CONTINUOUS
 10
-6.6424860402950934
 20
10.076449564816979
 30
0.0
  0
VERTEX
  5
28BB
  8
0
  6
CONTINUOUS
 10
-6.6250067361950933
 20
10.09505157501698
 30
0.0
  0
VERTEX
  5
28BC
  8
0
  6
CONTINUOUS
 10
-6.6106913641950937
 20
10.11616713691698
 30
0.0
  0
VERTEX
  5
28BD
  8
0
  6
CONTINUOUS
 10
-6.599343975695092
 20
10.13964058131698
 30
0.0
  0
VERTEX
  5
28BE
  8
0
  6
CONTINUOUS
 10
-6.5916976020950946
 20
10.16395554431698
 30
0.0
  0
VERTEX
  5
28BF
  8
0
  6
CONTINUOUS
 10
-6.5879965871950921
 20
10.18916758361698
 30
0.0
  0
SEQEND
  5
28C0
  8
0
  6
CONTINUOUS
  0
POLYLINE
  5
23CC
  8
0
  6
CONTINUOUS
 66
     1
 10
0.0
 20
0.0
 30
0.0
  0
VERTEX
  5
28C1
  8
0
  6
CONTINUOUS
 10
-6.7598726669950926
 20
10.34658958211698
 30
0.0
  0
VERTEX
  5
28C2
  8
0
  6
CONTINUOUS
 10
-6.7864680884950914
 20
10.344324196116981
 30
0.0
  0
VERTEX
  5
28C3
  8
0
  6
CONTINUOUS
 10
-6.8114164034950937
 20
10.33865157111698
 30
0.0
  0
VERTEX
  5
28C4
  8
0
  6
CONTINUOUS
 10
-6.8347176118950941
 20
10.32957170701698
 30
0.0
  0
VERTEX
  5
28C5
  8
0
  6
CONTINUOUS
 10
-6.856812006095093
 20
10.316734818516981
 30
0.0
  0
VERTEX
  5
28C6
  8
0
  6
CONTINUOUS
 10
-6.8772592935950954
 20
10.300490690916989
 30
0.0
  0
VERTEX
  5
28C7
  8
0
  6
CONTINUOUS
 10
-6.8947385976950946
 20
10.28188868071698
 30
0.0
  0
VERTEX
  5
28C8
  8
0
  6
CONTINUOUS
 10
-6.9090539696950941
 20
10.26077311881698
 30
0.0
  0
VERTEX
  5
28C9
  8
0
  6
CONTINUOUS
 10
-6.9204013581950932
 20
10.237299674416979
 30
0.0
  0
VERTEX
  5
28CA
  8
0
  6
CONTINUOUS
 10
-6.9280477317950933
 20
10.212984711416979
 30
0.0
  0
VERTEX
  5
28CB
  8
0
  6
CONTINUOUS
 10
-6.9317487466950922
 20
10.18777267211698
 30
0.0
  0
VERTEX
  5
28CC
  8
0
  6
CONTINUOUS
 10
-6.9322113735950941
 20
10.174745893216979
 30
0.0
  0
SEQEND
  5
28CD
  8
0
  6
CONTINUOUS
  0
POLYLINE
  5
23CD
  8
0
  6
CONTINUOUS
 66
     1
 10
0.0
 20
0.0
 30
0.0
  0
VERTEX
  5
28CE
  8
0
  6
CONTINUOUS
 10
-13.25987266699509
 20
10.00290220441698
 30
0.0
  0
VERTEX
  5
28CF
  8
0
  6
CONTINUOUS
 10
-13.23327724539509
 20
10.005167590416979
 30
0.0
  0
VERTEX
  5
28D0
  8
0
  6
CONTINUOUS
 10
-13.208328930395091
 20
10.01084021541698
 30
0.0
  0
VERTEX
  5
28D1
  8
0
  6
CONTINUOUS
 10
-13.185027721995089
 20
10.01992007941698
 30
0.0
  0
VERTEX
  5
28D2
  8
0
  6
CONTINUOUS
 10
-13.16293332779509
 20
10.032756968016979
 30
0.0
  0
VERTEX
  5
28D3
  8
0
  6
CONTINUOUS
 10
-13.14248604029509
 20
10.04900109561698
 30
0.0
  0
VERTEX
  5
28D4
  8
0
  6
CONTINUOUS
 10
-13.12500673619509
 20
10.06760310571698
 30
0.0
  0
VERTEX
  5
28D5
  8
0
  6
CONTINUOUS
 10
-13.110691364195089
 20
10.08871866761698
 30
0.0
  0
VERTEX
  5
28D6
  8
0
  6
CONTINUOUS
 10
-13.09934397569509
 20
10.112192112116981
 30
0.0
  0
VERTEX
  5
28D7
  8
0
  6
CONTINUOUS
 10
-13.09169760209509
 20
10.13650707511699
 30
0.0
  0
VERTEX
  5
28D8
  8
0
  6
CONTINUOUS
 10
-13.087996587195089
 20
10.16171911431698
 30
0.0
  0
VERTEX
  5
28D9
  8
0
  6
CONTINUOUS
 10
-13.08753396029509
 20
10.174745893216979
 30
0.0
  0
SEQEND
  5
28DA
  8
0
  6
CONTINUOUS
  0
POLYLINE
  5
23CE
  8
0
  6
CONTINUOUS
 66
     1
 10
0.0
 20
0.0
 30
0.0
  0
VERTEX
  5
28DB
  8
0
  6
CONTINUOUS
 10
-13.25987266699509
 20
10.03035067361699
 30
0.0
  0
VERTEX
  5
28DC
  8
0
  6
CONTINUOUS
 10
-13.23327724539509
 20
10.032616059616981
 30
0.0
  0
VERTEX
  5
28DD
  8
0
  6
CONTINUOUS
 10
-13.208328930395091
 20
10.03828868461698
 30
0.0
  0
VERTEX
  5
28DE
  8
0
  6
CONTINUOUS
 10
-13.185027721995089
 20
10.04736854871698
 30
0.0
  0
VERTEX
  5
28DF
  8
0
  6
CONTINUOUS
 10
-13.16293332779509
 20
10.060205437216981
 30
0.0
  0
VERTEX
  5
28E0
  8
0
  6
CONTINUOUS
 10
-13.14248604029509
 20
10.076449564816979
 30
0.0
  0
VERTEX
  5
28E1
  8
0
  6
CONTINUOUS
 10
-13.12500673619509
 20
10.09505157501698
 30
0.0
  0
VERTEX
  5
28E2
  8
0
  6
CONTINUOUS
 10
-13.110691364195089
 20
10.11616713691698
 30
0.0
  0
VERTEX
  5
28E3
  8
0
  6
CONTINUOUS
 10
-13.09934397569509
 20
10.13964058131698
 30
0.0
  0
VERTEX
  5
28E4
  8
0
  6
CONTINUOUS
 10
-13.09169760209509
 20
10.16395554431698
 30
0.0
  0
VERTEX
  5
28E5
  8
0
  6
CONTINUOUS
 10
-13.087996587195089
 20
10.18916758361698
 30
0.0
  0
SEQEND
  5
28E6
  8
0
  6
CONTINUOUS
  0
POLYLINE
  5
23CF
  8
0
  6
CONTINUOUS
 66
     1
 10
0.0
 20
0.0
 30
0.0
  0
VERTEX
  5
28E7
  8
0
  6
CONTINUOUS
 10
-13.25987266699509
 20
10.34658958211698
 30
0.0
  0
VERTEX
  5
28E8
  8
0
  6
CONTINUOUS
 10
-13.28646808849509
 20
10.344324196116981
 30
0.0
  0
VERTEX
  5
28E9
  8
0
  6
CONTINUOUS
 10
-13.311416403495089
 20
10.33865157111698
 30
0.0
  0
VERTEX
  5
28EA
  8
0
  6
CONTINUOUS
 10
-13.334717611895091
 20
10.32957170701698
 30
0.0
  0
VERTEX
  5
28EB
  8
0
  6
CONTINUOUS
 10
-13.35681200609509
 20
10.316734818516981
 30
0.0
  0
VERTEX
  5
28EC
  8
0
  6
CONTINUOUS
 10
-13.37725929359509
 20
10.300490690916989
 30
0.0
  0
VERTEX
  5
28ED
  8
0
  6
CONTINUOUS
 10
-13.39473859769509
 20
10.28188868071698
 30
0.0
  0
VERTEX
  5
28EE
  8
0
  6
CONTINUOUS
 10
-13.409053969695091
 20
10.26077311881698
 30
0.0
  0
VERTEX
  5
28EF
  8
0
  6
CONTINUOUS
 10
-13.42040135819509
 20
10.237299674416979
 30
0.0
  0
VERTEX
  5
28F0
  8
0
  6
CONTINUOUS
 10
-13.42804773179509
 20
10.212984711416979
 30
0.0
  0
VERTEX
  5
28F1
  8
0
  6
CONTINUOUS
 10
-13.43174874669509
 20
10.18777267211698
 30
0.0
  0
VERTEX
  5
28F2
  8
0
  6
CONTINUOUS
 10
-13.43221137359509
 20
10.174745893216979
 30
0.0
  0
SEQEND
  5
28F3
  8
0
  6
CONTINUOUS
  0
POLYLINE
  5
23D0
  8
0
  6
CONTINUOUS
 66
     1
 10
0.0
 20
0.0
 30
0.0
  0
VERTEX
  5
28F4
  8
0
  6
CONTINUOUS
 10
-19.75987266699509
 20
10.00290220441698
 30
0.0
  0
VERTEX
  5
28F5
  8
0
  6
CONTINUOUS
 10
-19.73327724539509
 20
10.005167590416979
 30
0.0
  0
VERTEX
  5
28F6
  8
0
  6
CONTINUOUS
 10
-19.708328930395091
 20
10.01084021541698
 30
0.0
  0
VERTEX
  5
28F7
  8
0
  6
CONTINUOUS
 10
-19.685027721995091
 20
10.01992007941698
 30
0.0
  0
VERTEX
  5
28F8
  8
0
  6
CONTINUOUS
 10
-19.662933327795091
 20
10.032756968016979
 30
0.0
  0
VERTEX
  5
28F9
  8
0
  6
CONTINUOUS
 10
-19.64248604029509
 20
10.04900109561698
 30
0.0
  0
VERTEX
  5
28FA
  8
0
  6
CONTINUOUS
 10
-19.62500673619509
 20
10.06760310571698
 30
0.0
  0
VERTEX
  5
28FB
  8
0
  6
CONTINUOUS
 10
-19.610691364195091
 20
10.08871866761698
 30
0.0
  0
VERTEX
  5
28FC
  8
0
  6
CONTINUOUS
 10
-19.599343975695088
 20
10.112192112116981
 30
0.0
  0
VERTEX
  5
28FD
  8
0
  6
CONTINUOUS
 10
-19.591697602095088
 20
10.13650707511699
 30
0.0
  0
VERTEX
  5
28FE
  8
0
  6
CONTINUOUS
 10
-19.587996587195089
 20
10.16171911431698
 30
0.0
  0
VERTEX
  5
28FF
  8
0
  6
CONTINUOUS
 10
-19.58753396029509
 20
10.174745893216979
 30
0.0
  0
SEQEND
  5
2900
  8
0
  6
CONTINUOUS
  0
POLYLINE
  5
23D1
  8
0
  6
CONTINUOUS
 66
     1
 10
0.0
 20
0.0
 30
0.0
  0
VERTEX
  5
2901
  8
0
  6
CONTINUOUS
 10
-19.75987266699509
 20
10.03035067361699
 30
0.0
  0
VERTEX
  5
2902
  8
0
  6
CONTINUOUS
 10
-19.73327724539509
 20
10.032616059616981
 30
0.0
  0
VERTEX
  5
2903
  8
0
  6
CONTINUOUS
 10
-19.708328930395091
 20
10.03828868461698
 30
0.0
  0
VERTEX
  5
2904
  8
0
  6
CONTINUOUS
 10
-19.685027721995091
 20
10.04736854871698
 30
0.0
  0
VERTEX
  5
2905
  8
0
  6
CONTINUOUS
 10
-19.662933327795091
 20
10.060205437216981
 30
0.0
  0
VERTEX
  5
2906
  8
0
  6
CONTINUOUS
 10
-19.64248604029509
 20
10.076449564816979
 30
0.0
  0
VERTEX
  5
2907
  8
0
  6
CONTINUOUS
 10
-19.62500673619509
 20
10.09505157501698
 30
0.0
  0
VERTEX
  5
2908
  8
0
  6
CONTINUOUS
 10
-19.610691364195091
 20
10.11616713691698
 30
0.0
  0
VERTEX
  5
2909
  8
0
  6
CONTINUOUS
 10
-19.599343975695088
 20
10.13964058131698
 30
0.0
  0
VERTEX
  5
290A
  8
0
  6
CONTINUOUS
 10
-19.591697602095088
 20
10.16395554431698
 30
0.0
  0
VERTEX
  5
290B
  8
0
  6
CONTINUOUS
 10
-19.587996587195089
 20
10.18916758361698
 30
0.0
  0
SEQEND
  5
290C
  8
0
  6
CONTINUOUS
  0
POLYLINE
  5
23D2
  8
0
  6
CONTINUOUS
 66
     1
 10
0.0
 20
0.0
 30
0.0
  0
VERTEX
  5
290D
  8
0
  6
CONTINUOUS
 10
-19.75987266699509
 20
10.34658958211698
 30
0.0
  0
VERTEX
  5
290E
  8
0
  6
CONTINUOUS
 10
-19.786468088495091
 20
10.344324196116981
 30
0.0
  0
VERTEX
  5
290F
  8
0
  6
CONTINUOUS
 10
-19.811416403495091
 20
10.33865157111698
 30
0.0
  0
VERTEX
  5
2910
  8
0
  6
CONTINUOUS
 10
-19.834717611895091
 20
10.32957170701698
 30
0.0
  0
VERTEX
  5
2911
  8
0
  6
CONTINUOUS
 10
-19.85681200609509
 20
10.316734818516981
 30
0.0
  0
VERTEX
  5
2912
  8
0
  6
CONTINUOUS
 10
-19.877259293595088
 20
10.300490690916989
 30
0.0
  0
VERTEX
  5
2913
  8
0
  6
CONTINUOUS
 10
-19.894738597695088
 20
10.28188868071698
 30
0.0
  0
VERTEX
  5
2914
  8
0
  6
CONTINUOUS
 10
-19.909053969695091
 20
10.26077311881698
 30
0.0
  0
VERTEX
  5
2915
  8
0
  6
CONTINUOUS
 10
-19.92040135819509
 20
10.237299674416979
 30
0.0
  0
VERTEX
  5
2916
  8
0
  6
CONTINUOUS
 10
-19.92804773179509
 20
10.212984711416979
 30
0.0
  0
VERTEX
  5
2917
  8
0
  6
CONTINUOUS
 10
-19.931748746695089
 20
10.18777267211698
 30
0.0
  0
VERTEX
  5
2918
  8
0
  6
CONTINUOUS
 10
-19.932211373595091
 20
10.174745893216979
 30
0.0
  0
SEQEND
  5
2919
  8
0
  6
CONTINUOUS
  0
POLYLINE
  5
23D3
  8
0
  6
CONTINUOUS
 66
     1
 10
0.0
 20
0.0
 30
0.0
  0
VERTEX
  5
291A
  8
0
  6
CONTINUOUS
 10
-0.3947385976950954
 20
10.09505157501698
 30
0.0
  0
VERTEX
  5
291B
  8
0
  6
CONTINUOUS
 10
-0.3772592935950954
 20
10.076449564816979
 30
0.0
  0
VERTEX
  5
291C
  8
0
  6
CONTINUOUS
 10
-0.3568120060950974
 20
10.060205437216981
 30
0.0
  0
VERTEX
  5
291D
  8
0
  6
CONTINUOUS
 10
-0.3347176118950941
 20
10.04736854871698
 30
0.0
  0
VERTEX
  5
291E
  8
0
  6
CONTINUOUS
 10
-0.3114164034950946
 20
10.03828868461698
 30
0.0
  0
VERTEX
  5
291F
  8
0
  6
CONTINUOUS
 10
-0.2864680884950985
 20
10.032616059616981
 30
0.0
  0
VERTEX
  5
2920
  8
0
  6
CONTINUOUS
 10
-0.2598726669950935
 20
10.03035067361699
 30
0.0
  0
SEQEND
  5
2921
  8
0
  6
CONTINUOUS
  0
POLYLINE
  5
23D4
  8
0
  6
CONTINUOUS
 66
     1
 10
0.0
 20
0.0
 30
0.0
  0
VERTEX
  5
2922
  8
0
  6
CONTINUOUS
 10
2.8552614023049041
 20
7.67816181121698
 30
0.0
  0
VERTEX
  5
2923
  8
0
  6
CONTINUOUS
 10
2.8727407064049042
 20
7.6595598010169823
 30
0.0
  0
VERTEX
  5
2924
  8
0
  6
CONTINUOUS
 10
2.8931879939049021
 20
7.6433156735169829
 30
0.0
  0
VERTEX
  5
2925
  8
0
  6
CONTINUOUS
 10
2.915282388104905
 20
7.6304787849169813
 30
0.0
  0
VERTEX
  5
2926
  8
0
  6
CONTINUOUS
 10
2.938583596504905
 20
7.6213989209169837
 30
0.0
  0
VERTEX
  5
2927
  8
0
  6
CONTINUOUS
 10
2.963531911504901
 20
7.6157262958169829
 30
0.0
  0
VERTEX
  5
2928
  8
0
  6
CONTINUOUS
 10
2.9901273330049061
 20
7.6134609098169816
 30
0.0
  0
SEQEND
  5
2929
  8
0
  6
CONTINUOUS
  0
LINE
  5
23D5
  8
0
  6
CONTINUOUS
 10
29.244269275104909
 20
19.778083966416979
 30
0.0
 11
29.29452633380491
 21
19.787661334816981
 31
0.0
  0
LINE
  5
23D6
  8
0
  6
CONTINUOUS
 10
-29.80482341289509
 20
19.785220040616981
 30
0.0
 11
-29.75430418049509
 21
19.777185355016979
 31
0.0
  0
POLYLINE
  5
23D7
  8
0
  6
CONTINUOUS
 66
     1
 10
0.0
 20
0.0
 30
0.0
  0
VERTEX
  5
292A
  8
0
  6
CONTINUOUS
 10
2.817788626404905
 20
7.757856129416985
 30
0.0
  0
VERTEX
  5
292B
  8
0
  6
CONTINUOUS
 10
2.8182512533049069
 20
7.744829350616981
 30
0.0
  0
VERTEX
  5
292C
  8
0
  6
CONTINUOUS
 10
2.8219522682049099
 20
7.7196173113169841
 30
0.0
  0
VERTEX
  5
292D
  8
0
  6
CONTINUOUS
 10
2.8295986418049059
 20
7.6953023483169822
 30
0.0
  0
VERTEX
  5
292E
  8
0
  6
CONTINUOUS
 10
2.840946030304905
 20
7.6718289038169827
 30
0.0
  0
VERTEX
  5
292F
  8
0
  6
CONTINUOUS
 10
2.8552614023049041
 20
7.6507133419169833
 30
0.0
  0
VERTEX
  5
2930
  8
0
  6
CONTINUOUS
 10
2.8727407064049042
 20
7.632111331816982
 30
0.0
  0
VERTEX
  5
2931
  8
0
  6
CONTINUOUS
 10
2.8931879939049021
 20
7.6158672042169817
 30
0.0
  0
VERTEX
  5
2932
  8
0
  6
CONTINUOUS
 10
2.915282388104905
 20
7.6030303157169854
 30
0.0
  0
VERTEX
  5
2933
  8
0
  6
CONTINUOUS
 10
2.938583596504905
 20
7.5939504516169833
 30
0.0
  0
VERTEX
  5
2934
  8
0
  6
CONTINUOUS
 10
2.963531911504901
 20
7.5882778266169799
 30
0.0
  0
VERTEX
  5
2935
  8
0
  6
CONTINUOUS
 10
2.9901273330049061
 20
7.5860124406169831
 30
0.0
  0
SEQEND
  5
2936
  8
0
  6
CONTINUOUS
  0
POLYLINE
  5
23D8
  8
0
  6
CONTINUOUS
 66
     1
 10
0.0
 20
0.0
 30
0.0
  0
VERTEX
  5
2937
  8
0
  6
CONTINUOUS
 10
3.1624660397049018
 20
7.757856129416985
 30
0.0
  0
VERTEX
  5
2938
  8
0
  6
CONTINUOUS
 10
3.162003412804907
 20
7.7708829083169837
 30
0.0
  0
VERTEX
  5
2939
  8
0
  6
CONTINUOUS
 10
3.1583023979049041
 20
7.796094947616985
 30
0.0
  0
VERTEX
  5
293A
  8
0
  6
CONTINUOUS
 10
3.1506560243049071
 20
7.8204099106169842
 30
0.0
  0
VERTEX
  5
293B
  8
0
  6
CONTINUOUS
 10
3.139308635804908
 20
7.8438833551169864
 30
0.0
  0
VERTEX
  5
293C
  8
0
  6
CONTINUOUS
 10
3.1249932638049098
 20
7.8649989170169832
 30
0.0
  0
VERTEX
  5
293D
  8
0
  6
CONTINUOUS
 10
3.1075139597049031
 20
7.8836009271169827
 30
0.0
  0
VERTEX
  5
293E
  8
0
  6
CONTINUOUS
 10
3.0870666722049052
 20
7.8998450547169803
 30
0.0
  0
VERTEX
  5
293F
  8
0
  6
CONTINUOUS
 10
3.064972278004908
 20
7.9126819432169837
 30
0.0
  0
VERTEX
  5
2940
  8
0
  6
CONTINUOUS
 10
3.0416710696049019
 20
7.9217618073169831
 30
0.0
  0
VERTEX
  5
2941
  8
0
  6
CONTINUOUS
 10
3.0167227546049058
 20
7.9274344323169821
 30
0.0
  0
VERTEX
  5
2942
  8
0
  6
CONTINUOUS
 10
2.9901273330049061
 20
7.9296998183169833
 30
0.0
  0
SEQEND
  5
2943
  8
0
  6
CONTINUOUS
  0
LINE
  5
23D9
  8
0
  6
CONTINUOUS
 10
3.8665909925049098
 20
19.647139172316969
 30
0.0
 11
3.8665909925049098
 21
19.56869859761699
 31
0.0
  0
POLYLINE
  5
23DA
  8
0
  6
CONTINUOUS
 66
     1
 10
0.0
 20
0.0
 30
0.0
  0
VERTEX
  5
2944
  8
0
  6
CONTINUOUS
 10
3.8665909925049098
 20
19.56869859761699
 30
0.0
  0
VERTEX
  5
2945
  8
0
  6
CONTINUOUS
 10
3.8618021912049079
 20
19.506950228516981
 30
0.0
  0
VERTEX
  5
2946
  8
0
  6
CONTINUOUS
 10
3.8507664115049058
 20
19.448514901016981
 30
0.0
  0
VERTEX
  5
2947
  8
0
  6
CONTINUOUS
 10
3.833483653304909
 20
19.393392615016982
 30
0.0
  0
VERTEX
  5
2948
  8
0
  6
CONTINUOUS
 10
3.808958284404909
 20
19.340879370816982
 30
0.0
  0
VERTEX
  5
2949
  8
0
  6
CONTINUOUS
 10
3.778185937104908
 20
19.291679168216991
 30
0.0
  0
VERTEX
  5
294A
  8
0
  6
CONTINUOUS
 10
3.7441535079049042
 20
19.247904006516979
 30
0.0
  0
VERTEX
  5
294B
  8
0
  6
CONTINUOUS
 10
3.707000537404908
 20
19.210364454616979
 30
0.0
  0
VERTEX
  5
294C
  8
0
  6
CONTINUOUS
 10
3.6665874850049098
 20
19.178249943516981
 30
0.0
  0
VERTEX
  5
294D
  8
0
  6
CONTINUOUS
 10
3.6254826259049082
 20
19.151240766016979
 30
0.0
  0
VERTEX
  5
294E
  8
0
  6
CONTINUOUS
 10
3.5840828835049048
 20
19.12959875351698
 30
0.0
  0
VERTEX
  5
294F
  8
0
  6
CONTINUOUS
 10
3.5419913343049032
 20
19.11306207461698
 30
0.0
  0
VERTEX
  5
2950
  8
0
  6
CONTINUOUS
 10
3.5005854826049041
 20
19.100525527916979
 30
0.0
  0
VERTEX
  5
2951
  8
0
  6
CONTINUOUS
 10
3.4603244964049078
 20
19.091620713116981
 30
0.0
  0
VERTEX
  5
2952
  8
0
  6
CONTINUOUS
 10
3.4207492077049082
 20
19.086716030516989
 30
0.0
  0
VERTEX
  5
2953
  8
0
  6
CONTINUOUS
 10
3.381859616504904
 20
19.08581148031698
 30
0.0
  0
SEQEND
  5
2954
  8
0
  6
CONTINUOUS
  0
POLYLINE
  5
23DB
  8
0
  6
CONTINUOUS
 66
     1
 10
0.0
 20
0.0
 30
0.0
  0
VERTEX
  5
2955
  8
0
  6
CONTINUOUS
 10
29.220395648304908
 20
19.522444405916978
 30
0.0
  0
VERTEX
  5
2956
  8
0
  6
CONTINUOUS
 10
29.23640544030491
 20
19.528972704616979
 30
0.0
  0
VERTEX
  5
2957
  8
0
  6
CONTINUOUS
 10
29.252219483104909
 20
19.536085260816979
 30
0.0
  0
VERTEX
  5
2958
  8
0
  6
CONTINUOUS
 10
29.267840059904909
 20
19.54377999361698
 30
0.0
  0
VERTEX
  5
2959
  8
0
  6
CONTINUOUS
 10
29.283241245204909
 20
19.552035510916991
 30
0.0
  0
VERTEX
  5
295A
  8
0
  6
CONTINUOUS
 10
29.298453614204909
 20
19.560869091216979
 30
0.0
  0
VERTEX
  5
295B
  8
0
  6
CONTINUOUS
 10
29.313563901004908
 20
19.57033695851699
 30
0.0
  0
VERTEX
  5
295C
  8
0
  6
CONTINUOUS
 10
29.328613300304902
 20
19.580450556516979
 30
0.0
  0
VERTEX
  5
295D
  8
0
  6
CONTINUOUS
 10
29.343564418204899
 20
19.591195193716981
 30
0.0
  0
VERTEX
  5
295E
  8
0
  6
CONTINUOUS
 10
29.358386008104912
 20
19.602588009516982
 30
0.0
  0
VERTEX
  5
295F
  8
0
  6
CONTINUOUS
 10
29.373082779404911
 20
19.614625929516979
 30
0.0
  0
VERTEX
  5
2960
  8
0
  6
CONTINUOUS
 10
29.387654151504911
 20
19.627308641516979
 30
0.0
  0
VERTEX
  5
2961
  8
0
  6
CONTINUOUS
 10
29.40206132630491
 20
19.640657151916969
 30
0.0
  0
VERTEX
  5
2962
  8
0
  6
CONTINUOUS
 10
29.416305611404908
 20
19.65466382071698
 30
0.0
  0
VERTEX
  5
2963
  8
0
  6
CONTINUOUS
 10
29.43038981630491
 20
19.669333006516979
 30
0.0
  0
VERTEX
  5
2964
  8
0
  6
CONTINUOUS
 10
29.444277708104909
 20
19.684703489216979
 30
0.0
  0
VERTEX
  5
2965
  8
0
  6
CONTINUOUS
 10
29.45796493980491
 20
19.700754452916978
 30
0.0
  0
VERTEX
  5
2966
  8
0
  6
CONTINUOUS
 10
29.47145958630491
 20
19.717503801416989
 30
0.0
  0
VERTEX
  5
2967
  8
0
  6
CONTINUOUS
 10
29.48474422820491
 20
19.735048266716991
 30
0.0
  0
VERTEX
  5
2968
  8
0
  6
CONTINUOUS
 10
29.49783818050491
 20
19.753398302016979
 30
0.0
  0
VERTEX
  5
2969
  8
0
  6
CONTINUOUS
 10
29.510724995504901
 20
19.772541243316979
 30
0.0
  0
VERTEX
  5
296A
  8
0
  6
CONTINUOUS
 10
29.523333621104911
 20
19.79253914651698
 30
0.0
  0
SEQEND
  5
296B
  8
0
  6
CONTINUOUS
  0
POLYLINE
  5
23DC
  8
0
  6
CONTINUOUS
 66
     1
 10
0.0
 20
0.0
 30
0.0
  0
VERTEX
  5
296C
  8
0
  6
CONTINUOUS
 10
29.29452633380491
 20
19.787661334816981
 30
0.0
  0
VERTEX
  5
296D
  8
0
  6
CONTINUOUS
 10
29.343769451404899
 20
19.80545218091698
 30
0.0
  0
VERTEX
  5
296E
  8
0
  6
CONTINUOUS
 10
29.390563543004902
 20
19.830962053016979
 30
0.0
  0
VERTEX
  5
296F
  8
0
  6
CONTINUOUS
 10
29.434442409204909
 20
19.863701025916988
 30
0.0
  0
SEQEND
  5
2970
  8
0
  6
CONTINUOUS
  0
POLYLINE
  5
23DD
  8
0
  6
CONTINUOUS
 66
     1
 10
0.0
 20
0.0
 30
0.0
  0
VERTEX
  5
2971
  8
0
  6
CONTINUOUS
 10
6.1052614023049037
 20
10.09505157501698
 30
0.0
  0
VERTEX
  5
2972
  8
0
  6
CONTINUOUS
 10
6.1227407064049038
 20
10.076449564816979
 30
0.0
  0
VERTEX
  5
2973
  8
0
  6
CONTINUOUS
 10
6.1431879939049017
 20
10.060205437216981
 30
0.0
  0
VERTEX
  5
2974
  8
0
  6
CONTINUOUS
 10
6.165282388104905
 20
10.04736854871698
 30
0.0
  0
VERTEX
  5
2975
  8
0
  6
CONTINUOUS
 10
6.1885835965049054
 20
10.03828868461698
 30
0.0
  0
VERTEX
  5
2976
  8
0
  6
CONTINUOUS
 10
6.2135319115049006
 20
10.032616059616981
 30
0.0
  0
VERTEX
  5
2977
  8
0
  6
CONTINUOUS
 10
6.2401273330049056
 20
10.03035067361699
 30
0.0
  0
SEQEND
  5
2978
  8
0
  6
CONTINUOUS
  0
POLYLINE
  5
23DE
  8
0
  6
CONTINUOUS
 66
     1
 10
0.0
 20
0.0
 30
0.0
  0
VERTEX
  5
2979
  8
0
  6
CONTINUOUS
 10
9.3552614023049045
 20
7.67816181121698
 30
0.0
  0
VERTEX
  5
297A
  8
0
  6
CONTINUOUS
 10
9.3727407064049046
 20
7.6595598010169823
 30
0.0
  0
VERTEX
  5
297B
  8
0
  6
CONTINUOUS
 10
9.3931879939049026
 20
7.6433156735169829
 30
0.0
  0
VERTEX
  5
297C
  8
0
  6
CONTINUOUS
 10
9.4152823881049041
 20
7.6304787849169813
 30
0.0
  0
VERTEX
  5
297D
  8
0
  6
CONTINUOUS
 10
9.4385835965049054
 20
7.6213989209169837
 30
0.0
  0
VERTEX
  5
297E
  8
0
  6
CONTINUOUS
 10
9.4635319115049015
 20
7.6157262958169829
 30
0.0
  0
VERTEX
  5
297F
  8
0
  6
CONTINUOUS
 10
9.4901273330049065
 20
7.6134609098169816
 30
0.0
  0
SEQEND
  5
2980
  8
0
  6
CONTINUOUS
  0
POLYLINE
  5
23DF
  8
0
  6
CONTINUOUS
 66
     1
 10
0.0
 20
0.0
 30
0.0
  0
VERTEX
  5
2981
  8
0
  6
CONTINUOUS
 10
6.067788626404905
 20
10.174745893216979
 30
0.0
  0
VERTEX
  5
2982
  8
0
  6
CONTINUOUS
 10
6.0682512533049069
 20
10.16171911431698
 30
0.0
  0
VERTEX
  5
2983
  8
0
  6
CONTINUOUS
 10
6.0719522682049103
 20
10.13650707511699
 30
0.0
  0
VERTEX
  5
2984
  8
0
  6
CONTINUOUS
 10
6.0795986418049059
 20
10.112192112116981
 30
0.0
  0
VERTEX
  5
2985
  8
0
  6
CONTINUOUS
 10
6.090946030304905
 20
10.08871866761698
 30
0.0
  0
VERTEX
  5
2986
  8
0
  6
CONTINUOUS
 10
6.1052614023049037
 20
10.06760310571698
 30
0.0
  0
VERTEX
  5
2987
  8
0
  6
CONTINUOUS
 10
6.1227407064049038
 20
10.04900109561698
 30
0.0
  0
VERTEX
  5
2988
  8
0
  6
CONTINUOUS
 10
6.1431879939049017
 20
10.032756968016979
 30
0.0
  0
VERTEX
  5
2989
  8
0
  6
CONTINUOUS
 10
6.165282388104905
 20
10.01992007941698
 30
0.0
  0
VERTEX
  5
298A
  8
0
  6
CONTINUOUS
 10
6.1885835965049054
 20
10.01084021541698
 30
0.0
  0
VERTEX
  5
298B
  8
0
  6
CONTINUOUS
 10
6.2135319115049006
 20
10.005167590416979
 30
0.0
  0
VERTEX
  5
298C
  8
0
  6
CONTINUOUS
 10
6.2401273330049056
 20
10.00290220441698
 30
0.0
  0
SEQEND
  5
298D
  8
0
  6
CONTINUOUS
  0
POLYLINE
  5
23E0
  8
0
  6
CONTINUOUS
 66
     1
 10
0.0
 20
0.0
 30
0.0
  0
VERTEX
  5
298E
  8
0
  6
CONTINUOUS
 10
6.4124660397049089
 20
10.174745893216979
 30
0.0
  0
VERTEX
  5
298F
  8
0
  6
CONTINUOUS
 10
6.412003412804907
 20
10.18777267211698
 30
0.0
  0
VERTEX
  5
2990
  8
0
  6
CONTINUOUS
 10
6.4083023979049036
 20
10.212984711416979
 30
0.0
  0
VERTEX
  5
2991
  8
0
  6
CONTINUOUS
 10
6.4006560243049071
 20
10.237299674416979
 30
0.0
  0
VERTEX
  5
2992
  8
0
  6
CONTINUOUS
 10
6.389308635804908
 20
10.26077311881698
 30
0.0
  0
VERTEX
  5
2993
  8
0
  6
CONTINUOUS
 10
6.3749932638049103
 20
10.28188868071698
 30
0.0
  0
VERTEX
  5
2994
  8
0
  6
CONTINUOUS
 10
6.3575139597049031
 20
10.300490690916989
 30
0.0
  0
VERTEX
  5
2995
  8
0
  6
CONTINUOUS
 10
6.3370666722049052
 20
10.316734818516981
 30
0.0
  0
VERTEX
  5
2996
  8
0
  6
CONTINUOUS
 10
6.3149722780049009
 20
10.32957170701698
 30
0.0
  0
VERTEX
  5
2997
  8
0
  6
CONTINUOUS
 10
6.2916710696049023
 20
10.33865157111698
 30
0.0
  0
VERTEX
  5
2998
  8
0
  6
CONTINUOUS
 10
6.2667227546049062
 20
10.344324196116981
 30
0.0
  0
VERTEX
  5
2999
  8
0
  6
CONTINUOUS
 10
6.2401273330049056
 20
10.34658958211698
 30
0.0
  0
SEQEND
  5
299A
  8
0
  6
CONTINUOUS
  0
POLYLINE
  5
23E1
  8
0
  6
CONTINUOUS
 66
     1
 10
0.0
 20
0.0
 30
0.0
  0
VERTEX
  5
299B
  8
0
  6
CONTINUOUS
 10
28.593551035304909
 20
19.897962641916969
 30
0.0
  0
VERTEX
  5
299C
  8
0
  6
CONTINUOUS
 10
28.625688142804911
 20
19.90013463191697
 30
0.0
  0
VERTEX
  5
299D
  8
0
  6
CONTINUOUS
 10
28.65755892880491
 20
19.902032749316991
 30
0.0
  0
VERTEX
  5
299E
  8
0
  6
CONTINUOUS
 10
28.688899322104909
 20
19.903641268316981
 30
0.0
  0
VERTEX
  5
299F
  8
0
  6
CONTINUOUS
 10
28.719449643204911
 20
19.904946861516979
 30
0.0
  0
VERTEX
  5
29A0
  8
0
  6
CONTINUOUS
 10
28.748956770304911
 20
19.90593871361698
 30
0.0
  0
VERTEX
  5
29A1
  8
0
  6
CONTINUOUS
 10
28.777176234604909
 20
19.906608610616981
 30
0.0
  0
VERTEX
  5
29A2
  8
0
  6
CONTINUOUS
 10
28.80387422730491
 20
19.90695100371698
 30
0.0
  0
VERTEX
  5
29A3
  8
0
  6
CONTINUOUS
 10
28.828829538104898
 20
19.906963055516979
 30
0.0
  0
VERTEX
  5
29A4
  8
0
  6
CONTINUOUS
 10
28.851835401504911
 20
19.90664466661698
 30
0.0
  0
SEQEND
  5
29A5
  8
0
  6
CONTINUOUS
  0
LINE
  5
23E2
  8
0
  6
CONTINUOUS
 10
29.21068816360491
 20
19.776259636316979
 30
0.0
 11
29.244269275104909
 21
19.778083966416979
 31
0.0
  0
LINE
  5
23E3
  8
0
  6
CONTINUOUS
 10
3.381859616504904
 20
19.08581148031698
 30
0.0
 11
-3.9016049503950931
 21
19.08581148031698
 31
0.0
  0
LINE
  5
23E4
  8
0
  6
CONTINUOUS
 10
-29.73011397609509
 20
19.77624948061699
 30
0.0
 11
-29.685001647595101
 21
19.77624948061699
 31
0.0
  0
LINE
  5
23E5
  8
0
  6
CONTINUOUS
 10
29.165259197504909
 20
19.77624948061699
 30
0.0
 11
29.210211929504911
 21
19.77624948061699
 31
0.0
  0
POLYLINE
  5
23E6
  8
0
  6
CONTINUOUS
 66
     1
 10
0.0
 20
0.0
 30
0.0
  0
VERTEX
  5
29A6
  8
0
  6
CONTINUOUS
 10
-29.638636455095089
 20
19.88754143951698
 30
0.0
  0
VERTEX
  5
29A7
  8
0
  6
CONTINUOUS
 10
-29.668902376495101
 20
19.887756369216991
 30
0.0
  0
VERTEX
  5
29A8
  8
0
  6
CONTINUOUS
 10
-29.698079368395099
 20
19.89248975911698
 30
0.0
  0
VERTEX
  5
29A9
  8
0
  6
CONTINUOUS
 10
-29.726167431095089
 20
19.901741609316979
 30
0.0
  0
VERTEX
  5
29AA
  8
0
  6
CONTINUOUS
 10
-29.753534863995089
 20
19.915787359616981
 30
0.0
  0
VERTEX
  5
29AB
  8
0
  6
CONTINUOUS
 10
-29.779813367495091
 20
19.93435157021699
 30
0.0
  0
VERTEX
  5
29AC
  8
0
  6
CONTINUOUS
 10
-29.80389804299509
 20
19.956607921616978
 30
0.0
  0
VERTEX
  5
29AD
  8
0
  6
CONTINUOUS
 10
-29.825420590795101
 20
19.98228097421698
 30
0.0
  0
VERTEX
  5
29AE
  8
0
  6
CONTINUOUS
 10
-29.8447493104951
 20
20.011646167616991
 30
0.0
  0
VERTEX
  5
29AF
  8
0
  6
CONTINUOUS
 10
-29.861884202095101
 20
20.044703501916981
 30
0.0
  0
SEQEND
  5
29B0
  8
0
  6
CONTINUOUS
  0
LINE
  5
23E7
  8
0
  6
CONTINUOUS
 10
-29.75430418049509
 20
19.777185355016979
 30
0.0
 11
-29.73048592459509
 21
19.77625900111698
 31
0.0
  0
POLYLINE
  5
23E8
  8
0
  6
CONTINUOUS
 66
     1
 10
0.0
 20
0.0
 30
0.0
  0
VERTEX
  5
29B1
  8
0
  6
CONTINUOUS
 10
-29.113296369195091
 20
19.897962641916969
 30
0.0
  0
VERTEX
  5
29B2
  8
0
  6
CONTINUOUS
 10
-29.145433324695102
 20
19.90013456891699
 30
0.0
  0
VERTEX
  5
29B3
  8
0
  6
CONTINUOUS
 10
-29.177304003795101
 20
19.902032642316978
 30
0.0
  0
VERTEX
  5
29B4
  8
0
  6
CONTINUOUS
 10
-29.208644336495091
 20
19.903641135416979
 30
0.0
  0
VERTEX
  5
29B5
  8
0
  6
CONTINUOUS
 10
-29.239194646795092
 20
19.904946720916978
 30
0.0
  0
VERTEX
  5
29B6
  8
0
  6
CONTINUOUS
 10
-29.268701804995089
 20
19.905938580916992
 30
0.0
  0
VERTEX
  5
29B7
  8
0
  6
CONTINUOUS
 10
-29.29692132419509
 20
19.906608497116981
 30
0.0
  0
VERTEX
  5
29B8
  8
0
  6
CONTINUOUS
 10
-29.323619386895089
 20
19.90695091871698
 30
0.0
  0
VERTEX
  5
29B9
  8
0
  6
CONTINUOUS
 10
-29.34857478139509
 20
19.90696300861698
 30
0.0
  0
VERTEX
  5
29BA
  8
0
  6
CONTINUOUS
 10
-29.371580735395099
 20
19.90664466661698
 30
0.0
  0
SEQEND
  5
29BB
  8
0
  6
CONTINUOUS
  0
POLYLINE
  5
23E9
  8
0
  6
CONTINUOUS
 66
     1
 10
0.0
 20
0.0
 30
0.0
  0
VERTEX
  5
29BC
  8
0
  6
CONTINUOUS
 10
-3.9016049503950931
 20
19.08581148031698
 30
0.0
  0
VERTEX
  5
29BD
  8
0
  6
CONTINUOUS
 10
-3.963589150995094
 20
19.090582061616981
 30
0.0
  0
VERTEX
  5
29BE
  8
0
  6
CONTINUOUS
 10
-4.0222476566950931
 20
19.10157585351698
 30
0.0
  0
VERTEX
  5
29BF
  8
0
  6
CONTINUOUS
 10
-4.0775804674950917
 20
19.118792855916979
 30
0.0
  0
VERTEX
  5
29C0
  8
0
  6
CONTINUOUS
 10
-4.1302942720950924
 20
19.143224913116981
 30
0.0
  0
VERTEX
  5
29C1
  8
0
  6
CONTINUOUS
 10
-4.1796823816950939
 20
19.17388018081698
 30
0.0
  0
VERTEX
  5
29C2
  8
0
  6
CONTINUOUS
 10
-4.2236247309950938
 20
19.207783126716979
 30
0.0
  0
VERTEX
  5
29C3
  8
0
  6
CONTINUOUS
 10
-4.2613076551950932
 20
19.244794741216982
 30
0.0
  0
VERTEX
  5
29C4
  8
0
  6
CONTINUOUS
 10
-4.293544819095092
 20
19.285054033916978
 30
0.0
  0
VERTEX
  5
29C5
  8
0
  6
CONTINUOUS
 10
-4.3206571508950944
 20
19.326002501316982
 30
0.0
  0
VERTEX
  5
29C6
  8
0
  6
CONTINUOUS
 10
-4.3423818192950909
 20
19.367244730016981
 30
0.0
  0
VERTEX
  5
29C7
  8
0
  6
CONTINUOUS
 10
-4.358981655695092
 20
19.409176133416981
 30
0.0
  0
VERTEX
  5
29C8
  8
0
  6
CONTINUOUS
 10
-4.3715660823950939
 20
19.450424448116991
 30
0.0
  0
VERTEX
  5
29C9
  8
0
  6
CONTINUOUS
 10
-4.3805049067950916
 20
19.49053225321698
 30
0.0
  0
VERTEX
  5
29CA
  8
0
  6
CONTINUOUS
 10
-4.385428321395092
 20
19.529956969716981
 30
0.0
  0
VERTEX
  5
29CB
  8
0
  6
CONTINUOUS
 10
-4.386336326395095
 20
19.56869859761699
 30
0.0
  0
SEQEND
  5
29CC
  8
0
  6
CONTINUOUS
  0
LINE
  5
23EA
  8
0
  6
CONTINUOUS
 10
-33.075951298295102
 20
22.047903023916991
 30
0.0
 11
-33.048670605195092
 21
22.04458185031698
 31
0.0
  0
POLYLINE
  5
23EB
  8
0
  6
CONTINUOUS
 66
     1
 10
0.0
 20
0.0
 30
0.0
  0
VERTEX
  5
29CD
  8
0
  6
CONTINUOUS
 10
9.317788626404905
 20
7.757856129416985
 30
0.0
  0
VERTEX
  5
29CE
  8
0
  6
CONTINUOUS
 10
9.3182512533049078
 20
7.744829350616981
 30
0.0
  0
VERTEX
  5
29CF
  8
0
  6
CONTINUOUS
 10
9.3219522682049103
 20
7.7196173113169841
 30
0.0
  0
VERTEX
  5
29D0
  8
0
  6
CONTINUOUS
 10
9.3295986418049068
 20
7.6953023483169822
 30
0.0
  0
VERTEX
  5
29D1
  8
0
  6
CONTINUOUS
 10
9.3409460303049041
 20
7.6718289038169827
 30
0.0
  0
VERTEX
  5
29D2
  8
0
  6
CONTINUOUS
 10
9.3552614023049045
 20
7.6507133419169833
 30
0.0
  0
VERTEX
  5
29D3
  8
0
  6
CONTINUOUS
 10
9.3727407064049046
 20
7.632111331816982
 30
0.0
  0
VERTEX
  5
29D4
  8
0
  6
CONTINUOUS
 10
9.3931879939049026
 20
7.6158672042169817
 30
0.0
  0
VERTEX
  5
29D5
  8
0
  6
CONTINUOUS
 10
9.4152823881049041
 20
7.6030303157169854
 30
0.0
  0
VERTEX
  5
29D6
  8
0
  6
CONTINUOUS
 10
9.4385835965049054
 20
7.5939504516169833
 30
0.0
  0
VERTEX
  5
29D7
  8
0
  6
CONTINUOUS
 10
9.4635319115049015
 20
7.5882778266169799
 30
0.0
  0
VERTEX
  5
29D8
  8
0
  6
CONTINUOUS
 10
9.4901273330049065
 20
7.5860124406169831
 30
0.0
  0
SEQEND
  5
29D9
  8
0
  6
CONTINUOUS
  0
LINE
  5
23EC
  8
0
  6
CONTINUOUS
 10
-29.371580735395099
 20
19.90664466661698
 30
0.0
 11
-29.638636455095089
 21
19.88754143951698
 31
0.0
  0
LINE
  5
23ED
  8
0
  6
CONTINUOUS
 10
-29.720690660895102
 20
19.776866527216988
 30
0.0
 11
-29.730114624795089
 21
19.776258069416979
 31
0.0
  0
LINE
  5
23EE
  8
0
  6
CONTINUOUS
 10
-29.655160455395091
 20
19.777075647016979
 30
0.0
 11
-29.645177315295101
 21
19.77771389641698
 31
0.0
  0
POLYLINE
  5
23EF
  8
0
  6
CONTINUOUS
 66
     1
 10
0.0
 20
0.0
 30
0.0
  0
VERTEX
  5
29DA
  8
0
  6
CONTINUOUS
 10
-29.68458971309509
 20
19.776249641016989
 30
0.0
  0
VERTEX
  5
29DB
  8
0
  6
CONTINUOUS
 10
-29.674660772895098
 20
19.77634970781698
 30
0.0
  0
VERTEX
  5
29DC
  8
0
  6
CONTINUOUS
 10
-29.664968068595101
 20
19.776623701316979
 30
0.0
  0
VERTEX
  5
29DD
  8
0
  6
CONTINUOUS
 10
-29.655160455395091
 20
19.777075647016979
 30
0.0
  0
SEQEND
  5
29DE
  8
0
  6
CONTINUOUS
  0
LINE
  5
23F0
  8
0
  6
CONTINUOUS
 10
32.55620596440491
 20
22.047903023916991
 30
0.0
 11
32.555923262604907
 21
22.04790120241698
 31
0.0
  0
LINE
  5
23F1
  8
0
  6
CONTINUOUS
 10
-3.9016049503950931
 20
20.130026289616978
 30
0.0
 11
3.381859616504904
 21
20.130026289616978
 31
0.0
  0
LINE
  5
23F2
  8
0
  6
CONTINUOUS
 10
33.206226780904913
 20
20.86680066171699
 30
0.0
 11
-33.725972114795091
 21
20.86680066171699
 31
0.0
  0
LINE
  5
23F3
  8
0
  6
CONTINUOUS
 10
32.553827157104912
 20
22.047893221016981
 30
0.0
 11
-33.066368086495089
 21
22.04788720261698
 31
0.0
  0
LINE
  5
23F4
  8
0
  6
CONTINUOUS
 10
-33.069293751395087
 20
22.04788723561699
 30
0.0
 11
-33.074881134895087
 21
22.047897464916979
 31
0.0
  0
LINE
  5
23F5
  8
0
  6
CONTINUOUS
 10
-33.075668689495089
 20
22.047901202916979
 30
0.0
 11
-33.075951298295102
 21
22.047903023916991
 31
0.0
  0
LINE
  5
23F6
  8
0
  6
CONTINUOUS
 10
29.200685469704911
 20
19.77687110461699
 30
0.0
 11
29.210211929504911
 21
19.77624948061699
 31
0.0
  0
LINE
  5
23F7
  8
0
  6
CONTINUOUS
 10
29.118891121204911
 20
19.88754143951698
 30
0.0
 11
28.851835401504911
 21
19.90664466661698
 31
0.0
  0
POLYLINE
  5
23F8
  8
0
  6
CONTINUOUS
 66
     1
 10
0.0
 20
0.0
 30
0.0
  0
VERTEX
  5
29DF
  8
0
  6
CONTINUOUS
 10
3.381859616504904
 20
20.130026289616978
 30
0.0
  0
VERTEX
  5
29E0
  8
0
  6
CONTINUOUS
 10
3.4438438171049048
 20
20.125255708316981
 30
0.0
  0
VERTEX
  5
29E1
  8
0
  6
CONTINUOUS
 10
3.502502322804907
 20
20.114261916416989
 30
0.0
  0
VERTEX
  5
29E2
  8
0
  6
CONTINUOUS
 10
3.557835133604903
 20
20.09704491401698
 30
0.0
  0
VERTEX
  5
29E3
  8
0
  6
CONTINUOUS
 10
3.6105489382049072
 20
20.072612856816988
 30
0.0
  0
VERTEX
  5
29E4
  8
0
  6
CONTINUOUS
 10
3.6599370478049091
 20
20.041957589116979
 30
0.0
  0
VERTEX
  5
29E5
  8
0
  6
CONTINUOUS
 10
3.7038793971049051
 20
20.00805464321698
 30
0.0
  0
VERTEX
  5
29E6
  8
0
  6
CONTINUOUS
 10
3.7415623213049041
 20
19.971043028716981
 30
0.0
  0
VERTEX
  5
29E7
  8
0
  6
CONTINUOUS
 10
3.7737994852049042
 20
19.930783736016981
 30
0.0
  0
VERTEX
  5
29E8
  8
0
  6
CONTINUOUS
 10
3.8009118170049021
 20
19.889835268616981
 30
0.0
  0
VERTEX
  5
29E9
  8
0
  6
CONTINUOUS
 10
3.8226364854049062
 20
19.848593039916981
 30
0.0
  0
VERTEX
  5
29EA
  8
0
  6
CONTINUOUS
 10
3.8392363218049042
 20
19.806661636516971
 30
0.0
  0
VERTEX
  5
29EB
  8
0
  6
CONTINUOUS
 10
3.8518207485049061
 20
19.765413321816979
 30
0.0
  0
VERTEX
  5
29EC
  8
0
  6
CONTINUOUS
 10
3.86075957290491
 20
19.725305516716979
 30
0.0
  0
VERTEX
  5
29ED
  8
0
  6
CONTINUOUS
 10
3.8656829875049108
 20
19.685880800216982
 30
0.0
  0
VERTEX
  5
29EE
  8
0
  6
CONTINUOUS
 10
3.8665909925049098
 20
19.647139172316969
 30
0.0
  0
SEQEND
  5
29EF
  8
0
  6
CONTINUOUS
  0
POLYLINE
  5
23F9
  8
0
  6
CONTINUOUS
 66
     1
 10
0.0
 20
0.0
 30
0.0
  0
VERTEX
  5
29F0
  8
0
  6
CONTINUOUS
 10
12.605261402304899
 20
10.09505157501698
 30
0.0
  0
VERTEX
  5
29F1
  8
0
  6
CONTINUOUS
 10
12.622740706404899
 20
10.076449564816979
 30
0.0
  0
VERTEX
  5
29F2
  8
0
  6
CONTINUOUS
 10
12.643187993904901
 20
10.060205437216981
 30
0.0
  0
VERTEX
  5
29F3
  8
0
  6
CONTINUOUS
 10
12.665282388104901
 20
10.04736854871698
 30
0.0
  0
VERTEX
  5
29F4
  8
0
  6
CONTINUOUS
 10
12.688583596504911
 20
10.03828868461698
 30
0.0
  0
VERTEX
  5
29F5
  8
0
  6
CONTINUOUS
 10
12.71353191150491
 20
10.032616059616981
 30
0.0
  0
VERTEX
  5
29F6
  8
0
  6
CONTINUOUS
 10
12.740127333004899
 20
10.03035067361699
 30
0.0
  0
SEQEND
  5
29F7
  8
0
  6
CONTINUOUS
  0
POLYLINE
  5
23FA
  8
0
  6
CONTINUOUS
 66
     1
 10
0.0
 20
0.0
 30
0.0
  0
VERTEX
  5
29F8
  8
0
  6
CONTINUOUS
 10
15.855261402304899
 20
7.67816181121698
 30
0.0
  0
VERTEX
  5
29F9
  8
0
  6
CONTINUOUS
 10
15.872740706404899
 20
7.6595598010169823
 30
0.0
  0
VERTEX
  5
29FA
  8
0
  6
CONTINUOUS
 10
15.893187993904901
 20
7.6433156735169829
 30
0.0
  0
VERTEX
  5
29FB
  8
0
  6
CONTINUOUS
 10
15.915282388104901
 20
7.6304787849169813
 30
0.0
  0
VERTEX
  5
29FC
  8
0
  6
CONTINUOUS
 10
15.938583596504911
 20
7.6213989209169837
 30
0.0
  0
VERTEX
  5
29FD
  8
0
  6
CONTINUOUS
 10
15.96353191150491
 20
7.6157262958169829
 30
0.0
  0
VERTEX
  5
29FE
  8
0
  6
CONTINUOUS
 10
15.990127333004899
 20
7.6134609098169816
 30
0.0
  0
SEQEND
  5
29FF
  8
0
  6
CONTINUOUS
  0
POLYLINE
  5
23FB
  8
0
  6
CONTINUOUS
 66
     1
 10
0.0
 20
0.0
 30
0.0
  0
VERTEX
  5
2A00
  8
0
  6
CONTINUOUS
 10
9.6624660397049098
 20
7.757856129416985
 30
0.0
  0
VERTEX
  5
2A01
  8
0
  6
CONTINUOUS
 10
9.662003412804907
 20
7.7708829083169837
 30
0.0
  0
VERTEX
  5
2A02
  8
0
  6
CONTINUOUS
 10
9.6583023979049045
 20
7.796094947616985
 30
0.0
  0
VERTEX
  5
2A03
  8
0
  6
CONTINUOUS
 10
9.6506560243049062
 20
7.8204099106169842
 30
0.0
  0
VERTEX
  5
2A04
  8
0
  6
CONTINUOUS
 10
9.6393086358049072
 20
7.8438833551169864
 30
0.0
  0
VERTEX
  5
2A05
  8
0
  6
CONTINUOUS
 10
9.6249932638049103
 20
7.8649989170169832
 30
0.0
  0
VERTEX
  5
2A06
  8
0
  6
CONTINUOUS
 10
9.6075139597049031
 20
7.8836009271169827
 30
0.0
  0
VERTEX
  5
2A07
  8
0
  6
CONTINUOUS
 10
9.5870666722049052
 20
7.8998450547169803
 30
0.0
  0
VERTEX
  5
2A08
  8
0
  6
CONTINUOUS
 10
9.5649722780049018
 20
7.9126819432169837
 30
0.0
  0
VERTEX
  5
2A09
  8
0
  6
CONTINUOUS
 10
9.5416710696049023
 20
7.9217618073169831
 30
0.0
  0
VERTEX
  5
2A0A
  8
0
  6
CONTINUOUS
 10
9.5167227546049062
 20
7.9274344323169821
 30
0.0
  0
VERTEX
  5
2A0B
  8
0
  6
CONTINUOUS
 10
9.4901273330049065
 20
7.9296998183169833
 30
0.0
  0
SEQEND
  5
2A0C
  8
0
  6
CONTINUOUS
  0
POLYLINE
  5
23FC
  8
0
  6
CONTINUOUS
 66
     1
 10
0.0
 20
0.0
 30
0.0
  0
VERTEX
  5
2A0D
  8
0
  6
CONTINUOUS
 10
-29.603353738395089
 20
19.782304639616981
 30
0.0
  0
VERTEX
  5
2A0E
  8
0
  6
CONTINUOUS
 10
-29.592311619295089
 20
19.78402705851699
 30
0.0
  0
VERTEX
  5
2A0F
  8
0
  6
CONTINUOUS
 10
-29.580946063495102
 20
19.786023236716979
 30
0.0
  0
VERTEX
  5
2A10
  8
0
  6
CONTINUOUS
 10
-29.569258852095089
 20
19.788311772416979
 30
0.0
  0
VERTEX
  5
2A11
  8
0
  6
CONTINUOUS
 10
-29.557269063495092
 20
19.790910467016982
 30
0.0
  0
VERTEX
  5
2A12
  8
0
  6
CONTINUOUS
 10
-29.544920728995098
 20
19.79386130511698
 30
0.0
  0
VERTEX
  5
2A13
  8
0
  6
CONTINUOUS
 10
-29.532210100695099
 20
19.797189898316979
 30
0.0
  0
VERTEX
  5
2A14
  8
0
  6
CONTINUOUS
 10
-29.519174876795098
 20
19.800918747316981
 30
0.0
  0
VERTEX
  5
2A15
  8
0
  6
CONTINUOUS
 10
-29.505828231195089
 20
19.80509589761698
 30
0.0
  0
VERTEX
  5
2A16
  8
0
  6
CONTINUOUS
 10
-29.492193568195098
 20
19.809757846816979
 30
0.0
  0
VERTEX
  5
2A17
  8
0
  6
CONTINUOUS
 10
-29.4783020421951
 20
19.814923461916969
 30
0.0
  0
VERTEX
  5
2A18
  8
0
  6
CONTINUOUS
 10
-29.46418526509509
 20
19.820617695016981
 30
0.0
  0
SEQEND
  5
2A19
  8
0
  6
CONTINUOUS
  0
POLYLINE
  5
23FD
  8
0
  6
CONTINUOUS
 66
     1
 10
0.0
 20
0.0
 30
0.0
  0
VERTEX
  5
2A1A
  8
0
  6
CONTINUOUS
 10
-29.645177315295101
 20
19.77771389641698
 30
0.0
  0
VERTEX
  5
2A1B
  8
0
  6
CONTINUOUS
 10
-29.635031779395089
 20
19.778544708116989
 30
0.0
  0
VERTEX
  5
2A1C
  8
0
  6
CONTINUOUS
 10
-29.624720476795101
 20
19.779575464916981
 30
0.0
  0
VERTEX
  5
2A1D
  8
0
  6
CONTINUOUS
 10
-29.614158546495091
 20
19.780824897216991
 30
0.0
  0
VERTEX
  5
2A1E
  8
0
  6
CONTINUOUS
 10
-29.603353738395089
 20
19.782304639616981
 30
0.0
  0
SEQEND
  5
2A1F
  8
0
  6
CONTINUOUS
  0
POLYLINE
  5
23FE
  8
0
  6
CONTINUOUS
 66
     1
 10
0.0
 20
0.0
 30
0.0
  0
VERTEX
  5
2A20
  8
0
  6
CONTINUOUS
 10
12.5677886264049
 20
10.174745893216979
 30
0.0
  0
VERTEX
  5
2A21
  8
0
  6
CONTINUOUS
 10
12.56825125330491
 20
10.16171911431698
 30
0.0
  0
VERTEX
  5
2A22
  8
0
  6
CONTINUOUS
 10
12.5719522682049
 20
10.13650707511699
 30
0.0
  0
VERTEX
  5
2A23
  8
0
  6
CONTINUOUS
 10
12.5795986418049
 20
10.112192112116981
 30
0.0
  0
VERTEX
  5
2A24
  8
0
  6
CONTINUOUS
 10
12.590946030304901
 20
10.08871866761698
 30
0.0
  0
VERTEX
  5
2A25
  8
0
  6
CONTINUOUS
 10
12.605261402304899
 20
10.06760310571698
 30
0.0
  0
VERTEX
  5
2A26
  8
0
  6
CONTINUOUS
 10
12.622740706404899
 20
10.04900109561698
 30
0.0
  0
VERTEX
  5
2A27
  8
0
  6
CONTINUOUS
 10
12.643187993904901
 20
10.032756968016979
 30
0.0
  0
VERTEX
  5
2A28
  8
0
  6
CONTINUOUS
 10
12.665282388104901
 20
10.01992007941698
 30
0.0
  0
VERTEX
  5
2A29
  8
0
  6
CONTINUOUS
 10
12.688583596504911
 20
10.01084021541698
 30
0.0
  0
VERTEX
  5
2A2A
  8
0
  6
CONTINUOUS
 10
12.71353191150491
 20
10.005167590416979
 30
0.0
  0
VERTEX
  5
2A2B
  8
0
  6
CONTINUOUS
 10
12.740127333004899
 20
10.00290220441698
 30
0.0
  0
SEQEND
  5
2A2C
  8
0
  6
CONTINUOUS
  0
POLYLINE
  5
23FF
  8
0
  6
CONTINUOUS
 66
     1
 10
0.0
 20
0.0
 30
0.0
  0
VERTEX
  5
2A2D
  8
0
  6
CONTINUOUS
 10
12.91246603970491
 20
10.174745893216979
 30
0.0
  0
VERTEX
  5
2A2E
  8
0
  6
CONTINUOUS
 10
12.912003412804911
 20
10.18777267211698
 30
0.0
  0
VERTEX
  5
2A2F
  8
0
  6
CONTINUOUS
 10
12.908302397904899
 20
10.212984711416979
 30
0.0
  0
VERTEX
  5
2A30
  8
0
  6
CONTINUOUS
 10
12.90065602430491
 20
10.237299674416979
 30
0.0
  0
VERTEX
  5
2A31
  8
0
  6
CONTINUOUS
 10
12.889308635804911
 20
10.26077311881698
 30
0.0
  0
VERTEX
  5
2A32
  8
0
  6
CONTINUOUS
 10
12.87499326380491
 20
10.28188868071698
 30
0.0
  0
VERTEX
  5
2A33
  8
0
  6
CONTINUOUS
 10
12.8575139597049
 20
10.300490690916989
 30
0.0
  0
VERTEX
  5
2A34
  8
0
  6
CONTINUOUS
 10
12.8370666722049
 20
10.316734818516981
 30
0.0
  0
VERTEX
  5
2A35
  8
0
  6
CONTINUOUS
 10
12.8149722780049
 20
10.32957170701698
 30
0.0
  0
VERTEX
  5
2A36
  8
0
  6
CONTINUOUS
 10
12.791671069604909
 20
10.33865157111698
 30
0.0
  0
VERTEX
  5
2A37
  8
0
  6
CONTINUOUS
 10
12.766722754604899
 20
10.344324196116981
 30
0.0
  0
VERTEX
  5
2A38
  8
0
  6
CONTINUOUS
 10
12.740127333004899
 20
10.34658958211698
 30
0.0
  0
SEQEND
  5
2A39
  8
0
  6
CONTINUOUS
  0
POLYLINE
  5
2400
  8
0
  6
CONTINUOUS
 66
     1
 10
0.0
 20
0.0
 30
0.0
  0
VERTEX
  5
2A3A
  8
0
  6
CONTINUOUS
 10
29.932294926504909
 20
20.86680066171699
 30
0.0
  0
VERTEX
  5
2A3B
  8
0
  6
CONTINUOUS
 10
29.881085243504899
 20
20.821836305116989
 30
0.0
  0
VERTEX
  5
2A3C
  8
0
  6
CONTINUOUS
 10
29.776294228604911
 20
20.71484421091699
 30
0.0
  0
VERTEX
  5
2A3D
  8
0
  6
CONTINUOUS
 10
29.676695495304909
 20
20.597731410516989
 30
0.0
  0
VERTEX
  5
2A3E
  8
0
  6
CONTINUOUS
 10
29.583372269904899
 20
20.47200975441698
 30
0.0
  0
VERTEX
  5
2A3F
  8
0
  6
CONTINUOUS
 10
29.496685628004911
 20
20.338183192616992
 30
0.0
  0
VERTEX
  5
2A40
  8
0
  6
CONTINUOUS
 10
29.416274494104911
 20
20.195747775116988
 30
0.0
  0
SEQEND
  5
2A41
  8
0
  6
CONTINUOUS
  0
POLYLINE
  5
2401
  8
0
  6
CONTINUOUS
 66
     1
 10
0.0
 20
0.0
 30
0.0
  0
VERTEX
  5
2A42
  8
0
  6
CONTINUOUS
 10
-30.13758735829509
 20
20.001580231116979
 30
0.0
  0
VERTEX
  5
2A43
  8
0
  6
CONTINUOUS
 10
-30.090848847895099
 20
20.010171179816979
 30
0.0
  0
VERTEX
  5
2A44
  8
0
  6
CONTINUOUS
 10
-30.072922832495092
 20
20.012786319716991
 30
0.0
  0
SEQEND
  5
2A45
  8
0
  6
CONTINUOUS
  0
POLYLINE
  5
2402
  8
0
  6
CONTINUOUS
 66
     1
 10
0.0
 20
0.0
 30
0.0
  0
VERTEX
  5
2A46
  8
0
  6
CONTINUOUS
 10
29.617841849604911
 20
20.001580553916991
 30
0.0
  0
VERTEX
  5
2A47
  8
0
  6
CONTINUOUS
 10
29.571103386704909
 20
20.01017202691698
 30
0.0
  0
VERTEX
  5
2A48
  8
0
  6
CONTINUOUS
 10
29.553211414704901
 20
20.012782426916981
 30
0.0
  0
SEQEND
  5
2A49
  8
0
  6
CONTINUOUS
  0
POLYLINE
  5
2403
  8
0
  6
CONTINUOUS
 66
     1
 10
0.0
 20
0.0
 30
0.0
  0
VERTEX
  5
2A4A
  8
0
  6
CONTINUOUS
 10
19.105261402304901
 20
10.09505157501698
 30
0.0
  0
VERTEX
  5
2A4B
  8
0
  6
CONTINUOUS
 10
19.122740706404901
 20
10.076449564816979
 30
0.0
  0
VERTEX
  5
2A4C
  8
0
  6
CONTINUOUS
 10
19.143187993904899
 20
10.060205437216981
 30
0.0
  0
VERTEX
  5
2A4D
  8
0
  6
CONTINUOUS
 10
19.165282388104899
 20
10.04736854871698
 30
0.0
  0
VERTEX
  5
2A4E
  8
0
  6
CONTINUOUS
 10
19.188583596504909
 20
10.03828868461698
 30
0.0
  0
VERTEX
  5
2A4F
  8
0
  6
CONTINUOUS
 10
19.213531911504909
 20
10.032616059616981
 30
0.0
  0
VERTEX
  5
2A50
  8
0
  6
CONTINUOUS
 10
19.24012733300491
 20
10.03035067361699
 30
0.0
  0
SEQEND
  5
2A51
  8
0
  6
CONTINUOUS
  0
POLYLINE
  5
2404
  8
0
  6
CONTINUOUS
 66
     1
 10
0.0
 20
0.0
 30
0.0
  0
VERTEX
  5
2A52
  8
0
  6
CONTINUOUS
 10
15.8177886264049
 20
7.757856129416985
 30
0.0
  0
VERTEX
  5
2A53
  8
0
  6
CONTINUOUS
 10
15.81825125330491
 20
7.744829350616981
 30
0.0
  0
VERTEX
  5
2A54
  8
0
  6
CONTINUOUS
 10
15.8219522682049
 20
7.7196173113169841
 30
0.0
  0
VERTEX
  5
2A55
  8
0
  6
CONTINUOUS
 10
15.8295986418049
 20
7.6953023483169822
 30
0.0
  0
VERTEX
  5
2A56
  8
0
  6
CONTINUOUS
 10
15.840946030304901
 20
7.6718289038169827
 30
0.0
  0
VERTEX
  5
2A57
  8
0
  6
CONTINUOUS
 10
15.855261402304899
 20
7.6507133419169833
 30
0.0
  0
VERTEX
  5
2A58
  8
0
  6
CONTINUOUS
 10
15.872740706404899
 20
7.632111331816982
 30
0.0
  0
VERTEX
  5
2A59
  8
0
  6
CONTINUOUS
 10
15.893187993904901
 20
7.6158672042169817
 30
0.0
  0
VERTEX
  5
2A5A
  8
0
  6
CONTINUOUS
 10
15.915282388104901
 20
7.6030303157169854
 30
0.0
  0
VERTEX
  5
2A5B
  8
0
  6
CONTINUOUS
 10
15.938583596504911
 20
7.5939504516169833
 30
0.0
  0
VERTEX
  5
2A5C
  8
0
  6
CONTINUOUS
 10
15.96353191150491
 20
7.5882778266169799
 30
0.0
  0
VERTEX
  5
2A5D
  8
0
  6
CONTINUOUS
 10
15.990127333004899
 20
7.5860124406169831
 30
0.0
  0
SEQEND
  5
2A5E
  8
0
  6
CONTINUOUS
  0
POLYLINE
  5
2405
  8
0
  6
CONTINUOUS
 66
     1
 10
0.0
 20
0.0
 30
0.0
  0
VERTEX
  5
2A5F
  8
0
  6
CONTINUOUS
 10
16.16246603970491
 20
7.757856129416985
 30
0.0
  0
VERTEX
  5
2A60
  8
0
  6
CONTINUOUS
 10
16.162003412804911
 20
7.7708829083169837
 30
0.0
  0
VERTEX
  5
2A61
  8
0
  6
CONTINUOUS
 10
16.158302397904901
 20
7.796094947616985
 30
0.0
  0
VERTEX
  5
2A62
  8
0
  6
CONTINUOUS
 10
16.150656024304901
 20
7.8204099106169842
 30
0.0
  0
VERTEX
  5
2A63
  8
0
  6
CONTINUOUS
 10
16.139308635804909
 20
7.8438833551169864
 30
0.0
  0
VERTEX
  5
2A64
  8
0
  6
CONTINUOUS
 10
16.12499326380491
 20
7.8649989170169832
 30
0.0
  0
VERTEX
  5
2A65
  8
0
  6
CONTINUOUS
 10
16.1075139597049
 20
7.8836009271169827
 30
0.0
  0
VERTEX
  5
2A66
  8
0
  6
CONTINUOUS
 10
16.087066672204902
 20
7.8998450547169803
 30
0.0
  0
VERTEX
  5
2A67
  8
0
  6
CONTINUOUS
 10
16.064972278004898
 20
7.9126819432169837
 30
0.0
  0
VERTEX
  5
2A68
  8
0
  6
CONTINUOUS
 10
16.041671069604909
 20
7.9217618073169831
 30
0.0
  0
VERTEX
  5
2A69
  8
0
  6
CONTINUOUS
 10
16.016722754604899
 20
7.9274344323169821
 30
0.0
  0
VERTEX
  5
2A6A
  8
0
  6
CONTINUOUS
 10
15.990127333004899
 20
7.9296998183169833
 30
0.0
  0
SEQEND
  5
2A6B
  8
0
  6
CONTINUOUS
  0
LINE
  5
2406
  8
0
  6
CONTINUOUS
 10
29.434442409204909
 20
19.863701025916988
 30
0.0
 11
29.475187687004901
 21
19.903263542516981
 31
0.0
  0
POLYLINE
  5
2407
  8
0
  6
CONTINUOUS
 66
     1
 10
0.0
 20
0.0
 30
0.0
  0
VERTEX
  5
2A6C
  8
0
  6
CONTINUOUS
 10
19.1537100102049
 20
7.2322655783169827
 30
0.0
  0
VERTEX
  5
2A6D
  8
0
  6
CONTINUOUS
 10
19.155111322104911
 20
7.2174903166169813
 30
0.0
  0
VERTEX
  5
2A6E
  8
0
  6
CONTINUOUS
 10
19.159085461904908
 20
7.2027150550169843
 30
0.0
  0
VERTEX
  5
2A6F
  8
0
  6
CONTINUOUS
 10
19.165287736104901
 20
7.1892213129169837
 30
0.0
  0
VERTEX
  5
2A70
  8
0
  6
CONTINUOUS
 10
19.173917153704899
 20
7.1771235512169831
 30
0.0
  0
VERTEX
  5
2A71
  8
0
  6
CONTINUOUS
 10
19.1847747057049
 20
7.1663073090169851
 30
0.0
  0
VERTEX
  5
2A72
  8
0
  6
CONTINUOUS
 10
19.196918671604902
 20
7.157710723816983
 30
0.0
  0
VERTEX
  5
2A73
  8
0
  6
CONTINUOUS
 10
19.210035144804898
 20
7.1516465080169844
 30
0.0
  0
VERTEX
  5
2A74
  8
0
  6
CONTINUOUS
 10
19.22443803190491
 20
7.1478019493169809
 30
0.0
  0
VERTEX
  5
2A75
  8
0
  6
CONTINUOUS
 10
19.24012733300491
 20
7.1461770476169866
 30
0.0
  0
SEQEND
  5
2A76
  8
0
  6
CONTINUOUS
  0
POLYLINE
  5
2408
  8
0
  6
CONTINUOUS
 66
     1
 10
0.0
 20
0.0
 30
0.0
  0
VERTEX
  5
2A77
  8
0
  6
CONTINUOUS
 10
19.155011640804911
 20
7.2459898129169806
 30
0.0
  0
VERTEX
  5
2A78
  8
0
  6
CONTINUOUS
 10
19.155111322104911
 20
7.244938785916986
 30
0.0
  0
VERTEX
  5
2A79
  8
0
  6
CONTINUOUS
 10
19.159085461904908
 20
7.2301635242169828
 30
0.0
  0
VERTEX
  5
2A7A
  8
0
  6
CONTINUOUS
 10
19.165287736104901
 20
7.2166697822169823
 30
0.0
  0
VERTEX
  5
2A7B
  8
0
  6
CONTINUOUS
 10
19.173917153704899
 20
7.2045720204169816
 30
0.0
  0
VERTEX
  5
2A7C
  8
0
  6
CONTINUOUS
 10
19.1847747057049
 20
7.1937557782169854
 30
0.0
  0
VERTEX
  5
2A7D
  8
0
  6
CONTINUOUS
 10
19.196918671604902
 20
7.185159193016986
 30
0.0
  0
VERTEX
  5
2A7E
  8
0
  6
CONTINUOUS
 10
19.210035144804898
 20
7.1790949773169821
 30
0.0
  0
VERTEX
  5
2A7F
  8
0
  6
CONTINUOUS
 10
19.22443803190491
 20
7.1752504186169856
 30
0.0
  0
SEQEND
  5
2A80
  8
0
  6
CONTINUOUS
  0
LINE
  5
2409
  8
0
  6
CONTINUOUS
 10
29.475187687004901
 20
19.903263542516981
 30
0.0
 11
29.51215624380491
 21
19.948833463116991
 31
0.0
  0
POLYLINE
  5
240A
  8
0
  6
CONTINUOUS
 66
     1
 10
0.0
 20
0.0
 30
0.0
  0
VERTEX
  5
2A81
  8
0
  6
CONTINUOUS
 10
28.750992600504901
 20
19.60833954291698
 30
0.0
  0
VERTEX
  5
2A82
  8
0
  6
CONTINUOUS
 10
28.776501884104899
 20
19.638019419816981
 30
0.0
  0
VERTEX
  5
2A83
  8
0
  6
CONTINUOUS
 10
28.801695259904911
 20
19.666949422116978
 30
0.0
  0
VERTEX
  5
2A84
  8
0
  6
CONTINUOUS
 10
28.826260771704909
 20
19.694771319316981
 30
0.0
  0
VERTEX
  5
2A85
  8
0
  6
CONTINUOUS
 10
28.849894237904909
 20
19.72114060221698
 30
0.0
  0
VERTEX
  5
2A86
  8
0
  6
CONTINUOUS
 10
28.87230301840491
 20
19.745730748216982
 30
0.0
  0
VERTEX
  5
2A87
  8
0
  6
CONTINUOUS
 10
28.89320963790491
 20
19.768237265016982
 30
0.0
  0
VERTEX
  5
2A88
  8
0
  6
CONTINUOUS
 10
28.91235522190491
 20
19.78838146111698
 30
0.0
  0
VERTEX
  5
2A89
  8
0
  6
CONTINUOUS
 10
28.929502702304909
 20
19.805913896316991
 30
0.0
  0
VERTEX
  5
2A8A
  8
0
  6
CONTINUOUS
 10
28.944439752704909
 20
19.820617470616991
 30
0.0
  0
SEQEND
  5
2A8B
  8
0
  6
CONTINUOUS
  0
POLYLINE
  5
240B
  8
0
  6
CONTINUOUS
 66
     1
 10
0.0
 20
0.0
 30
0.0
  0
VERTEX
  5
2A8C
  8
0
  6
CONTINUOUS
 10
28.944439931204911
 20
19.820617695016981
 30
0.0
  0
VERTEX
  5
2A8D
  8
0
  6
CONTINUOUS
 10
28.9585615549049
 20
19.814921694016981
 30
0.0
  0
VERTEX
  5
2A8E
  8
0
  6
CONTINUOUS
 10
28.97245072730491
 20
19.809757089916982
 30
0.0
  0
VERTEX
  5
2A8F
  8
0
  6
CONTINUOUS
 10
28.986075596504911
 20
19.805098399316989
 30
0.0
  0
VERTEX
  5
2A90
  8
0
  6
CONTINUOUS
 10
28.99940848480491
 20
19.800925087816982
 30
0.0
  0
VERTEX
  5
2A91
  8
0
  6
CONTINUOUS
 10
29.012422261004911
 20
19.797201491916979
 30
0.0
  0
VERTEX
  5
2A92
  8
0
  6
CONTINUOUS
 10
29.0250925156049
 20
19.79388201501698
 30
0.0
  0
VERTEX
  5
2A93
  8
0
  6
CONTINUOUS
 10
29.037373742204899
 20
19.79094466741698
 30
0.0
  0
VERTEX
  5
2A94
  8
0
  6
CONTINUOUS
 10
29.049277028404902
 20
19.788360656316978
 30
0.0
  0
VERTEX
  5
2A95
  8
0
  6
CONTINUOUS
 10
29.060869841204909
 20
19.786084857616981
 30
0.0
  0
VERTEX
  5
2A96
  8
0
  6
CONTINUOUS
 10
29.072133156404909
 20
19.784099131416991
 30
0.0
  0
VERTEX
  5
2A97
  8
0
  6
CONTINUOUS
 10
29.083065368004899
 20
19.782384526516982
 30
0.0
  0
VERTEX
  5
2A98
  8
0
  6
CONTINUOUS
 10
29.09376451440491
 20
19.780908105216991
 30
0.0
  0
VERTEX
  5
2A99
  8
0
  6
CONTINUOUS
 10
29.104223880704911
 20
19.77965800501698
 30
0.0
  0
VERTEX
  5
2A9A
  8
0
  6
CONTINUOUS
 10
29.114437200204911
 20
19.77862265711698
 30
0.0
  0
VERTEX
  5
2A9B
  8
0
  6
CONTINUOUS
 10
29.124505267704901
 20
19.777782282516981
 30
0.0
  0
VERTEX
  5
2A9C
  8
0
  6
CONTINUOUS
 10
29.134437170004912
 20
19.777130331316979
 30
0.0
  0
VERTEX
  5
2A9D
  8
0
  6
CONTINUOUS
 10
29.14421419380491
 20
19.776662172616991
 30
0.0
  0
VERTEX
  5
2A9E
  8
0
  6
CONTINUOUS
 10
29.153895903204901
 20
19.776370409316989
 30
0.0
  0
VERTEX
  5
2A9F
  8
0
  6
CONTINUOUS
 10
29.163484116304911
 20
19.77625244531697
 30
0.0
  0
VERTEX
  5
2AA0
  8
0
  6
CONTINUOUS
 10
29.164900631404912
 20
19.77624960131698
 30
0.0
  0
SEQEND
  5
2AA1
  8
0
  6
CONTINUOUS
  0
POLYLINE
  5
240C
  8
0
  6
CONTINUOUS
 66
     1
 10
0.0
 20
0.0
 30
0.0
  0
VERTEX
  5
2AA2
  8
0
  6
CONTINUOUS
 10
19.3265446559049
 20
7.2322655783169827
 30
0.0
  0
VERTEX
  5
2AA3
  8
0
  6
CONTINUOUS
 10
19.3251433440049
 20
7.2470408399169797
 30
0.0
  0
VERTEX
  5
2AA4
  8
0
  6
CONTINUOUS
 10
19.321169204204899
 20
7.2618161015169838
 30
0.0
  0
VERTEX
  5
2AA5
  8
0
  6
CONTINUOUS
 10
19.31496693000491
 20
7.2753098436169843
 30
0.0
  0
VERTEX
  5
2AA6
  8
0
  6
CONTINUOUS
 10
19.306337512404909
 20
7.2874076054169841
 30
0.0
  0
VERTEX
  5
2AA7
  8
0
  6
CONTINUOUS
 10
19.295479960404901
 20
7.2982238476169838
 30
0.0
  0
VERTEX
  5
2AA8
  8
0
  6
CONTINUOUS
 10
19.28333599450491
 20
7.3068204328169841
 30
0.0
  0
VERTEX
  5
2AA9
  8
0
  6
CONTINUOUS
 10
19.270219521304909
 20
7.3128846485169801
 30
0.0
  0
VERTEX
  5
2AAA
  8
0
  6
CONTINUOUS
 10
19.255816634204901
 20
7.3167292072169801
 30
0.0
  0
VERTEX
  5
2AAB
  8
0
  6
CONTINUOUS
 10
19.24012733300491
 20
7.3183541089169806
 30
0.0
  0
SEQEND
  5
2AAC
  8
0
  6
CONTINUOUS
  0
POLYLINE
  5
240D
  8
0
  6
CONTINUOUS
 66
     1
 10
0.0
 20
0.0
 30
0.0
  0
VERTEX
  5
2AAD
  8
0
  6
CONTINUOUS
 10
19.067788626404901
 20
10.174745893216979
 30
0.0
  0
VERTEX
  5
2AAE
  8
0
  6
CONTINUOUS
 10
19.068251253304911
 20
10.16171911431698
 30
0.0
  0
VERTEX
  5
2AAF
  8
0
  6
CONTINUOUS
 10
19.0719522682049
 20
10.13650707511699
 30
0.0
  0
VERTEX
  5
2AB0
  8
0
  6
CONTINUOUS
 10
19.0795986418049
 20
10.112192112116981
 30
0.0
  0
VERTEX
  5
2AB1
  8
0
  6
CONTINUOUS
 10
19.090946030304899
 20
10.08871866761698
 30
0.0
  0
VERTEX
  5
2AB2
  8
0
  6
CONTINUOUS
 10
19.105261402304901
 20
10.06760310571698
 30
0.0
  0
VERTEX
  5
2AB3
  8
0
  6
CONTINUOUS
 10
19.122740706404901
 20
10.04900109561698
 30
0.0
  0
VERTEX
  5
2AB4
  8
0
  6
CONTINUOUS
 10
19.143187993904899
 20
10.032756968016979
 30
0.0
  0
VERTEX
  5
2AB5
  8
0
  6
CONTINUOUS
 10
19.165282388104899
 20
10.01992007941698
 30
0.0
  0
VERTEX
  5
2AB6
  8
0
  6
CONTINUOUS
 10
19.188583596504909
 20
10.01084021541698
 30
0.0
  0
VERTEX
  5
2AB7
  8
0
  6
CONTINUOUS
 10
19.213531911504909
 20
10.005167590416979
 30
0.0
  0
VERTEX
  5
2AB8
  8
0
  6
CONTINUOUS
 10
19.24012733300491
 20
10.00290220441698
 30
0.0
  0
SEQEND
  5
2AB9
  8
0
  6
CONTINUOUS
  0
POLYLINE
  5
240E
  8
0
  6
CONTINUOUS
 66
     1
 10
0.0
 20
0.0
 30
0.0
  0
VERTEX
  5
2ABA
  8
0
  6
CONTINUOUS
 10
19.41246603970491
 20
10.174745893216979
 30
0.0
  0
VERTEX
  5
2ABB
  8
0
  6
CONTINUOUS
 10
19.412003412804911
 20
10.18777267211698
 30
0.0
  0
VERTEX
  5
2ABC
  8
0
  6
CONTINUOUS
 10
19.408302397904901
 20
10.212984711416979
 30
0.0
  0
VERTEX
  5
2ABD
  8
0
  6
CONTINUOUS
 10
19.400656024304912
 20
10.237299674416979
 30
0.0
  0
VERTEX
  5
2ABE
  8
0
  6
CONTINUOUS
 10
19.389308635804909
 20
10.26077311881698
 30
0.0
  0
VERTEX
  5
2ABF
  8
0
  6
CONTINUOUS
 10
19.37499326380491
 20
10.28188868071698
 30
0.0
  0
VERTEX
  5
2AC0
  8
0
  6
CONTINUOUS
 10
19.3575139597049
 20
10.300490690916989
 30
0.0
  0
VERTEX
  5
2AC1
  8
0
  6
CONTINUOUS
 10
19.337066672204902
 20
10.316734818516981
 30
0.0
  0
VERTEX
  5
2AC2
  8
0
  6
CONTINUOUS
 10
19.314972278004898
 20
10.32957170701698
 30
0.0
  0
VERTEX
  5
2AC3
  8
0
  6
CONTINUOUS
 10
19.291671069604909
 20
10.33865157111698
 30
0.0
  0
VERTEX
  5
2AC4
  8
0
  6
CONTINUOUS
 10
19.266722754604899
 20
10.344324196116981
 30
0.0
  0
VERTEX
  5
2AC5
  8
0
  6
CONTINUOUS
 10
19.24012733300491
 20
10.34658958211698
 30
0.0
  0
SEQEND
  5
2AC6
  8
0
  6
CONTINUOUS
  0
LINE
  5
240F
  8
0
  6
CONTINUOUS
 10
29.51215624380491
 20
19.948833463116991
 30
0.0
 11
29.5422307866049
 21
19.994789466516981
 31
0.0
  0
LINE
  5
2410
  8
0
  6
CONTINUOUS
 10
29.416274494104911
 20
20.195747775116988
 30
0.0
 11
29.342138868204898
 21
20.044703501916981
 31
0.0
  0
POLYLINE
  5
2411
  8
0
  6
CONTINUOUS
 66
     1
 10
0.0
 20
0.0
 30
0.0
  0
VERTEX
  5
2AC7
  8
0
  6
CONTINUOUS
 10
29.342138868204898
 20
20.044703501916981
 30
0.0
  0
VERTEX
  5
2AC8
  8
0
  6
CONTINUOUS
 10
29.32500394090491
 20
20.011646238316981
 30
0.0
  0
VERTEX
  5
2AC9
  8
0
  6
CONTINUOUS
 10
29.305675201304911
 20
19.98228108211698
 30
0.0
  0
VERTEX
  5
2ACA
  8
0
  6
CONTINUOUS
 10
29.284152649204909
 20
19.956608033316979
 30
0.0
  0
VERTEX
  5
2ACB
  8
0
  6
CONTINUOUS
 10
29.260067994104912
 20
19.934351631016991
 30
0.0
  0
VERTEX
  5
2ACC
  8
0
  6
CONTINUOUS
 10
29.233789526504911
 20
19.91578733601699
 30
0.0
  0
VERTEX
  5
2ACD
  8
0
  6
CONTINUOUS
 10
29.206422118304911
 20
19.901741531116979
 30
0.0
  0
VERTEX
  5
2ACE
  8
0
  6
CONTINUOUS
 10
29.178334059904909
 20
19.892489677116981
 30
0.0
  0
VERTEX
  5
2ACF
  8
0
  6
CONTINUOUS
 10
29.149157060904908
 20
19.887756313316981
 30
0.0
  0
VERTEX
  5
2AD0
  8
0
  6
CONTINUOUS
 10
29.118891121204911
 20
19.88754143951698
 30
0.0
  0
SEQEND
  5
2AD1
  8
0
  6
CONTINUOUS
  0
LINE
  5
2412
  8
0
  6
CONTINUOUS
 10
29.5421913495049
 20
19.994722434816978
 30
0.0
 11
29.5422307866049
 21
19.994789466516981
 31
0.0
  0
POLYLINE
  5
2413
  8
0
  6
CONTINUOUS
 66
     1
 10
0.0
 20
0.0
 30
0.0
  0
VERTEX
  5
2AD2
  8
0
  6
CONTINUOUS
 10
29.523333621104911
 20
19.79253914651698
 30
0.0
  0
VERTEX
  5
2AD3
  8
0
  6
CONTINUOUS
 10
29.53569246440491
 20
19.813456929916981
 30
0.0
  0
VERTEX
  5
2AD4
  8
0
  6
CONTINUOUS
 10
29.5477745162049
 20
19.83522860461699
 30
0.0
  0
VERTEX
  5
2AD5
  8
0
  6
CONTINUOUS
 10
29.559425247304912
 20
19.85772013661698
 30
0.0
  0
VERTEX
  5
2AD6
  8
0
  6
CONTINUOUS
 10
29.57066972630491
 20
19.881108279016981
 30
0.0
  0
VERTEX
  5
2AD7
  8
0
  6
CONTINUOUS
 10
29.58148177500491
 20
19.90521712771698
 30
0.0
  0
VERTEX
  5
2AD8
  8
0
  6
CONTINUOUS
 10
29.59162952570491
 20
19.929384023116992
 30
0.0
  0
VERTEX
  5
2AD9
  8
0
  6
CONTINUOUS
 10
29.601034782304911
 20
19.953388776516981
 30
0.0
  0
VERTEX
  5
2ADA
  8
0
  6
CONTINUOUS
 10
29.609772814204909
 20
19.97745382981698
 30
0.0
  0
SEQEND
  5
2ADB
  8
0
  6
CONTINUOUS
  0
POLYLINE
  5
2414
  8
0
  6
CONTINUOUS
 66
     1
 10
0.0
 20
0.0
 30
0.0
  0
VERTEX
  5
2ADC
  8
0
  6
CONTINUOUS
 10
29.542209156404908
 20
19.99471327931699
 30
0.0
  0
VERTEX
  5
2ADD
  8
0
  6
CONTINUOUS
 10
29.592718579504901
 20
20.07766554201698
 30
0.0
  0
VERTEX
  5
2ADE
  8
0
  6
CONTINUOUS
 10
29.711842047104909
 20
20.255561209816982
 30
0.0
  0
VERTEX
  5
2ADF
  8
0
  6
CONTINUOUS
 10
29.838037935704911
 20
20.420307570416981
 30
0.0
  0
VERTEX
  5
2AE0
  8
0
  6
CONTINUOUS
 10
29.970588960904909
 20
20.570764687416979
 30
0.0
  0
VERTEX
  5
2AE1
  8
0
  6
CONTINUOUS
 10
30.108797848804912
 20
20.705974782716979
 30
0.0
  0
VERTEX
  5
2AE2
  8
0
  6
CONTINUOUS
 10
30.25195211550491
 20
20.825050749616981
 30
0.0
  0
VERTEX
  5
2AE3
  8
0
  6
CONTINUOUS
 10
30.312120536104899
 20
20.86680066171699
 30
0.0
  0
SEQEND
  5
2AE4
  8
0
  6
CONTINUOUS
  0
LINE
  5
2415
  8
0
  6
CONTINUOUS
 10
24.931873491904909
 20
9.5457173008169818
 30
0.0
 11
31.063350864004899
 21
20.86680066171699
 31
0.0
  0
POLYLINE
  5
2416
  8
0
  6
CONTINUOUS
 66
     1
 10
0.0
 20
0.0
 30
0.0
  0
VERTEX
  5
2AE5
  8
0
  6
CONTINUOUS
 10
28.75111976670491
 20
19.608238649616979
 30
0.0
  0
VERTEX
  5
2AE6
  8
0
  6
CONTINUOUS
 10
28.77016669840491
 20
19.591765742616978
 30
0.0
  0
VERTEX
  5
2AE7
  8
0
  6
CONTINUOUS
 10
28.789179832404908
 20
19.576757100316978
 30
0.0
  0
VERTEX
  5
2AE8
  8
0
  6
CONTINUOUS
 10
28.808154514204912
 20
19.563212263816979
 30
0.0
  0
VERTEX
  5
2AE9
  8
0
  6
CONTINUOUS
 10
28.827153228904901
 20
19.551222302016981
 30
0.0
  0
VERTEX
  5
2AEA
  8
0
  6
CONTINUOUS
 10
28.846106782504911
 20
19.540694114716981
 30
0.0
  0
VERTEX
  5
2AEB
  8
0
  6
CONTINUOUS
 10
28.864814366504909
 20
19.531350214616982
 30
0.0
  0
VERTEX
  5
2AEC
  8
0
  6
CONTINUOUS
 10
28.883213331304908
 20
19.523180830316981
 30
0.0
  0
VERTEX
  5
2AED
  8
0
  6
CONTINUOUS
 10
28.901364498504911
 20
19.516191142916981
 30
0.0
  0
VERTEX
  5
2AEE
  8
0
  6
CONTINUOUS
 10
28.919252967804901
 20
19.51012606941698
 30
0.0
  0
VERTEX
  5
2AEF
  8
0
  6
CONTINUOUS
 10
28.93684979000491
 20
19.504957658216981
 30
0.0
  0
VERTEX
  5
2AF0
  8
0
  6
CONTINUOUS
 10
28.954184428204911
 20
19.500709375016982
 30
0.0
  0
VERTEX
  5
2AF1
  8
0
  6
CONTINUOUS
 10
28.971329137204901
 20
19.49720444741698
 30
0.0
  0
VERTEX
  5
2AF2
  8
0
  6
CONTINUOUS
 10
28.98827202080491
 20
19.49441446601698
 30
0.0
  0
VERTEX
  5
2AF3
  8
0
  6
CONTINUOUS
 10
29.005026085304909
 20
19.49236433261699
 30
0.0
  0
VERTEX
  5
2AF4
  8
0
  6
CONTINUOUS
 10
29.021699899004911
 20
19.490958719316978
 30
0.0
  0
VERTEX
  5
2AF5
  8
0
  6
CONTINUOUS
 10
29.038310049104911
 20
19.490175323416981
 30
0.0
  0
VERTEX
  5
2AF6
  8
0
  6
CONTINUOUS
 10
29.054840707904908
 20
19.490034165316981
 30
0.0
  0
VERTEX
  5
2AF7
  8
0
  6
CONTINUOUS
 10
29.071350931604911
 20
19.490504487516979
 30
0.0
  0
VERTEX
  5
2AF8
  8
0
  6
CONTINUOUS
 10
29.08784932600491
 20
19.491573791516981
 30
0.0
  0
VERTEX
  5
2AF9
  8
0
  6
CONTINUOUS
 10
29.10432810320491
 20
19.49325270251698
 30
0.0
  0
VERTEX
  5
2AFA
  8
0
  6
CONTINUOUS
 10
29.120821339304911
 20
19.495545623116989
 30
0.0
  0
VERTEX
  5
2AFB
  8
0
  6
CONTINUOUS
 10
29.137332863304898
 20
19.49844282861698
 30
0.0
  0
VERTEX
  5
2AFC
  8
0
  6
CONTINUOUS
 10
29.1538599231049
 20
19.501952240116982
 30
0.0
  0
VERTEX
  5
2AFD
  8
0
  6
CONTINUOUS
 10
29.170426643804909
 20
19.50610487201698
 30
0.0
  0
VERTEX
  5
2AFE
  8
0
  6
CONTINUOUS
 10
29.187041550404899
 20
19.510910429516979
 30
0.0
  0
VERTEX
  5
2AFF
  8
0
  6
CONTINUOUS
 10
29.20369760350491
 20
19.516357275516992
 30
0.0
  0
VERTEX
  5
2B00
  8
0
  6
CONTINUOUS
 10
29.220395648304908
 20
19.522444405916978
 30
0.0
  0
SEQEND
  5
2B01
  8
0
  6
CONTINUOUS
  0
POLYLINE
  5
2417
  8
0
  6
CONTINUOUS
 66
     1
 10
0.0
 20
0.0
 30
0.0
  0
VERTEX
  5
2B02
  8
0
  6
CONTINUOUS
 10
29.34213467660491
 20
20.044699255916989
 30
0.0
  0
VERTEX
  5
2B03
  8
0
  6
CONTINUOUS
 10
29.358052216804911
 20
20.02988298231698
 30
0.0
  0
VERTEX
  5
2B04
  8
0
  6
CONTINUOUS
 10
29.376736259804911
 20
20.015945409816979
 30
0.0
  0
VERTEX
  5
2B05
  8
0
  6
CONTINUOUS
 10
29.397478066204901
 20
20.00341523041698
 30
0.0
  0
VERTEX
  5
2B06
  8
0
  6
CONTINUOUS
 10
29.41949084010491
 20
19.99276774971699
 30
0.0
  0
VERTEX
  5
2B07
  8
0
  6
CONTINUOUS
 10
29.441939573904911
 20
19.984406857316969
 30
0.0
  0
VERTEX
  5
2B08
  8
0
  6
CONTINUOUS
 10
29.463972722804911
 20
19.978649705716979
 30
0.0
  0
VERTEX
  5
2B09
  8
0
  6
CONTINUOUS
 10
29.484754506604911
 20
19.97571468011699
 30
0.0
  0
VERTEX
  5
2B0A
  8
0
  6
CONTINUOUS
 10
29.503496612304911
 20
19.975713114816969
 30
0.0
  0
VERTEX
  5
2B0B
  8
0
  6
CONTINUOUS
 10
29.519488097504901
 20
19.97864506891699
 30
0.0
  0
VERTEX
  5
2B0C
  8
0
  6
CONTINUOUS
 10
29.532122359204909
 20
19.984399324916978
 30
0.0
  0
VERTEX
  5
2B0D
  8
0
  6
CONTINUOUS
 10
29.540920144104909
 20
19.992757607316982
 30
0.0
  0
VERTEX
  5
2B0E
  8
0
  6
CONTINUOUS
 10
29.5421913495049
 20
19.994722434816978
 30
0.0
  0
SEQEND
  5
2B0F
  8
0
  6
CONTINUOUS
  0
LINE
  5
2418
  8
0
  6
CONTINUOUS
 10
29.61784168770491
 20
20.00158067911698
 30
0.0
 11
29.6896608220049
 21
20.222436386216991
 31
0.0
  0
LINE
  5
2419
  8
0
  6
CONTINUOUS
 10
29.609772814204909
 20
19.97745382981698
 30
0.0
 11
29.61784168770491
 21
20.00158067911698
 31
0.0
  0
POLYLINE
  5
241A
  8
0
  6
CONTINUOUS
 66
     1
 10
0.0
 20
0.0
 30
0.0
  0
VERTEX
  5
2B10
  8
0
  6
CONTINUOUS
 10
28.593551035304909
 20
19.897962641916969
 30
0.0
  0
VERTEX
  5
2B11
  8
0
  6
CONTINUOUS
 10
28.595241948804912
 20
19.88020003301698
 30
0.0
  0
VERTEX
  5
2B12
  8
0
  6
CONTINUOUS
 10
28.597848544404911
 20
19.862433879416969
 30
0.0
  0
VERTEX
  5
2B13
  8
0
  6
CONTINUOUS
 10
28.60137082220491
 20
19.844664181216981
 30
0.0
  0
VERTEX
  5
2B14
  8
0
  6
CONTINUOUS
 10
28.605816398004912
 20
19.826827821316979
 30
0.0
  0
VERTEX
  5
2B15
  8
0
  6
CONTINUOUS
 10
28.611177656004909
 20
19.808987916816989
 30
0.0
  0
VERTEX
  5
2B16
  8
0
  6
CONTINUOUS
 10
28.617431748604911
 20
19.79133381901698
 30
0.0
  0
VERTEX
  5
2B17
  8
0
  6
CONTINUOUS
 10
28.624613937704911
 20
19.773857263616978
 30
0.0
  0
VERTEX
  5
2B18
  8
0
  6
CONTINUOUS
 10
28.632688961604909
 20
19.756566514816981
 30
0.0
  0
VERTEX
  5
2B19
  8
0
  6
CONTINUOUS
 10
28.64152818770491
 20
19.739675717116981
 30
0.0
  0
VERTEX
  5
2B1A
  8
0
  6
CONTINUOUS
 10
28.651146851504912
 20
19.723213741516979
 30
0.0
  0
VERTEX
  5
2B1B
  8
0
  6
CONTINUOUS
 10
28.66152971760491
 20
19.707151716816991
 30
0.0
  0
VERTEX
  5
2B1C
  8
0
  6
CONTINUOUS
 10
28.672502447304911
 20
19.691617174316988
 30
0.0
  0
VERTEX
  5
2B1D
  8
0
  6
CONTINUOUS
 10
28.683979689704909
 20
19.676708790116979
 30
0.0
  0
VERTEX
  5
2B1E
  8
0
  6
CONTINUOUS
 10
28.696046795604911
 20
19.662327888116991
 30
0.0
  0
VERTEX
  5
2B1F
  8
0
  6
CONTINUOUS
 10
28.708785479604899
 20
19.648305970416981
 30
0.0
  0
VERTEX
  5
2B20
  8
0
  6
CONTINUOUS
 10
28.72222297950491
 20
19.634586871216982
 30
0.0
  0
VERTEX
  5
2B21
  8
0
  6
CONTINUOUS
 10
28.736332057404908
 20
19.621226756416991
 30
0.0
  0
VERTEX
  5
2B22
  8
0
  6
CONTINUOUS
 10
28.751112713304909
 20
19.608225626016988
 30
0.0
  0
SEQEND
  5
2B23
  8
0
  6
CONTINUOUS
  0
LINE
  5
241B
  8
0
  6
CONTINUOUS
 10
28.52368628140491
 20
20.86680066171699
 30
0.0
 11
28.593551035304909
 21
19.897962641916969
 31
0.0
  0
LINE
  5
241C
  8
0
  6
CONTINUOUS
 10
28.782596725004911
 20
20.86680066171699
 30
0.0
 11
28.851835401504911
 21
19.90664466661698
 31
0.0
  0
POLYLINE
  5
241D
  8
0
  6
CONTINUOUS
 66
     1
 10
0.0
 20
0.0
 30
0.0
  0
VERTEX
  5
2B24
  8
0
  6
CONTINUOUS
 10
29.220395680404909
 20
19.52244437871698
 30
0.0
  0
VERTEX
  5
2B25
  8
0
  6
CONTINUOUS
 10
29.210631862104911
 20
19.575279620416978
 30
0.0
  0
VERTEX
  5
2B26
  8
0
  6
CONTINUOUS
 10
29.203639735404909
 20
19.624593925216981
 30
0.0
  0
VERTEX
  5
2B27
  8
0
  6
CONTINUOUS
 10
29.19960371590491
 20
19.669085994016982
 30
0.0
  0
VERTEX
  5
2B28
  8
0
  6
CONTINUOUS
 10
29.198630204304902
 20
19.707581771216979
 30
0.0
  0
VERTEX
  5
2B29
  8
0
  6
CONTINUOUS
 10
29.200744779604911
 20
19.739065424616982
 30
0.0
  0
VERTEX
  5
2B2A
  8
0
  6
CONTINUOUS
 10
29.205891525604908
 20
19.76270615131698
 30
0.0
  0
VERTEX
  5
2B2B
  8
0
  6
CONTINUOUS
 10
29.213934508304909
 20
19.77788010061699
 30
0.0
  0
SEQEND
  5
2B2C
  8
0
  6
CONTINUOUS
  0
POLYLINE
  5
241E
  8
0
  6
CONTINUOUS
 66
     1
 10
0.0
 20
0.0
 30
0.0
  0
VERTEX
  5
2B2D
  8
0
  6
CONTINUOUS
 10
28.851835401504911
 20
19.90664466661698
 30
0.0
  0
VERTEX
  5
2B2E
  8
0
  6
CONTINUOUS
 10
28.852754386004911
 20
19.901424720716982
 30
0.0
  0
VERTEX
  5
2B2F
  8
0
  6
CONTINUOUS
 10
28.854221737104911
 20
19.896171235516992
 30
0.0
  0
VERTEX
  5
2B30
  8
0
  6
CONTINUOUS
 10
28.856239408504909
 20
19.890895019516979
 30
0.0
  0
VERTEX
  5
2B31
  8
0
  6
CONTINUOUS
 10
28.858813777604912
 20
19.88559717741698
 30
0.0
  0
VERTEX
  5
2B32
  8
0
  6
CONTINUOUS
 10
28.861941703304911
 20
19.880299144516979
 30
0.0
  0
VERTEX
  5
2B33
  8
0
  6
CONTINUOUS
 10
28.865607778804911
 20
19.87504145661698
 30
0.0
  0
VERTEX
  5
2B34
  8
0
  6
CONTINUOUS
 10
28.86982566460491
 20
19.869829439716991
 30
0.0
  0
VERTEX
  5
2B35
  8
0
  6
CONTINUOUS
 10
28.874577196904909
 20
19.864678412016978
 30
0.0
  0
VERTEX
  5
2B36
  8
0
  6
CONTINUOUS
 10
28.879792876604899
 20
19.859640129316979
 30
0.0
  0
VERTEX
  5
2B37
  8
0
  6
CONTINUOUS
 10
28.885471784704912
 20
19.854725423716982
 30
0.0
  0
VERTEX
  5
2B38
  8
0
  6
CONTINUOUS
 10
28.8916014630049
 20
19.849936762216981
 30
0.0
  0
VERTEX
  5
2B39
  8
0
  6
CONTINUOUS
 10
28.898089617304912
 20
19.84530782811699
 30
0.0
  0
VERTEX
  5
2B3A
  8
0
  6
CONTINUOUS
 10
28.904880696804899
 20
19.840869592016979
 30
0.0
  0
VERTEX
  5
2B3B
  8
0
  6
CONTINUOUS
 10
28.912011686204899
 20
19.836594822416981
 30
0.0
  0
VERTEX
  5
2B3C
  8
0
  6
CONTINUOUS
 10
28.919531514804909
 20
19.83243127601699
 30
0.0
  0
VERTEX
  5
2B3D
  8
0
  6
CONTINUOUS
 10
28.927455317204899
 20
19.828367526616979
 30
0.0
  0
VERTEX
  5
2B3E
  8
0
  6
CONTINUOUS
 10
28.935759752504911
 20
19.824427839116979
 30
0.0
  0
VERTEX
  5
2B3F
  8
0
  6
CONTINUOUS
 10
28.944439931204911
 20
19.820617695016981
 30
0.0
  0
SEQEND
  5
2B40
  8
0
  6
CONTINUOUS
  0
POLYLINE
  5
241F
  8
0
  6
CONTINUOUS
 66
     1
 10
0.0
 20
0.0
 30
0.0
  0
VERTEX
  5
2B41
  8
0
  6
CONTINUOUS
 10
29.118891121204911
 20
19.88754143951698
 30
0.0
  0
VERTEX
  5
2B42
  8
0
  6
CONTINUOUS
 10
29.121866768704901
 20
19.863798573416979
 30
0.0
  0
VERTEX
  5
2B43
  8
0
  6
CONTINUOUS
 10
29.128341301604902
 20
19.841464651816981
 30
0.0
  0
VERTEX
  5
2B44
  8
0
  6
CONTINUOUS
 10
29.13807050150491
 20
19.821382106916971
 30
0.0
  0
VERTEX
  5
2B45
  8
0
  6
CONTINUOUS
 10
29.150685641604909
 20
19.804310371816989
 30
0.0
  0
VERTEX
  5
2B46
  8
0
  6
CONTINUOUS
 10
29.1657120212049
 20
19.790890554616979
 30
0.0
  0
VERTEX
  5
2B47
  8
0
  6
CONTINUOUS
 10
29.18258960160491
 20
19.781626070716982
 30
0.0
  0
VERTEX
  5
2B48
  8
0
  6
CONTINUOUS
 10
29.200685469704911
 20
19.77687110461699
 30
0.0
  0
SEQEND
  5
2B49
  8
0
  6
CONTINUOUS
  0
LINE
  5
2420
  8
0
  6
CONTINUOUS
 10
33.15005493460491
 20
21.50884780281698
 30
0.0
 11
33.206226780904913
 21
20.86680066171699
 31
0.0
  0
ARC
  5
2421
  8
0
  6
CONTINUOUS
 10
27.424426215104901
 20
8.1957554523169822
 30
0.0
 40
2.8346456692999999
 50
151.5601083382999
 51
177.0023901955999
  0
ARC
  5
2422
  8
0
  6
CONTINUOUS
 10
-27.94417154899509
 20
8.1957554523169822
 30
0.0
 40
2.8346456692999999
 50
2.9972739235999128
 51
28.442517215300121
  0
ARC
  5
2423
  8
0
  6
CONTINUOUS
 10
32.561750979004913
 20
21.457377876016981
 30
0.0
 40
0.5905511811000002
 50
4.9999999999999822
 51
90.537989949600245
  0
ARC
  5
2424
  8
0
  6
CONTINUOUS
 10
-33.081496312895098
 20
21.457377876016981
 30
0.0
 40
0.5905511811000002
 50
89.462010050399741
 51
175.0
  0
POLYLINE
  5
2425
  8
0
 66
     1
 10
0.0
 20
0.0
 30
0.0
  0
VERTEX
  5
2426
  8
0
 10
5.8783987723402609
 20
3.4472462972663029
 30
0.0
  0
VERTEX
  5
2427
  8
0
 10
24.341254587998758
 20
3.4472462972663029
 30
0.0
  0
VERTEX
  5
2428
  8
0
 10
24.59365914279384
 20
8.3439912536630985
 30
0.0
  0
SEQEND
  5
2429
  8
0
  0
LINE
  5
242A
  8
0
 10
-6.3321089167917251
 20
3.4442750455017399
 30
0.0
 11
-24.852456908830121
 21
3.4442750455017399
 31
0.0
  0
POLYLINE
  8
0
  5
2B4A
  66
     1
 10
0.000000
 20
0.000000
 30
0.000000
  70
     8
  0
VERTEX
  8
0
  5
2B4B
 10
-19.6794
 20
0.000000
 30
0.000000
  70
    32
  0
VERTEX
  8
0
  5
2B4C
 10
-19.6790
 20
2.37221e-006
 30
0.000000
  70
    32
  0
VERTEX
  8
0
  5
2B4D
 10
-19.6786
 20
9.47200e-006
 30
0.000000
  70
    32
  0
VERTEX
  8
0
  5
2B4E
 10
-19.6781
 20
2.12741e-005
 30
0.000000
  70
    32
  0
VERTEX
  8
0
  5
2B4F
 10
-19.6777
 20
3.77534e-005
 30
0.000000
  70
    32
  0
VERTEX
  8
0
  5
2B50
 10
-19.6773
 20
5.88845e-005
 30
0.000000
  70
    32
  0
VERTEX
  8
0
  5
2B51
 10
-19.6769
 20
8.46422e-005
 30
0.000000
  70
    32
  0
VERTEX
  8
0
  5
2B52
 10
-19.6764
 20
0.000115001
 30
0.000000
  70
    32
  0
VERTEX
  8
0
  5
2B53
 10
-19.6760
 20
0.000149937
 30
0.000000
  70
    32
  0
VERTEX
  8
0
  5
2B54
 10
-19.6756
 20
0.000189423
 30
0.000000
  70
    32
  0
VERTEX
  8
0
  5
2B55
 10
-19.6752
 20
0.000233435
 30
0.000000
  70
    32
  0
VERTEX
  8
0
  5
2B56
 10
-19.6748
 20
0.000281947
 30
0.000000
  70
    32
  0
VERTEX
  8
0
  5
2B57
 10
-19.6743
 20
0.000334934
 30
0.000000
  70
    32
  0
VERTEX
  8
0
  5
2B58
 10
-19.6739
 20
0.000392372
 30
0.000000
  70
    32
  0
VERTEX
  8
0
  5
2B59
 10
-19.6735
 20
0.000454234
 30
0.000000
  70
    32
  0
VERTEX
  8
0
  5
2B5A
 10
-19.6731
 20
0.000520496
 30
0.000000
  70
    32
  0
VERTEX
  8
0
  5
2B5B
 10
-19.6727
 20
0.000591131
 30
0.000000
  70
    32
  0
VERTEX
  8
0
  5
2B5C
 10
-19.6723
 20
0.000666116
 30
0.000000
  70
    32
  0
VERTEX
  8
0
  5
2B5D
 10
-19.6719
 20
0.000745425
 30
0.000000
  70
    32
  0
VERTEX
  8
0
  5
2B5E
 10
-19.6714
 20
0.000829032
 30
0.000000
  70
    32
  0
VERTEX
  8
0
  5
2B5F
 10
-19.6710
 20
0.000916912
 30
0.000000
  70
    32
  0
VERTEX
  8
0
  5
2B60
 10
-19.6706
 20
0.00100904
 30
0.000000
  70
    32
  0
VERTEX
  8
0
  5
2B61
 10
-19.6702
 20
0.00110539
 30
0.000000
  70
    32
  0
VERTEX
  8
0
  5
2B62
 10
-19.6698
 20
0.00120594
 30
0.000000
  70
    32
  0
VERTEX
  8
0
  5
2B63
 10
-19.6694
 20
0.00131066
 30
0.000000
  70
    32
  0
VERTEX
  8
0
  5
2B64
 10
-19.6690
 20
0.00141953
 30
0.000000
  70
    32
  0
VERTEX
  8
0
  5
2B65
 10
-19.6686
 20
0.00153252
 30
0.000000
  70
    32
  0
VERTEX
  8
0
  5
2B66
 10
-19.6682
 20
0.00164961
 30
0.000000
  70
    32
  0
VERTEX
  8
0
  5
2B67
 10
-19.6678
 20
0.00177076
 30
0.000000
  70
    32
  0
VERTEX
  8
0
  5
2B68
 10
-19.6674
 20
0.00189597
 30
0.000000
  70
    32
  0
VERTEX
  8
0
  5
2B69
 10
-19.6670
 20
0.00202519
 30
0.000000
  70
    32
  0
VERTEX
  8
0
  5
2B6A
 10
-19.6666
 20
0.00215841
 30
0.000000
  70
    32
  0
VERTEX
  8
0
  5
2B6B
 10
-19.6662
 20
0.00229561
 30
0.000000
  70
    32
  0
VERTEX
  8
0
  5
2B6C
 10
-19.6659
 20
0.00243674
 30
0.000000
  70
    32
  0
VERTEX
  8
0
  5
2B6D
 10
-19.6655
 20
0.00258180
 30
0.000000
  70
    32
  0
VERTEX
  8
0
  5
2B6E
 10
-19.6651
 20
0.00273075
 30
0.000000
  70
    32
  0
VERTEX
  8
0
  5
2B6F
 10
-19.6647
 20
0.00288357
 30
0.000000
  70
    32
  0
VERTEX
  8
0
  5
2B70
 10
-19.6643
 20
0.00304023
 30
0.000000
  70
    32
  0
VERTEX
  8
0
  5
2B71
 10
-19.6639
 20
0.00320072
 30
0.000000
  70
    32
  0
VERTEX
  8
0
  5
2B72
 10
-19.6636
 20
0.00336499
 30
0.000000
  70
    32
  0
VERTEX
  8
0
  5
2B73
 10
-19.6632
 20
0.00353304
 30
0.000000
  70
    32
  0
VERTEX
  8
0
  5
2B74
 10
-19.6628
 20
0.00370483
 30
0.000000
  70
    32
  0
VERTEX
  8
0
  5
2B75
 10
-19.6624
 20
0.00388034
 30
0.000000
  70
    32
  0
VERTEX
  8
0
  5
2B76
 10
-19.6621
 20
0.00405954
 30
0.000000
  70
    32
  0
VERTEX
  8
0
  5
2B77
 10
-19.6617
 20
0.00424240
 30
0.000000
  70
    32
  0
VERTEX
  8
0
  5
2B78
 10
-19.6613
 20
0.00442891
 30
0.000000
  70
    32
  0
VERTEX
  8
0
  5
2B79
 10
-19.6610
 20
0.00461904
 30
0.000000
  70
    32
  0
VERTEX
  8
0
  5
2B7A
 10
-19.6606
 20
0.00481276
 30
0.000000
  70
    32
  0
VERTEX
  8
0
  5
2B7B
 10
-19.6602
 20
0.00501004
 30
0.000000
  70
    32
  0
VERTEX
  8
0
  5
2B7C
 10
-19.6599
 20
0.00521087
 30
0.000000
  70
    32
  0
VERTEX
  8
0
  5
2B7D
 10
-19.6595
 20
0.00541521
 30
0.000000
  70
    32
  0
VERTEX
  8
0
  5
2B7E
 10
-19.6592
 20
0.00562304
 30
0.000000
  70
    32
  0
VERTEX
  8
0
  5
2B7F
 10
-19.6588
 20
0.00583434
 30
0.000000
  70
    32
  0
VERTEX
  8
0
  5
2B80
 10
-19.6585
 20
0.00604908
 30
0.000000
  70
    32
  0
VERTEX
  8
0
  5
2B81
 10
-19.6581
 20
0.00626724
 30
0.000000
  70
    32
  0
VERTEX
  8
0
  5
2B82
 10
-19.6578
 20
0.00648878
 30
0.000000
  70
    32
  0
VERTEX
  8
0
  5
2B83
 10
-19.6574
 20
0.00671369
 30
0.000000
  70
    32
  0
VERTEX
  8
0
  5
2B84
 10
-19.6571
 20
0.00694194
 30
0.000000
  70
    32
  0
VERTEX
  8
0
  5
2B85
 10
-19.6568
 20
0.00717350
 30
0.000000
  70
    32
  0
VERTEX
  8
0
  5
2B86
 10
-19.6564
 20
0.00740835
 30
0.000000
  70
    32
  0
VERTEX
  8
0
  5
2B87
 10
-19.6561
 20
0.00764647
 30
0.000000
  70
    32
  0
VERTEX
  8
0
  5
2B88
 10
-19.6558
 20
0.00788782
 30
0.000000
  70
    32
  0
VERTEX
  8
0
  5
2B89
 10
-19.6554
 20
0.00813239
 30
0.000000
  70
    32
  0
VERTEX
  8
0
  5
2B8A
 10
-19.6551
 20
0.00838014
 30
0.000000
  70
    32
  0
VERTEX
  8
0
  5
2B8B
 10
-19.6548
 20
0.00863106
 30
0.000000
  70
    32
  0
VERTEX
  8
0
  5
2B8C
 10
-19.6545
 20
0.00888512
 30
0.000000
  70
    32
  0
VERTEX
  8
0
  5
2B8D
 10
-19.6542
 20
0.00914228
 30
0.000000
  70
    32
  0
VERTEX
  8
0
  5
2B8E
 10
-19.6538
 20
0.00940254
 30
0.000000
  70
    32
  0
VERTEX
  8
0
  5
2B8F
 10
-19.6535
 20
0.00966585
 30
0.000000
  70
    32
  0
VERTEX
  8
0
  5
2B90
 10
-19.6532
 20
0.00993221
 30
0.000000
  70
    32
  0
VERTEX
  8
0
  5
2B91
 10
-19.6529
 20
0.0102016
 30
0.000000
  70
    32
  0
VERTEX
  8
0
  5
2B92
 10
-19.6526
 20
0.0104739
 30
0.000000
  70
    32
  0
VERTEX
  8
0
  5
2B93
 10
-19.6523
 20
0.0107492
 30
0.000000
  70
    32
  0
VERTEX
  8
0
  5
2B94
 10
-19.6520
 20
0.0110275
 30
0.000000
  70
    32
  0
VERTEX
  8
0
  5
2B95
 10
-19.6517
 20
0.0113086
 30
0.000000
  70
    32
  0
VERTEX
  8
0
  5
2B96
 10
-19.6514
 20
0.0115927
 30
0.000000
  70
    32
  0
VERTEX
  8
0
  5
2B97
 10
-19.6512
 20
0.0118796
 30
0.000000
  70
    32
  0
VERTEX
  8
0
  5
2B98
 10
-19.6509
 20
0.0121693
 30
0.000000
  70
    32
  0
VERTEX
  8
0
  5
2B99
 10
-19.6506
 20
0.0124619
 30
0.000000
  70
    32
  0
VERTEX
  8
0
  5
2B9A
 10
-19.6503
 20
0.0127572
 30
0.000000
  70
    32
  0
VERTEX
  8
0
  5
2B9B
 10
-19.6500
 20
0.0130553
 30
0.000000
  70
    32
  0
VERTEX
  8
0
  5
2B9C
 10
-19.6498
 20
0.0133561
 30
0.000000
  70
    32
  0
VERTEX
  8
0
  5
2B9D
 10
-19.6495
 20
0.0136596
 30
0.000000
  70
    32
  0
VERTEX
  8
0
  5
2B9E
 10
-19.6492
 20
0.0139658
 30
0.000000
  70
    32
  0
VERTEX
  8
0
  5
2B9F
 10
-19.6490
 20
0.0142747
 30
0.000000
  70
    32
  0
VERTEX
  8
0
  5
2BA0
 10
-19.6487
 20
0.0145862
 30
0.000000
  70
    32
  0
VERTEX
  8
0
  5
2BA1
 10
-19.6484
 20
0.0149003
 30
0.000000
  70
    32
  0
VERTEX
  8
0
  5
2BA2
 10
-19.6482
 20
0.0152170
 30
0.000000
  70
    32
  0
VERTEX
  8
0
  5
2BA3
 10
-19.6479
 20
0.0155363
 30
0.000000
  70
    32
  0
VERTEX
  8
0
  5
2BA4
 10
-19.6477
 20
0.0158581
 30
0.000000
  70
    32
  0
VERTEX
  8
0
  5
2BA5
 10
-19.6474
 20
0.0161824
 30
0.000000
  70
    32
  0
VERTEX
  8
0
  5
2BA6
 10
-19.6472
 20
0.0165091
 30
0.000000
  70
    32
  0
VERTEX
  8
0
  5
2BA7
 10
-19.6470
 20
0.0168384
 30
0.000000
  70
    32
  0
VERTEX
  8
0
  5
2BA8
 10
-19.6467
 20
0.0171700
 30
0.000000
  70
    32
  0
VERTEX
  8
0
  5
2BA9
 10
-19.6465
 20
0.0175041
 30
0.000000
  70
    32
  0
VERTEX
  8
0
  5
2BAA
 10
-19.6463
 20
0.0178405
 30
0.000000
  70
    32
  0
VERTEX
  8
0
  5
2BAB
 10
-19.6461
 20
0.0181793
 30
0.000000
  70
    32
  0
VERTEX
  8
0
  5
2BAC
 10
-19.6458
 20
0.0185205
 30
0.000000
  70
    32
  0
VERTEX
  8
0
  5
2BAD
 10
-19.6456
 20
0.0188639
 30
0.000000
  70
    32
  0
VERTEX
  8
0
  5
2BAE
 10
-19.6454
 20
0.0192096
 30
0.000000
  70
    32
  0
VERTEX
  8
0
  5
2BAF
 10
-19.6452
 20
0.0195576
 30
0.000000
  70
    32
  0
VERTEX
  8
0
  5
2BB0
 10
-19.6450
 20
0.0199078
 30
0.000000
  70
    32
  0
VERTEX
  8
0
  5
2BB1
 10
-19.6448
 20
0.0202602
 30
0.000000
  70
    32
  0
VERTEX
  8
0
  5
2BB2
 10
-19.6446
 20
0.0206147
 30
0.000000
  70
    32
  0
VERTEX
  8
0
  5
2BB3
 10
-19.6444
 20
0.0209715
 30
0.000000
  70
    32
  0
VERTEX
  8
0
  5
2BB4
 10
-19.6442
 20
0.0213303
 30
0.000000
  70
    32
  0
VERTEX
  8
0
  5
2BB5
 10
-19.6440
 20
0.0216913
 30
0.000000
  70
    32
  0
VERTEX
  8
0
  5
2BB6
 10
-19.6438
 20
0.0220543
 30
0.000000
  70
    32
  0
VERTEX
  8
0
  5
2BB7
 10
-19.6437
 20
0.0224194
 30
0.000000
  70
    32
  0
VERTEX
  8
0
  5
2BB8
 10
-19.6435
 20
0.0227865
 30
0.000000
  70
    32
  0
VERTEX
  8
0
  5
2BB9
 10
-19.6433
 20
0.0231557
 30
0.000000
  70
    32
  0
VERTEX
  8
0
  5
2BBA
 10
-19.6432
 20
0.0235268
 30
0.000000
  70
    32
  0
VERTEX
  8
0
  5
2BBB
 10
-19.6430
 20
0.0238998
 30
0.000000
  70
    32
  0
VERTEX
  8
0
  5
2BBC
 10
-19.6428
 20
0.0242748
 30
0.000000
  70
    32
  0
VERTEX
  8
0
  5
2BBD
 10
-19.6427
 20
0.0246517
 30
0.000000
  70
    32
  0
VERTEX
  8
0
  5
2BBE
 10
-19.6425
 20
0.0250304
 30
0.000000
  70
    32
  0
VERTEX
  8
0
  5
2BBF
 10
-19.6424
 20
0.0254110
 30
0.000000
  70
    32
  0
VERTEX
  8
0
  5
2BC0
 10
-19.6423
 20
0.0257934
 30
0.000000
  70
    32
  0
VERTEX
  8
0
  5
2BC1
 10
-19.6421
 20
0.0261777
 30
0.000000
  70
    32
  0
VERTEX
  8
0
  5
2BC2
 10
-19.6420
 20
0.0265637
 30
0.000000
  70
    32
  0
VERTEX
  8
0
  5
2BC3
 10
-19.6419
 20
0.0269514
 30
0.000000
  70
    32
  0
VERTEX
  8
0
  5
2BC4
 10
-19.6417
 20
0.0273409
 30
0.000000
  70
    32
  0
VERTEX
  8
0
  5
2BC5
 10
-19.6416
 20
0.0277321
 30
0.000000
  70
    32
  0
VERTEX
  8
0
  5
2BC6
 10
-19.6415
 20
0.0281249
 30
0.000000
  70
    32
  0
VERTEX
  8
0
  5
2BC7
 10
-19.6414
 20
0.0285194
 30
0.000000
  70
    32
  0
VERTEX
  8
0
  5
2BC8
 10
-19.6413
 20
0.0289155
 30
0.000000
  70
    32
  0
VERTEX
  8
0
  5
2BC9
 10
-19.6412
 20
0.0293132
 30
0.000000
  70
    32
  0
VERTEX
  8
0
  5
2BCA
 10
-19.6411
 20
0.0297125
 30
0.000000
  70
    32
  0
SEQEND
  8
0
  5
2BCB
  0
POLYLINE
  8
0
  5
2BCC
  66
     1
 10
0.000000
 20
0.000000
 30
0.000000
  70
     8
  0
VERTEX
  8
0
  5
2BCD
 10
-20.1735
 20
0.0297125
 30
0.000000
  70
    32
  0
VERTEX
  8
0
  5
2BCE
 10
-20.1734
 20
0.0292994
 30
0.000000
  70
    32
  0
VERTEX
  8
0
  5
2BCF
 10
-20.1733
 20
0.0288883
 30
0.000000
  70
    32
  0
VERTEX
  8
0
  5
2BD0
 10
-20.1732
 20
0.0284792
 30
0.000000
  70
    32
  0
VERTEX
  8
0
  5
2BD1
 10
-20.1731
 20
0.0280722
 30
0.000000
  70
    32
  0
VERTEX
  8
0
  5
2BD2
 10
-20.1730
 20
0.0276673
 30
0.000000
  70
    32
  0
VERTEX
  8
0
  5
2BD3
 10
-20.1729
 20
0.0272644
 30
0.000000
  70
    32
  0
VERTEX
  8
0
  5
2BD4
 10
-20.1727
 20
0.0268637
 30
0.000000
  70
    32
  0
VERTEX
  8
0
  5
2BD5
 10
-20.1726
 20
0.0264651
 30
0.000000
  70
    32
  0
VERTEX
  8
0
  5
2BD6
 10
-20.1725
 20
0.0260686
 30
0.000000
  70
    32
  0
VERTEX
  8
0
  5
2BD7
 10
-20.1723
 20
0.0256743
 30
0.000000
  70
    32
  0
VERTEX
  8
0
  5
2BD8
 10
-20.1722
 20
0.0252822
 30
0.000000
  70
    32
  0
VERTEX
  8
0
  5
2BD9
 10
-20.1720
 20
0.0248923
 30
0.000000
  70
    32
  0
VERTEX
  8
0
  5
2BDA
 10
-20.1719
 20
0.0245046
 30
0.000000
  70
    32
  0
VERTEX
  8
0
  5
2BDB
 10
-20.1717
 20
0.0241192
 30
0.000000
  70
    32
  0
VERTEX
  8
0
  5
2BDC
 10
-20.1716
 20
0.0237360
 30
0.000000
  70
    32
  0
VERTEX
  8
0
  5
2BDD
 10
-20.1714
 20
0.0233552
 30
0.000000
  70
    32
  0
VERTEX
  8
0
  5
2BDE
 10
-20.1712
 20
0.0229766
 30
0.000000
  70
    32
  0
VERTEX
  8
0
  5
2BDF
 10
-20.1711
 20
0.0226004
 30
0.000000
  70
    32
  0
VERTEX
  8
0
  5
2BE0
 10
-20.1709
 20
0.0222265
 30
0.000000
  70
    32
  0
VERTEX
  8
0
  5
2BE1
 10
-20.1707
 20
0.0218550
 30
0.000000
  70
    32
  0
VERTEX
  8
0
  5
2BE2
 10
-20.1705
 20
0.0214859
 30
0.000000
  70
    32
  0
VERTEX
  8
0
  5
2BE3
 10
-20.1703
 20
0.0211192
 30
0.000000
  70
    32
  0
VERTEX
  8
0
  5
2BE4
 10
-20.1701
 20
0.0207550
 30
0.000000
  70
    32
  0
VERTEX
  8
0
  5
2BE5
 10
-20.1699
 20
0.0203931
 30
0.000000
  70
    32
  0
VERTEX
  8
0
  5
2BE6
 10
-20.1697
 20
0.0200338
 30
0.000000
  70
    32
  0
VERTEX
  8
0
  5
2BE7
 10
-20.1695
 20
0.0196769
 30
0.000000
  70
    32
  0
VERTEX
  8
0
  5
2BE8
 10
-20.1693
 20
0.0193226
 30
0.000000
  70
    32
  0
VERTEX
  8
0
  5
2BE9
 10
-20.1691
 20
0.0189708
 30
0.000000
  70
    32
  0
VERTEX
  8
0
  5
2BEA
 10
-20.1689
 20
0.0186215
 30
0.000000
  70
    32
  0
VERTEX
  8
0
  5
2BEB
 10
-20.1687
 20
0.0182748
 30
0.000000
  70
    32
  0
VERTEX
  8
0
  5
2BEC
 10
-20.1684
 20
0.0179307
 30
0.000000
  70
    32
  0
VERTEX
  8
0
  5
2BED
 10
-20.1682
 20
0.0175892
 30
0.000000
  70
    32
  0
VERTEX
  8
0
  5
2BEE
 10
-20.1680
 20
0.0172503
 30
0.000000
  70
    32
  0
VERTEX
  8
0
  5
2BEF
 10
-20.1677
 20
0.0169141
 30
0.000000
  70
    32
  0
VERTEX
  8
0
  5
2BF0
 10
-20.1675
 20
0.0165805
 30
0.000000
  70
    32
  0
VERTEX
  8
0
  5
2BF1
 10
-20.1673
 20
0.0162497
 30
0.000000
  70
    32
  0
VERTEX
  8
0
  5
2BF2
 10
-20.1670
 20
0.0159215
 30
0.000000
  70
    32
  0
VERTEX
  8
0
  5
2BF3
 10
-20.1668
 20
0.0155961
 30
0.000000
  70
    32
  0
VERTEX
  8
0
  5
2BF4
 10
-20.1665
 20
0.0152734
 30
0.000000
  70
    32
  0
VERTEX
  8
0
  5
2BF5
 10
-20.1663
 20
0.0149535
 30
0.000000
  70
    32
  0
VERTEX
  8
0
  5
2BF6
 10
-20.1660
 20
0.0146364
 30
0.000000
  70
    32
  0
VERTEX
  8
0
  5
2BF7
 10
-20.1657
 20
0.0143221
 30
0.000000
  70
    32
  0
VERTEX
  8
0
  5
2BF8
 10
-20.1655
 20
0.0140107
 30
0.000000
  70
    32
  0
VERTEX
  8
0
  5
2BF9
 10
-20.1652
 20
0.0137020
 30
0.000000
  70
    32
  0
VERTEX
  8
0
  5
2BFA
 10
-20.1649
 20
0.0133963
 30
0.000000
  70
    32
  0
VERTEX
  8
0
  5
2BFB
 10
-20.1647
 20
0.0130934
 30
0.000000
  70
    32
  0
VERTEX
  8
0
  5
2BFC
 10
-20.1644
 20
0.0127935
 30
0.000000
  70
    32
  0
VERTEX
  8
0
  5
2BFD
 10
-20.1641
 20
0.0124965
 30
0.000000
  70
    32
  0
VERTEX
  8
0
  5
2BFE
 10
-20.1638
 20
0.0122024
 30
0.000000
  70
    32
  0
VERTEX
  8
0
  5
2BFF
 10
-20.1635
 20
0.0119113
 30
0.000000
  70
    32
  0
VERTEX
  8
0
  5
2C00
 10
-20.1632
 20
0.0116232
 30
0.000000
  70
    32
  0
VERTEX
  8
0
  5
2C01
 10
-20.1629
 20
0.0113381
 30
0.000000
  70
    32
  0
VERTEX
  8
0
  5
2C02
 10
-20.1627
 20
0.0110560
 30
0.000000
  70
    32
  0
VERTEX
  8
0
  5
2C03
 10
-20.1624
 20
0.0107770
 30
0.000000
  70
    32
  0
VERTEX
  8
0
  5
2C04
 10
-20.1621
 20
0.0105011
 30
0.000000
  70
    32
  0
VERTEX
  8
0
  5
2C05
 10
-20.1617
 20
0.0102282
 30
0.000000
  70
    32
  0
VERTEX
  8
0
  5
2C06
 10
-20.1614
 20
0.00995849
 30
0.000000
  70
    32
  0
VERTEX
  8
0
  5
2C07
 10
-20.1611
 20
0.00969188
 30
0.000000
  70
    32
  0
VERTEX
  8
0
  5
2C08
 10
-20.1608
 20
0.00942842
 30
0.000000
  70
    32
  0
VERTEX
  8
0
  5
2C09
 10
-20.1605
 20
0.00916813
 30
0.000000
  70
    32
  0
VERTEX
  8
0
  5
2C0A
 10
-20.1602
 20
0.00891103
 30
0.000000
  70
    32
  0
VERTEX
  8
0
  5
2C0B
 10
-20.1599
 20
0.00865714
 30
0.000000
  70
    32
  0
VERTEX
  8
0
  5
2C0C
 10
-20.1595
 20
0.00840648
 30
0.000000
  70
    32
  0
VERTEX
  8
0
  5
2C0D
 10
-20.1592
 20
0.00815907
 30
0.000000
  70
    32
  0
VERTEX
  8
0
  5
2C0E
 10
-20.1589
 20
0.00791493
 30
0.000000
  70
    32
  0
VERTEX
  8
0
  5
2C0F
 10
-20.1585
 20
0.00767408
 30
0.000000
  70
    32
  0
VERTEX
  8
0
  5
2C10
 10
-20.1582
 20
0.00743655
 30
0.000000
  70
    32
  0
VERTEX
  8
0
  5
2C11
 10
-20.1579
 20
0.00720234
 30
0.000000
  70
    32
  0
VERTEX
  8
0
  5
2C12
 10
-20.1575
 20
0.00697149
 30
0.000000
  70
    32
  0
VERTEX
  8
0
  5
2C13
 10
-20.1572
 20
0.00674400
 30
0.000000
  70
    32
  0
VERTEX
  8
0
  5
2C14
 10
-20.1568
 20
0.00651991
 30
0.000000
  70
    32
  0
VERTEX
  8
0
  5
2C15
 10
-20.1565
 20
0.00629922
 30
0.000000
  70
    32
  0
VERTEX
  8
0
  5
2C16
 10
-20.1561
 20
0.00608197
 30
0.000000
  70
    32
  0
VERTEX
  8
0
  5
2C17
 10
-20.1558
 20
0.00586817
 30
0.000000
  70
    32
  0
VERTEX
  8
0
  5
2C18
 10
-20.1554
 20
0.00565784
 30
0.000000
  70
    32
  0
VERTEX
  8
0
  5
2C19
 10
-20.1551
 20
0.00545100
 30
0.000000
  70
    32
  0
VERTEX
  8
0
  5
2C1A
 10
-20.1547
 20
0.00524767
 30
0.000000
  70
    32
  0
VERTEX
  8
0
  5
2C1B
 10
-20.1544
 20
0.00504788
 30
0.000000
  70
    32
  0
VERTEX
  8
0
  5
2C1C
 10
-20.1540
 20
0.00485163
 30
0.000000
  70
    32
  0
VERTEX
  8
0
  5
2C1D
 10
-20.1536
 20
0.00465895
 30
0.000000
  70
    32
  0
VERTEX
  8
0
  5
2C1E
 10
-20.1533
 20
0.00446987
 30
0.000000
  70
    32
  0
VERTEX
  8
0
  5
2C1F
 10
-20.1529
 20
0.00428440
 30
0.000000
  70
    32
  0
VERTEX
  8
0
  5
2C20
 10
-20.1525
 20
0.00410255
 30
0.000000
  70
    32
  0
VERTEX
  8
0
  5
2C21
 10
-20.1522
 20
0.00392436
 30
0.000000
  70
    32
  0
VERTEX
  8
0
  5
2C22
 10
-20.1518
 20
0.00374984
 30
0.000000
  70
    32
  0
VERTEX
  8
0
  5
2C23
 10
-20.1514
 20
0.00357901
 30
0.000000
  70
    32
  0
VERTEX
  8
0
  5
2C24
 10
-20.1510
 20
0.00341189
 30
0.000000
  70
    32
  0
VERTEX
  8
0
  5
2C25
 10
-20.1506
 20
0.00324850
 30
0.000000
  70
    32
  0
VERTEX
  8
0
  5
2C26
 10
-20.1503
 20
0.00308887
 30
0.000000
  70
    32
  0
VERTEX
  8
0
  5
2C27
 10
-20.1499
 20
0.00293300
 30
0.000000
  70
    32
  0
VERTEX
  8
0
  5
2C28
 10
-20.1495
 20
0.00278093
 30
0.000000
  70
    32
  0
VERTEX
  8
0
  5
2C29
 10
-20.1491
 20
0.00263266
 30
0.000000
  70
    32
  0
VERTEX
  8
0
  5
2C2A
 10
-20.1487
 20
0.00248823
 30
0.000000
  70
    32
  0
VERTEX
  8
0
  5
2C2B
 10
-20.1483
 20
0.00234765
 30
0.000000
  70
    32
  0
VERTEX
  8
0
  5
2C2C
 10
-20.1479
 20
0.00221094
 30
0.000000
  70
    32
  0
VERTEX
  8
0
  5
2C2D
 10
-20.1475
 20
0.00207812
 30
0.000000
  70
    32
  0
VERTEX
  8
0
  5
2C2E
 10
-20.1471
 20
0.00194921
 30
0.000000
  70
    32
  0
VERTEX
  8
0
  5
2C2F
 10
-20.1467
 20
0.00182424
 30
0.000000
  70
    32
  0
VERTEX
  8
0
  5
2C30
 10
-20.1463
 20
0.00170321
 30
0.000000
  70
    32
  0
VERTEX
  8
0
  5
2C31
 10
-20.1459
 20
0.00158616
 30
0.000000
  70
    32
  0
VERTEX
  8
0
  5
2C32
 10
-20.1455
 20
0.00147310
 30
0.000000
  70
    32
  0
VERTEX
  8
0
  5
2C33
 10
-20.1451
 20
0.00136405
 30
0.000000
  70
    32
  0
VERTEX
  8
0
  5
2C34
 10
-20.1447
 20
0.00125903
 30
0.000000
  70
    32
  0
VERTEX
  8
0
  5
2C35
 10
-20.1443
 20
0.00115806
 30
0.000000
  70
    32
  0
VERTEX
  8
0
  5
2C36
 10
-20.1439
 20
0.00106116
 30
0.000000
  70
    32
  0
VERTEX
  8
0
  5
2C37
 10
-20.1435
 20
0.000968357
 30
0.000000
  70
    32
  0
VERTEX
  8
0
  5
2C38
 10
-20.1431
 20
0.000879663
 30
0.000000
  70
    32
  0
VERTEX
  8
0
  5
2C39
 10
-20.1427
 20
0.000795100
 30
0.000000
  70
    32
  0
VERTEX
  8
0
  5
2C3A
 10
-20.1422
 20
0.000714689
 30
0.000000
  70
    32
  0
VERTEX
  8
0
  5
2C3B
 10
-20.1418
 20
0.000638449
 30
0.000000
  70
    32
  0
VERTEX
  8
0
  5
2C3C
 10
-20.1414
 20
0.000566400
 30
0.000000
  70
    32
  0
VERTEX
  8
0
  5
2C3D
 10
-20.1410
 20
0.000498563
 30
0.000000
  70
    32
  0
VERTEX
  8
0
  5
2C3E
 10
-20.1406
 20
0.000434958
 30
0.000000
  70
    32
  0
VERTEX
  8
0
  5
2C3F
 10
-20.1402
 20
0.000375604
 30
0.000000
  70
    32
  0
VERTEX
  8
0
  5
2C40
 10
-20.1397
 20
0.000320522
 30
0.000000
  70
    32
  0
VERTEX
  8
0
  5
2C41
 10
-20.1393
 20
0.000269731
 30
0.000000
  70
    32
  0
VERTEX
  8
0
  5
2C42
 10
-20.1389
 20
0.000223252
 30
0.000000
  70
    32
  0
VERTEX
  8
0
  5
2C43
 10
-20.1385
 20
0.000181104
 30
0.000000
  70
    32
  0
VERTEX
  8
0
  5
2C44
 10
-20.1380
 20
0.000143308
 30
0.000000
  70
    32
  0
VERTEX
  8
0
  5
2C45
 10
-20.1376
 20
0.000109884
 30
0.000000
  70
    32
  0
VERTEX
  8
0
  5
2C46
 10
-20.1372
 20
8.08511e-005
 30
0.000000
  70
    32
  0
VERTEX
  8
0
  5
2C47
 10
-20.1368
 20
5.62300e-005
 30
0.000000
  70
    32
  0
VERTEX
  8
0
  5
2C48
 10
-20.1363
 20
3.60406e-005
 30
0.000000
  70
    32
  0
VERTEX
  8
0
  5
2C49
 10
-20.1359
 20
2.03029e-005
 30
0.000000
  70
    32
  0
VERTEX
  8
0
  5
2C4A
 10
-20.1355
 20
9.03683e-006
 30
0.000000
  70
    32
  0
VERTEX
  8
0
  5
2C4B
 10
-20.1350
 20
2.26254e-006
 30
0.000000
  70
    32
  0
VERTEX
  8
0
  5
2C4C
 10
-20.1346
 20
3.65472e-024
 30
0.000000
  70
    32
  0
SEQEND
  8
0
  5
2C4D
  0
POLYLINE
  8
0
  5
2C4E
  66
     1
 10
0.000000
 20
0.000000
 30
0.000000
  70
     8
  0
VERTEX
  8
0
  5
2C4F
 10
20.1343
 20
0.000000
 30
0.000000
  70
    32
  0
VERTEX
  8
0
  5
2C50
 10
20.1348
 20
2.37221e-006
 30
0.000000
  70
    32
  0
VERTEX
  8
0
  5
2C51
 10
20.1352
 20
9.47200e-006
 30
0.000000
  70
    32
  0
VERTEX
  8
0
  5
2C52
 10
20.1356
 20
2.12741e-005
 30
0.000000
  70
    32
  0
VERTEX
  8
0
  5
2C53
 10
20.1361
 20
3.77534e-005
 30
0.000000
  70
    32
  0
VERTEX
  8
0
  5
2C54
 10
20.1365
 20
5.88845e-005
 30
0.000000
  70
    32
  0
VERTEX
  8
0
  5
2C55
 10
20.1369
 20
8.46422e-005
 30
0.000000
  70
    32
  0
VERTEX
  8
0
  5
2C56
 10
20.1374
 20
0.000115001
 30
0.000000
  70
    32
  0
VERTEX
  8
0
  5
2C57
 10
20.1378
 20
0.000149937
 30
0.000000
  70
    32
  0
VERTEX
  8
0
  5
2C58
 10
20.1382
 20
0.000189423
 30
0.000000
  70
    32
  0
VERTEX
  8
0
  5
2C59
 10
20.1386
 20
0.000233435
 30
0.000000
  70
    32
  0
VERTEX
  8
0
  5
2C5A
 10
20.1391
 20
0.000281947
 30
0.000000
  70
    32
  0
VERTEX
  8
0
  5
2C5B
 10
20.1395
 20
0.000334934
 30
0.000000
  70
    32
  0
VERTEX
  8
0
  5
2C5C
 10
20.1399
 20
0.000392372
 30
0.000000
  70
    32
  0
VERTEX
  8
0
  5
2C5D
 10
20.1403
 20
0.000454234
 30
0.000000
  70
    32
  0
VERTEX
  8
0
  5
2C5E
 10
20.1408
 20
0.000520496
 30
0.000000
  70
    32
  0
VERTEX
  8
0
  5
2C5F
 10
20.1412
 20
0.000591131
 30
0.000000
  70
    32
  0
VERTEX
  8
0
  5
2C60
 10
20.1416
 20
0.000666116
 30
0.000000
  70
    32
  0
VERTEX
  8
0
  5
2C61
 10
20.1420
 20
0.000745425
 30
0.000000
  70
    32
  0
VERTEX
  8
0
  5
2C62
 10
20.1424
 20
0.000829032
 30
0.000000
  70
    32
  0
VERTEX
  8
0
  5
2C63
 10
20.1428
 20
0.000916912
 30
0.000000
  70
    32
  0
VERTEX
  8
0
  5
2C64
 10
20.1433
 20
0.00100904
 30
0.000000
  70
    32
  0
VERTEX
  8
0
  5
2C65
 10
20.1437
 20
0.00110539
 30
0.000000
  70
    32
  0
VERTEX
  8
0
  5
2C66
 10
20.1441
 20
0.00120594
 30
0.000000
  70
    32
  0
VERTEX
  8
0
  5
2C67
 10
20.1445
 20
0.00131066
 30
0.000000
  70
    32
  0
VERTEX
  8
0
  5
2C68
 10
20.1449
 20
0.00141953
 30
0.000000
  70
    32
  0
VERTEX
  8
0
  5
2C69
 10
20.1453
 20
0.00153252
 30
0.000000
  70
    32
  0
VERTEX
  8
0
  5
2C6A
 10
20.1457
 20
0.00164961
 30
0.000000
  70
    32
  0
VERTEX
  8
0
  5
2C6B
 10
20.1461
 20
0.00177076
 30
0.000000
  70
    32
  0
VERTEX
  8
0
  5
2C6C
 10
20.1465
 20
0.00189597
 30
0.000000
  70
    32
  0
VERTEX
  8
0
  5
2C6D
 10
20.1469
 20
0.00202519
 30
0.000000
  70
    32
  0
VERTEX
  8
0
  5
2C6E
 10
20.1473
 20
0.00215841
 30
0.000000
  70
    32
  0
VERTEX
  8
0
  5
2C6F
 10
20.1477
 20
0.00229561
 30
0.000000
  70
    32
  0
VERTEX
  8
0
  5
2C70
 10
20.1481
 20
0.00243674
 30
0.000000
  70
    32
  0
VERTEX
  8
0
  5
2C71
 10
20.1485
 20
0.00258180
 30
0.000000
  70
    32
  0
VERTEX
  8
0
  5
2C72
 10
20.1488
 20
0.00273075
 30
0.000000
  70
    32
  0
VERTEX
  8
0
  5
2C73
 10
20.1492
 20
0.00288357
 30
0.000000
  70
    32
  0
VERTEX
  8
0
  5
2C74
 10
20.1496
 20
0.00304023
 30
0.000000
  70
    32
  0
VERTEX
  8
0
  5
2C75
 10
20.1500
 20
0.00320072
 30
0.000000
  70
    32
  0
VERTEX
  8
0
  5
2C76
 10
20.1504
 20
0.00336499
 30
0.000000
  70
    32
  0
VERTEX
  8
0
  5
2C77
 10
20.1508
 20
0.00353304
 30
0.000000
  70
    32
  0
VERTEX
  8
0
  5
2C78
 10
20.1511
 20
0.00370483
 30
0.000000
  70
    32
  0
VERTEX
  8
0
  5
2C79
 10
20.1515
 20
0.00388034
 30
0.000000
  70
    32
  0
VERTEX
  8
0
  5
2C7A
 10
20.1519
 20
0.00405954
 30
0.000000
  70
    32
  0
VERTEX
  8
0
  5
2C7B
 10
20.1522
 20
0.00424240
 30
0.000000
  70
    32
  0
VERTEX
  8
0
  5
2C7C
 10
20.1526
 20
0.00442891
 30
0.000000
  70
    32
  0
VERTEX
  8
0
  5
2C7D
 10
20.1530
 20
0.00461904
 30
0.000000
  70
    32
  0
VERTEX
  8
0
  5
2C7E
 10
20.1533
 20
0.00481276
 30
0.000000
  70
    32
  0
VERTEX
  8
0
  5
2C7F
 10
20.1537
 20
0.00501004
 30
0.000000
  70
    32
  0
VERTEX
  8
0
  5
2C80
 10
20.1541
 20
0.00521087
 30
0.000000
  70
    32
  0
VERTEX
  8
0
  5
2C81
 10
20.1544
 20
0.00541521
 30
0.000000
  70
    32
  0
VERTEX
  8
0
  5
2C82
 10
20.1548
 20
0.00562304
 30
0.000000
  70
    32
  0
VERTEX
  8
0
  5
2C83
 10
20.1551
 20
0.00583434
 30
0.000000
  70
    32
  0
VERTEX
  8
0
  5
2C84
 10
20.1555
 20
0.00604908
 30
0.000000
  70
    32
  0
VERTEX
  8
0
  5
2C85
 10
20.1558
 20
0.00626724
 30
0.000000
  70
    32
  0
VERTEX
  8
0
  5
2C86
 10
20.1562
 20
0.00648878
 30
0.000000
  70
    32
  0
VERTEX
  8
0
  5
2C87
 10
20.1565
 20
0.00671369
 30
0.000000
  70
    32
  0
VERTEX
  8
0
  5
2C88
 10
20.1568
 20
0.00694194
 30
0.000000
  70
    32
  0
VERTEX
  8
0
  5
2C89
 10
20.1572
 20
0.00717350
 30
0.000000
  70
    32
  0
VERTEX
  8
0
  5
2C8A
 10
20.1575
 20
0.00740835
 30
0.000000
  70
    32
  0
VERTEX
  8
0
  5
2C8B
 10
20.1578
 20
0.00764647
 30
0.000000
  70
    32
  0
VERTEX
  8
0
  5
2C8C
 10
20.1582
 20
0.00788782
 30
0.000000
  70
    32
  0
VERTEX
  8
0
  5
2C8D
 10
20.1585
 20
0.00813239
 30
0.000000
  70
    32
  0
VERTEX
  8
0
  5
2C8E
 10
20.1588
 20
0.00838014
 30
0.000000
  70
    32
  0
VERTEX
  8
0
  5
2C8F
 10
20.1591
 20
0.00863106
 30
0.000000
  70
    32
  0
VERTEX
  8
0
  5
2C90
 10
20.1595
 20
0.00888512
 30
0.000000
  70
    32
  0
VERTEX
  8
0
  5
2C91
 10
20.1598
 20
0.00914228
 30
0.000000
  70
    32
  0
VERTEX
  8
0
  5
2C92
 10
20.1601
 20
0.00940254
 30
0.000000
  70
    32
  0
VERTEX
  8
0
  5
2C93
 10
20.1604
 20
0.00966585
 30
0.000000
  70
    32
  0
VERTEX
  8
0
  5
2C94
 10
20.1607
 20
0.00993221
 30
0.000000
  70
    32
  0
VERTEX
  8
0
  5
2C95
 10
20.1610
 20
0.0102016
 30
0.000000
  70
    32
  0
VERTEX
  8
0
  5
2C96
 10
20.1613
 20
0.0104739
 30
0.000000
  70
    32
  0
VERTEX
  8
0
  5
2C97
 10
20.1616
 20
0.0107492
 30
0.000000
  70
    32
  0
VERTEX
  8
0
  5
2C98
 10
20.1619
 20
0.0110275
 30
0.000000
  70
    32
  0
VERTEX
  8
0
  5
2C99
 10
20.1622
 20
0.0113086
 30
0.000000
  70
    32
  0
VERTEX
  8
0
  5
2C9A
 10
20.1625
 20
0.0115927
 30
0.000000
  70
    32
  0
VERTEX
  8
0
  5
2C9B
 10
20.1628
 20
0.0118796
 30
0.000000
  70
    32
  0
VERTEX
  8
0
  5
2C9C
 10
20.1631
 20
0.0121693
 30
0.000000
  70
    32
  0
VERTEX
  8
0
  5
2C9D
 10
20.1633
 20
0.0124619
 30
0.000000
  70
    32
  0
VERTEX
  8
0
  5
2C9E
 10
20.1636
 20
0.0127572
 30
0.000000
  70
    32
  0
VERTEX
  8
0
  5
2C9F
 10
20.1639
 20
0.0130553
 30
0.000000
  70
    32
  0
VERTEX
  8
0
  5
2CA0
 10
20.1642
 20
0.0133561
 30
0.000000
  70
    32
  0
VERTEX
  8
0
  5
2CA1
 10
20.1644
 20
0.0136596
 30
0.000000
  70
    32
  0
VERTEX
  8
0
  5
2CA2
 10
20.1647
 20
0.0139658
 30
0.000000
  70
    32
  0
VERTEX
  8
0
  5
2CA3
 10
20.1650
 20
0.0142747
 30
0.000000
  70
    32
  0
VERTEX
  8
0
  5
2CA4
 10
20.1652
 20
0.0145862
 30
0.000000
  70
    32
  0
VERTEX
  8
0
  5
2CA5
 10
20.1655
 20
0.0149003
 30
0.000000
  70
    32
  0
VERTEX
  8
0
  5
2CA6
 10
20.1657
 20
0.0152170
 30
0.000000
  70
    32
  0
VERTEX
  8
0
  5
2CA7
 10
20.1660
 20
0.0155363
 30
0.000000
  70
    32
  0
VERTEX
  8
0
  5
2CA8
 10
20.1662
 20
0.0158581
 30
0.000000
  70
    32
  0
VERTEX
  8
0
  5
2CA9
 10
20.1665
 20
0.0161824
 30
0.000000
  70
    32
  0
VERTEX
  8
0
  5
2CAA
 10
20.1667
 20
0.0165091
 30
0.000000
  70
    32
  0
VERTEX
  8
0
  5
2CAB
 10
20.1670
 20
0.0168384
 30
0.000000
  70
    32
  0
VERTEX
  8
0
  5
2CAC
 10
20.1672
 20
0.0171700
 30
0.000000
  70
    32
  0
VERTEX
  8
0
  5
2CAD
 10
20.1674
 20
0.0175041
 30
0.000000
  70
    32
  0
VERTEX
  8
0
  5
2CAE
 10
20.1676
 20
0.0178405
 30
0.000000
  70
    32
  0
VERTEX
  8
0
  5
2CAF
 10
20.1679
 20
0.0181793
 30
0.000000
  70
    32
  0
VERTEX
  8
0
  5
2CB0
 10
20.1681
 20
0.0185205
 30
0.000000
  70
    32
  0
VERTEX
  8
0
  5
2CB1
 10
20.1683
 20
0.0188639
 30
0.000000
  70
    32
  0
VERTEX
  8
0
  5
2CB2
 10
20.1685
 20
0.0192096
 30
0.000000
  70
    32
  0
VERTEX
  8
0
  5
2CB3
 10
20.1687
 20
0.0195576
 30
0.000000
  70
    32
  0
VERTEX
  8
0
  5
2CB4
 10
20.1689
 20
0.0199078
 30
0.000000
  70
    32
  0
VERTEX
  8
0
  5
2CB5
 10
20.1691
 20
0.0202602
 30
0.000000
  70
    32
  0
VERTEX
  8
0
  5
2CB6
 10
20.1693
 20
0.0206147
 30
0.000000
  70
    32
  0
VERTEX
  8
0
  5
2CB7
 10
20.1695
 20
0.0209715
 30
0.000000
  70
    32
  0
VERTEX
  8
0
  5
2CB8
 10
20.1697
 20
0.0213303
 30
0.000000
  70
    32
  0
VERTEX
  8
0
  5
2CB9
 10
20.1699
 20
0.0216913
 30
0.000000
  70
    32
  0
VERTEX
  8
0
  5
2CBA
 10
20.1701
 20
0.0220543
 30
0.000000
  70
    32
  0
VERTEX
  8
0
  5
2CBB
 10
20.1703
 20
0.0224194
 30
0.000000
  70
    32
  0
VERTEX
  8
0
  5
2CBC
 10
20.1704
 20
0.0227865
 30
0.000000
  70
    32
  0
VERTEX
  8
0
  5
2CBD
 10
20.1706
 20
0.0231557
 30
0.000000
  70
    32
  0
VERTEX
  8
0
  5
2CBE
 10
20.1708
 20
0.0235268
 30
0.000000
  70
    32
  0
VERTEX
  8
0
  5
2CBF
 10
20.1710
 20
0.0238998
 30
0.000000
  70
    32
  0
VERTEX
  8
0
  5
2CC0
 10
20.1711
 20
0.0242748
 30
0.000000
  70
    32
  0
VERTEX
  8
0
  5
2CC1
 10
20.1713
 20
0.0246517
 30
0.000000
  70
    32
  0
VERTEX
  8
0
  5
2CC2
 10
20.1714
 20
0.0250304
 30
0.000000
  70
    32
  0
VERTEX
  8
0
  5
2CC3
 10
20.1716
 20
0.0254110
 30
0.000000
  70
    32
  0
VERTEX
  8
0
  5
2CC4
 10
20.1717
 20
0.0257934
 30
0.000000
  70
    32
  0
VERTEX
  8
0
  5
2CC5
 10
20.1719
 20
0.0261777
 30
0.000000
  70
    32
  0
VERTEX
  8
0
  5
2CC6
 10
20.1720
 20
0.0265637
 30
0.000000
  70
    32
  0
VERTEX
  8
0
  5
2CC7
 10
20.1721
 20
0.0269514
 30
0.000000
  70
    32
  0
VERTEX
  8
0
  5
2CC8
 10
20.1723
 20
0.0273409
 30
0.000000
  70
    32
  0
VERTEX
  8
0
  5
2CC9
 10
20.1724
 20
0.0277321
 30
0.000000
  70
    32
  0
VERTEX
  8
0
  5
2CCA
 10
20.1725
 20
0.0281249
 30
0.000000
  70
    32
  0
VERTEX
  8
0
  5
2CCB
 10
20.1726
 20
0.0285194
 30
0.000000
  70
    32
  0
VERTEX
  8
0
  5
2CCC
 10
20.1727
 20
0.0289155
 30
0.000000
  70
    32
  0
VERTEX
  8
0
  5
2CCD
 10
20.1728
 20
0.0293132
 30
0.000000
  70
    32
  0
VERTEX
  8
0
  5
2CCE
 10
20.1729
 20
0.0297125
 30
0.000000
  70
    32
  0
SEQEND
  8
0
  5
2CCF
  0
POLYLINE
  8
0
  5
2CD0
  66
     1
 10
0.000000
 20
0.000000
 30
0.000000
  70
     8
  0
VERTEX
  8
0
  5
2CD1
 10
19.6405
 20
0.0297125
 30
0.000000
  70
    32
  0
VERTEX
  8
0
  5
2CD2
 10
19.6406
 20
0.0292994
 30
0.000000
  70
    32
  0
VERTEX
  8
0
  5
2CD3
 10
19.6407
 20
0.0288883
 30
0.000000
  70
    32
  0
VERTEX
  8
0
  5
2CD4
 10
19.6408
 20
0.0284792
 30
0.000000
  70
    32
  0
VERTEX
  8
0
  5
2CD5
 10
19.6409
 20
0.0280722
 30
0.000000
  70
    32
  0
VERTEX
  8
0
  5
2CD6
 10
19.6411
 20
0.0276673
 30
0.000000
  70
    32
  0
VERTEX
  8
0
  5
2CD7
 10
19.6412
 20
0.0272644
 30
0.000000
  70
    32
  0
VERTEX
  8
0
  5
2CD8
 10
19.6413
 20
0.0268637
 30
0.000000
  70
    32
  0
VERTEX
  8
0
  5
2CD9
 10
19.6415
 20
0.0264651
 30
0.000000
  70
    32
  0
VERTEX
  8
0
  5
2CDA
 10
19.6416
 20
0.0260686
 30
0.000000
  70
    32
  0
VERTEX
  8
0
  5
2CDB
 10
19.6418
 20
0.0256743
 30
0.000000
  70
    32
  0
VERTEX
  8
0
  5
2CDC
 10
19.6419
 20
0.0252822
 30
0.000000
  70
    32
  0
VERTEX
  8
0
  5
2CDD
 10
19.6421
 20
0.0248923
 30
0.000000
  70
    32
  0
VERTEX
  8
0
  5
2CDE
 10
19.6422
 20
0.0245046
 30
0.000000
  70
    32
  0
VERTEX
  8
0
  5
2CDF
 10
19.6424
 20
0.0241192
 30
0.000000
  70
    32
  0
VERTEX
  8
0
  5
2CE0
 10
19.6425
 20
0.0237360
 30
0.000000
  70
    32
  0
VERTEX
  8
0
  5
2CE1
 10
19.6427
 20
0.0233552
 30
0.000000
  70
    32
  0
VERTEX
  8
0
  5
2CE2
 10
19.6429
 20
0.0229766
 30
0.000000
  70
    32
  0
VERTEX
  8
0
  5
2CE3
 10
19.6431
 20
0.0226004
 30
0.000000
  70
    32
  0
VERTEX
  8
0
  5
2CE4
 10
19.6433
 20
0.0222265
 30
0.000000
  70
    32
  0
VERTEX
  8
0
  5
2CE5
 10
19.6434
 20
0.0218550
 30
0.000000
  70
    32
  0
VERTEX
  8
0
  5
2CE6
 10
19.6436
 20
0.0214859
 30
0.000000
  70
    32
  0
VERTEX
  8
0
  5
2CE7
 10
19.6438
 20
0.0211192
 30
0.000000
  70
    32
  0
VERTEX
  8
0
  5
2CE8
 10
19.6440
 20
0.0207550
 30
0.000000
  70
    32
  0
VERTEX
  8
0
  5
2CE9
 10
19.6442
 20
0.0203931
 30
0.000000
  70
    32
  0
VERTEX
  8
0
  5
2CEA
 10
19.6444
 20
0.0200338
 30
0.000000
  70
    32
  0
VERTEX
  8
0
  5
2CEB
 10
19.6446
 20
0.0196769
 30
0.000000
  70
    32
  0
VERTEX
  8
0
  5
2CEC
 10
19.6448
 20
0.0193226
 30
0.000000
  70
    32
  0
VERTEX
  8
0
  5
2CED
 10
19.6450
 20
0.0189708
 30
0.000000
  70
    32
  0
VERTEX
  8
0
  5
2CEE
 10
19.6453
 20
0.0186215
 30
0.000000
  70
    32
  0
VERTEX
  8
0
  5
2CEF
 10
19.6455
 20
0.0182748
 30
0.000000
  70
    32
  0
VERTEX
  8
0
  5
2CF0
 10
19.6457
 20
0.0179307
 30
0.000000
  70
    32
  0
VERTEX
  8
0
  5
2CF1
 10
19.6459
 20
0.0175892
 30
0.000000
  70
    32
  0
VERTEX
  8
0
  5
2CF2
 10
19.6462
 20
0.0172503
 30
0.000000
  70
    32
  0
VERTEX
  8
0
  5
2CF3
 10
19.6464
 20
0.0169141
 30
0.000000
  70
    32
  0
VERTEX
  8
0
  5
2CF4
 10
19.6467
 20
0.0165805
 30
0.000000
  70
    32
  0
VERTEX
  8
0
  5
2CF5
 10
19.6469
 20
0.0162497
 30
0.000000
  70
    32
  0
VERTEX
  8
0
  5
2CF6
 10
19.6471
 20
0.0159215
 30
0.000000
  70
    32
  0
VERTEX
  8
0
  5
2CF7
 10
19.6474
 20
0.0155961
 30
0.000000
  70
    32
  0
VERTEX
  8
0
  5
2CF8
 10
19.6476
 20
0.0152734
 30
0.000000
  70
    32
  0
VERTEX
  8
0
  5
2CF9
 10
19.6479
 20
0.0149535
 30
0.000000
  70
    32
  0
VERTEX
  8
0
  5
2CFA
 10
19.6482
 20
0.0146364
 30
0.000000
  70
    32
  0
VERTEX
  8
0
  5
2CFB
 10
19.6484
 20
0.0143221
 30
0.000000
  70
    32
  0
VERTEX
  8
0
  5
2CFC
 10
19.6487
 20
0.0140107
 30
0.000000
  70
    32
  0
VERTEX
  8
0
  5
2CFD
 10
19.6490
 20
0.0137020
 30
0.000000
  70
    32
  0
VERTEX
  8
0
  5
2CFE
 10
19.6492
 20
0.0133963
 30
0.000000
  70
    32
  0
VERTEX
  8
0
  5
2CFF
 10
19.6495
 20
0.0130934
 30
0.000000
  70
    32
  0
VERTEX
  8
0
  5
2D00
 10
19.6498
 20
0.0127935
 30
0.000000
  70
    32
  0
VERTEX
  8
0
  5
2D01
 10
19.6501
 20
0.0124965
 30
0.000000
  70
    32
  0
VERTEX
  8
0
  5
2D02
 10
19.6503
 20
0.0122024
 30
0.000000
  70
    32
  0
VERTEX
  8
0
  5
2D03
 10
19.6506
 20
0.0119113
 30
0.000000
  70
    32
  0
VERTEX
  8
0
  5
2D04
 10
19.6509
 20
0.0116232
 30
0.000000
  70
    32
  0
VERTEX
  8
0
  5
2D05
 10
19.6512
 20
0.0113381
 30
0.000000
  70
    32
  0
VERTEX
  8
0
  5
2D06
 10
19.6515
 20
0.0110560
 30
0.000000
  70
    32
  0
VERTEX
  8
0
  5
2D07
 10
19.6518
 20
0.0107770
 30
0.000000
  70
    32
  0
VERTEX
  8
0
  5
2D08
 10
19.6521
 20
0.0105011
 30
0.000000
  70
    32
  0
VERTEX
  8
0
  5
2D09
 10
19.6524
 20
0.0102282
 30
0.000000
  70
    32
  0
VERTEX
  8
0
  5
2D0A
 10
19.6527
 20
0.00995849
 30
0.000000
  70
    32
  0
VERTEX
  8
0
  5
2D0B
 10
19.6530
 20
0.00969188
 30
0.000000
  70
    32
  0
VERTEX
  8
0
  5
2D0C
 10
19.6533
 20
0.00942842
 30
0.000000
  70
    32
  0
VERTEX
  8
0
  5
2D0D
 10
19.6537
 20
0.00916813
 30
0.000000
  70
    32
  0
VERTEX
  8
0
  5
2D0E
 10
19.6540
 20
0.00891103
 30
0.000000
  70
    32
  0
VERTEX
  8
0
  5
2D0F
 10
19.6543
 20
0.00865714
 30
0.000000
  70
    32
  0
VERTEX
  8
0
  5
2D10
 10
19.6546
 20
0.00840648
 30
0.000000
  70
    32
  0
VERTEX
  8
0
  5
2D11
 10
19.6549
 20
0.00815907
 30
0.000000
  70
    32
  0
VERTEX
  8
0
  5
2D12
 10
19.6553
 20
0.00791493
 30
0.000000
  70
    32
  0
VERTEX
  8
0
  5
2D13
 10
19.6556
 20
0.00767408
 30
0.000000
  70
    32
  0
VERTEX
  8
0
  5
2D14
 10
19.6559
 20
0.00743655
 30
0.000000
  70
    32
  0
VERTEX
  8
0
  5
2D15
 10
19.6563
 20
0.00720234
 30
0.000000
  70
    32
  0
VERTEX
  8
0
  5
2D16
 10
19.6566
 20
0.00697149
 30
0.000000
  70
    32
  0
VERTEX
  8
0
  5
2D17
 10
19.6569
 20
0.00674400
 30
0.000000
  70
    32
  0
VERTEX
  8
0
  5
2D18
 10
19.6573
 20
0.00651991
 30
0.000000
  70
    32
  0
VERTEX
  8
0
  5
2D19
 10
19.6576
 20
0.00629922
 30
0.000000
  70
    32
  0
VERTEX
  8
0
  5
2D1A
 10
19.6580
 20
0.00608197
 30
0.000000
  70
    32
  0
VERTEX
  8
0
  5
2D1B
 10
19.6583
 20
0.00586817
 30
0.000000
  70
    32
  0
VERTEX
  8
0
  5
2D1C
 10
19.6587
 20
0.00565784
 30
0.000000
  70
    32
  0
VERTEX
  8
0
  5
2D1D
 10
19.6590
 20
0.00545100
 30
0.000000
  70
    32
  0
VERTEX
  8
0
  5
2D1E
 10
19.6594
 20
0.00524767
 30
0.000000
  70
    32
  0
VERTEX
  8
0
  5
2D1F
 10
19.6598
 20
0.00504788
 30
0.000000
  70
    32
  0
VERTEX
  8
0
  5
2D20
 10
19.6601
 20
0.00485163
 30
0.000000
  70
    32
  0
VERTEX
  8
0
  5
2D21
 10
19.6605
 20
0.00465895
 30
0.000000
  70
    32
  0
VERTEX
  8
0
  5
2D22
 10
19.6608
 20
0.00446987
 30
0.000000
  70
    32
  0
VERTEX
  8
0
  5
2D23
 10
19.6612
 20
0.00428440
 30
0.000000
  70
    32
  0
VERTEX
  8
0
  5
2D24
 10
19.6616
 20
0.00410255
 30
0.000000
  70
    32
  0
VERTEX
  8
0
  5
2D25
 10
19.6619
 20
0.00392436
 30
0.000000
  70
    32
  0
VERTEX
  8
0
  5
2D26
 10
19.6623
 20
0.00374984
 30
0.000000
  70
    32
  0
VERTEX
  8
0
  5
2D27
 10
19.6627
 20
0.00357901
 30
0.000000
  70
    32
  0
VERTEX
  8
0
  5
2D28
 10
19.6631
 20
0.00341189
 30
0.000000
  70
    32
  0
VERTEX
  8
0
  5
2D29
 10
19.6635
 20
0.00324850
 30
0.000000
  70
    32
  0
VERTEX
  8
0
  5
2D2A
 10
19.6638
 20
0.00308887
 30
0.000000
  70
    32
  0
VERTEX
  8
0
  5
2D2B
 10
19.6642
 20
0.00293300
 30
0.000000
  70
    32
  0
VERTEX
  8
0
  5
2D2C
 10
19.6646
 20
0.00278093
 30
0.000000
  70
    32
  0
VERTEX
  8
0
  5
2D2D
 10
19.6650
 20
0.00263266
 30
0.000000
  70
    32
  0
VERTEX
  8
0
  5
2D2E
 10
19.6654
 20
0.00248823
 30
0.000000
  70
    32
  0
VERTEX
  8
0
  5
2D2F
 10
19.6658
 20
0.00234765
 30
0.000000
  70
    32
  0
VERTEX
  8
0
  5
2D30
 10
19.6662
 20
0.00221094
 30
0.000000
  70
    32
  0
VERTEX
  8
0
  5
2D31
 10
19.6665
 20
0.00207812
 30
0.000000
  70
    32
  0
VERTEX
  8
0
  5
2D32
 10
19.6669
 20
0.00194921
 30
0.000000
  70
    32
  0
VERTEX
  8
0
  5
2D33
 10
19.6673
 20
0.00182424
 30
0.000000
  70
    32
  0
VERTEX
  8
0
  5
2D34
 10
19.6677
 20
0.00170321
 30
0.000000
  70
    32
  0
VERTEX
  8
0
  5
2D35
 10
19.6681
 20
0.00158616
 30
0.000000
  70
    32
  0
VERTEX
  8
0
  5
2D36
 10
19.6685
 20
0.00147310
 30
0.000000
  70
    32
  0
VERTEX
  8
0
  5
2D37
 10
19.6689
 20
0.00136405
 30
0.000000
  70
    32
  0
VERTEX
  8
0
  5
2D38
 10
19.6693
 20
0.00125903
 30
0.000000
  70
    32
  0
VERTEX
  8
0
  5
2D39
 10
19.6698
 20
0.00115806
 30
0.000000
  70
    32
  0
VERTEX
  8
0
  5
2D3A
 10
19.6702
 20
0.00106116
 30
0.000000
  70
    32
  0
VERTEX
  8
0
  5
2D3B
 10
19.6706
 20
0.000968357
 30
0.000000
  70
    32
  0
VERTEX
  8
0
  5
2D3C
 10
19.6710
 20
0.000879663
 30
0.000000
  70
    32
  0
VERTEX
  8
0
  5
2D3D
 10
19.6714
 20
0.000795100
 30
0.000000
  70
    32
  0
VERTEX
  8
0
  5
2D3E
 10
19.6718
 20
0.000714689
 30
0.000000
  70
    32
  0
VERTEX
  8
0
  5
2D3F
 10
19.6722
 20
0.000638449
 30
0.000000
  70
    32
  0
VERTEX
  8
0
  5
2D40
 10
19.6726
 20
0.000566400
 30
0.000000
  70
    32
  0
VERTEX
  8
0
  5
2D41
 10
19.6730
 20
0.000498563
 30
0.000000
  70
    32
  0
VERTEX
  8
0
  5
2D42
 10
19.6735
 20
0.000434958
 30
0.000000
  70
    32
  0
VERTEX
  8
0
  5
2D43
 10
19.6739
 20
0.000375604
 30
0.000000
  70
    32
  0
VERTEX
  8
0
  5
2D44
 10
19.6743
 20
0.000320522
 30
0.000000
  70
    32
  0
VERTEX
  8
0
  5
2D45
 10
19.6747
 20
0.000269731
 30
0.000000
  70
    32
  0
VERTEX
  8
0
  5
2D46
 10
19.6751
 20
0.000223252
 30
0.000000
  70
    32
  0
VERTEX
  8
0
  5
2D47
 10
19.6756
 20
0.000181104
 30
0.000000
  70
    32
  0
VERTEX
  8
0
  5
2D48
 10
19.6760
 20
0.000143308
 30
0.000000
  70
    32
  0
VERTEX
  8
0
  5
2D49
 10
19.6764
 20
0.000109884
 30
0.000000
  70
    32
  0
VERTEX
  8
0
  5
2D4A
 10
19.6768
 20
8.08511e-005
 30
0.000000
  70
    32
  0
VERTEX
  8
0
  5
2D4B
 10
19.6773
 20
5.62300e-005
 30
0.000000
  70
    32
  0
VERTEX
  8
0
  5
2D4C
 10
19.6777
 20
3.60406e-005
 30
0.000000
  70
    32
  0
VERTEX
  8
0
  5
2D4D
 10
19.6781
 20
2.03029e-005
 30
0.000000
  70
    32
  0
VERTEX
  8
0
  5
2D4E
 10
19.6786
 20
9.03683e-006
 30
0.000000
  70
    32
  0
VERTEX
  8
0
  5
2D4F
 10
19.6790
 20
2.26254e-006
 30
0.000000
  70
    32
  0
VERTEX
  8
0
  5
2D50
 10
19.6794
 20
3.65472e-024
 30
0.000000
  70
    32
  0
SEQEND
  8
0
  5
2D51
  0
POLYLINE
  8
0
  5
2D52
  66
     1
 10
0.000000
 20
0.000000
 30
0.000000
  70
     8
  0
VERTEX
  8
0
  5
2D53
 10
-24.8090
 20
2.98641
 30
0.000000
  70
    32
  0
VERTEX
  8
0
  5
2D54
 10
-24.8093
 20
2.98640
 30
0.000000
  70
    32
  0
VERTEX
  8
0
  5
2D55
 10
-24.8096
 20
2.98640
 30
0.000000
  70
    32
  0
VERTEX
  8
0
  5
2D56
 10
-24.8099
 20
2.98639
 30
0.000000
  70
    32
  0
VERTEX
  8
0
  5
2D57
 10
-24.8103
 20
2.98638
 30
0.000000
  70
    32
  0
VERTEX
  8
0
  5
2D58
 10
-24.8106
 20
2.98637
 30
0.000000
  70
    32
  0
VERTEX
  8
0
  5
2D59
 10
-24.8109
 20
2.98636
 30
0.000000
  70
    32
  0
VERTEX
  8
0
  5
2D5A
 10
-24.8112
 20
2.98634
 30
0.000000
  70
    32
  0
VERTEX
  8
0
  5
2D5B
 10
-24.8115
 20
2.98632
 30
0.000000
  70
    32
  0
VERTEX
  8
0
  5
2D5C
 10
-24.8118
 20
2.98630
 30
0.000000
  70
    32
  0
VERTEX
  8
0
  5
2D5D
 10
-24.8121
 20
2.98627
 30
0.000000
  70
    32
  0
VERTEX
  8
0
  5
2D5E
 10
-24.8125
 20
2.98624
 30
0.000000
  70
    32
  0
VERTEX
  8
0
  5
2D5F
 10
-24.8128
 20
2.98621
 30
0.000000
  70
    32
  0
VERTEX
  8
0
  5
2D60
 10
-24.8131
 20
2.98618
 30
0.000000
  70
    32
  0
VERTEX
  8
0
  5
2D61
 10
-24.8134
 20
2.98614
 30
0.000000
  70
    32
  0
VERTEX
  8
0
  5
2D62
 10
-24.8137
 20
2.98611
 30
0.000000
  70
    32
  0
VERTEX
  8
0
  5
2D63
 10
-24.8140
 20
2.98607
 30
0.000000
  70
    32
  0
VERTEX
  8
0
  5
2D64
 10
-24.8143
 20
2.98602
 30
0.000000
  70
    32
  0
VERTEX
  8
0
  5
2D65
 10
-24.8146
 20
2.98598
 30
0.000000
  70
    32
  0
VERTEX
  8
0
  5
2D66
 10
-24.8149
 20
2.98593
 30
0.000000
  70
    32
  0
VERTEX
  8
0
  5
2D67
 10
-24.8152
 20
2.98588
 30
0.000000
  70
    32
  0
VERTEX
  8
0
  5
2D68
 10
-24.8155
 20
2.98583
 30
0.000000
  70
    32
  0
VERTEX
  8
0
  5
2D69
 10
-24.8158
 20
2.98577
 30
0.000000
  70
    32
  0
VERTEX
  8
0
  5
2D6A
 10
-24.8161
 20
2.98571
 30
0.000000
  70
    32
  0
VERTEX
  8
0
  5
2D6B
 10
-24.8164
 20
2.98565
 30
0.000000
  70
    32
  0
VERTEX
  8
0
  5
2D6C
 10
-24.8167
 20
2.98559
 30
0.000000
  70
    32
  0
VERTEX
  8
0
  5
2D6D
 10
-24.8170
 20
2.98553
 30
0.000000
  70
    32
  0
VERTEX
  8
0
  5
2D6E
 10
-24.8173
 20
2.98546
 30
0.000000
  70
    32
  0
VERTEX
  8
0
  5
2D6F
 10
-24.8176
 20
2.98539
 30
0.000000
  70
    32
  0
VERTEX
  8
0
  5
2D70
 10
-24.8179
 20
2.98532
 30
0.000000
  70
    32
  0
VERTEX
  8
0
  5
2D71
 10
-24.8182
 20
2.98524
 30
0.000000
  70
    32
  0
VERTEX
  8
0
  5
2D72
 10
-24.8185
 20
2.98517
 30
0.000000
  70
    32
  0
VERTEX
  8
0
  5
2D73
 10
-24.8188
 20
2.98509
 30
0.000000
  70
    32
  0
VERTEX
  8
0
  5
2D74
 10
-24.8191
 20
2.98501
 30
0.000000
  70
    32
  0
VERTEX
  8
0
  5
2D75
 10
-24.8194
 20
2.98492
 30
0.000000
  70
    32
  0
VERTEX
  8
0
  5
2D76
 10
-24.8197
 20
2.98484
 30
0.000000
  70
    32
  0
VERTEX
  8
0
  5
2D77
 10
-24.8200
 20
2.98475
 30
0.000000
  70
    32
  0
VERTEX
  8
0
  5
2D78
 10
-24.8202
 20
2.98466
 30
0.000000
  70
    32
  0
VERTEX
  8
0
  5
2D79
 10
-24.8205
 20
2.98457
 30
0.000000
  70
    32
  0
VERTEX
  8
0
  5
2D7A
 10
-24.8208
 20
2.98447
 30
0.000000
  70
    32
  0
VERTEX
  8
0
  5
2D7B
 10
-24.8211
 20
2.98438
 30
0.000000
  70
    32
  0
VERTEX
  8
0
  5
2D7C
 10
-24.8214
 20
2.98428
 30
0.000000
  70
    32
  0
VERTEX
  8
0
  5
2D7D
 10
-24.8217
 20
2.98418
 30
0.000000
  70
    32
  0
VERTEX
  8
0
  5
2D7E
 10
-24.8219
 20
2.98407
 30
0.000000
  70
    32
  0
VERTEX
  8
0
  5
2D7F
 10
-24.8222
 20
2.98397
 30
0.000000
  70
    32
  0
VERTEX
  8
0
  5
2D80
 10
-24.8225
 20
2.98386
 30
0.000000
  70
    32
  0
VERTEX
  8
0
  5
2D81
 10
-24.8228
 20
2.98375
 30
0.000000
  70
    32
  0
VERTEX
  8
0
  5
2D82
 10
-24.8231
 20
2.98364
 30
0.000000
  70
    32
  0
VERTEX
  8
0
  5
2D83
 10
-24.8233
 20
2.98353
 30
0.000000
  70
    32
  0
VERTEX
  8
0
  5
2D84
 10
-24.8236
 20
2.98341
 30
0.000000
  70
    32
  0
VERTEX
  8
0
  5
2D85
 10
-24.8239
 20
2.98329
 30
0.000000
  70
    32
  0
VERTEX
  8
0
  5
2D86
 10
-24.8242
 20
2.98317
 30
0.000000
  70
    32
  0
VERTEX
  8
0
  5
2D87
 10
-24.8244
 20
2.98305
 30
0.000000
  70
    32
  0
VERTEX
  8
0
  5
2D88
 10
-24.8247
 20
2.98293
 30
0.000000
  70
    32
  0
VERTEX
  8
0
  5
2D89
 10
-24.8250
 20
2.98280
 30
0.000000
  70
    32
  0
VERTEX
  8
0
  5
2D8A
 10
-24.8253
 20
2.98268
 30
0.000000
  70
    32
  0
VERTEX
  8
0
  5
2D8B
 10
-24.8255
 20
2.98255
 30
0.000000
  70
    32
  0
VERTEX
  8
0
  5
2D8C
 10
-24.8258
 20
2.98242
 30
0.000000
  70
    32
  0
VERTEX
  8
0
  5
2D8D
 10
-24.8261
 20
2.98228
 30
0.000000
  70
    32
  0
VERTEX
  8
0
  5
2D8E
 10
-24.8263
 20
2.98215
 30
0.000000
  70
    32
  0
VERTEX
  8
0
  5
2D8F
 10
-24.8266
 20
2.98201
 30
0.000000
  70
    32
  0
VERTEX
  8
0
  5
2D90
 10
-24.8269
 20
2.98187
 30
0.000000
  70
    32
  0
VERTEX
  8
0
  5
2D91
 10
-24.8271
 20
2.98173
 30
0.000000
  70
    32
  0
VERTEX
  8
0
  5
2D92
 10
-24.8274
 20
2.98159
 30
0.000000
  70
    32
  0
VERTEX
  8
0
  5
2D93
 10
-24.8276
 20
2.98144
 30
0.000000
  70
    32
  0
VERTEX
  8
0
  5
2D94
 10
-24.8279
 20
2.98130
 30
0.000000
  70
    32
  0
VERTEX
  8
0
  5
2D95
 10
-24.8282
 20
2.98115
 30
0.000000
  70
    32
  0
VERTEX
  8
0
  5
2D96
 10
-24.8284
 20
2.98100
 30
0.000000
  70
    32
  0
VERTEX
  8
0
  5
2D97
 10
-24.8287
 20
2.98085
 30
0.000000
  70
    32
  0
VERTEX
  8
0
  5
2D98
 10
-24.8289
 20
2.98069
 30
0.000000
  70
    32
  0
VERTEX
  8
0
  5
2D99
 10
-24.8292
 20
2.98054
 30
0.000000
  70
    32
  0
VERTEX
  8
0
  5
2D9A
 10
-24.8294
 20
2.98038
 30
0.000000
  70
    32
  0
VERTEX
  8
0
  5
2D9B
 10
-24.8297
 20
2.98022
 30
0.000000
  70
    32
  0
VERTEX
  8
0
  5
2D9C
 10
-24.8299
 20
2.98006
 30
0.000000
  70
    32
  0
VERTEX
  8
0
  5
2D9D
 10
-24.8302
 20
2.97990
 30
0.000000
  70
    32
  0
VERTEX
  8
0
  5
2D9E
 10
-24.8304
 20
2.97974
 30
0.000000
  70
    32
  0
VERTEX
  8
0
  5
2D9F
 10
-24.8307
 20
2.97957
 30
0.000000
  70
    32
  0
VERTEX
  8
0
  5
2DA0
 10
-24.8309
 20
2.97940
 30
0.000000
  70
    32
  0
VERTEX
  8
0
  5
2DA1
 10
-24.8312
 20
2.97924
 30
0.000000
  70
    32
  0
VERTEX
  8
0
  5
2DA2
 10
-24.8314
 20
2.97907
 30
0.000000
  70
    32
  0
VERTEX
  8
0
  5
2DA3
 10
-24.8317
 20
2.97889
 30
0.000000
  70
    32
  0
VERTEX
  8
0
  5
2DA4
 10
-24.8319
 20
2.97872
 30
0.000000
  70
    32
  0
VERTEX
  8
0
  5
2DA5
 10
-24.8321
 20
2.97855
 30
0.000000
  70
    32
  0
VERTEX
  8
0
  5
2DA6
 10
-24.8324
 20
2.97837
 30
0.000000
  70
    32
  0
VERTEX
  8
0
  5
2DA7
 10
-24.8326
 20
2.97819
 30
0.000000
  70
    32
  0
VERTEX
  8
0
  5
2DA8
 10
-24.8329
 20
2.97801
 30
0.000000
  70
    32
  0
VERTEX
  8
0
  5
2DA9
 10
-24.8331
 20
2.97783
 30
0.000000
  70
    32
  0
VERTEX
  8
0
  5
2DAA
 10
-24.8333
 20
2.97765
 30
0.000000
  70
    32
  0
VERTEX
  8
0
  5
2DAB
 10
-24.8336
 20
2.97746
 30
0.000000
  70
    32
  0
VERTEX
  8
0
  5
2DAC
 10
-24.8338
 20
2.97728
 30
0.000000
  70
    32
  0
VERTEX
  8
0
  5
2DAD
 10
-24.8340
 20
2.97709
 30
0.000000
  70
    32
  0
VERTEX
  8
0
  5
2DAE
 10
-24.8343
 20
2.97690
 30
0.000000
  70
    32
  0
VERTEX
  8
0
  5
2DAF
 10
-24.8345
 20
2.97671
 30
0.000000
  70
    32
  0
VERTEX
  8
0
  5
2DB0
 10
-24.8347
 20
2.97652
 30
0.000000
  70
    32
  0
VERTEX
  8
0
  5
2DB1
 10
-24.8349
 20
2.97633
 30
0.000000
  70
    32
  0
VERTEX
  8
0
  5
2DB2
 10
-24.8352
 20
2.97613
 30
0.000000
  70
    32
  0
VERTEX
  8
0
  5
2DB3
 10
-24.8354
 20
2.97594
 30
0.000000
  70
    32
  0
VERTEX
  8
0
  5
2DB4
 10
-24.8356
 20
2.97574
 30
0.000000
  70
    32
  0
VERTEX
  8
0
  5
2DB5
 10
-24.8358
 20
2.97554
 30
0.000000
  70
    32
  0
VERTEX
  8
0
  5
2DB6
 10
-24.8361
 20
2.97534
 30
0.000000
  70
    32
  0
VERTEX
  8
0
  5
2DB7
 10
-24.8363
 20
2.97514
 30
0.000000
  70
    32
  0
VERTEX
  8
0
  5
2DB8
 10
-24.8365
 20
2.97494
 30
0.000000
  70
    32
  0
VERTEX
  8
0
  5
2DB9
 10
-24.8367
 20
2.97473
 30
0.000000
  70
    32
  0
VERTEX
  8
0
  5
2DBA
 10
-24.8369
 20
2.97453
 30
0.000000
  70
    32
  0
VERTEX
  8
0
  5
2DBB
 10
-24.8371
 20
2.97432
 30
0.000000
  70
    32
  0
VERTEX
  8
0
  5
2DBC
 10
-24.8373
 20
2.97412
 30
0.000000
  70
    32
  0
VERTEX
  8
0
  5
2DBD
 10
-24.8376
 20
2.97391
 30
0.000000
  70
    32
  0
VERTEX
  8
0
  5
2DBE
 10
-24.8378
 20
2.97370
 30
0.000000
  70
    32
  0
VERTEX
  8
0
  5
2DBF
 10
-24.8380
 20
2.97349
 30
0.000000
  70
    32
  0
VERTEX
  8
0
  5
2DC0
 10
-24.8382
 20
2.97327
 30
0.000000
  70
    32
  0
VERTEX
  8
0
  5
2DC1
 10
-24.8384
 20
2.97306
 30
0.000000
  70
    32
  0
VERTEX
  8
0
  5
2DC2
 10
-24.8386
 20
2.97285
 30
0.000000
  70
    32
  0
VERTEX
  8
0
  5
2DC3
 10
-24.8388
 20
2.97263
 30
0.000000
  70
    32
  0
VERTEX
  8
0
  5
2DC4
 10
-24.8390
 20
2.97240
 30
0.000000
  70
    32
  0
VERTEX
  8
0
  5
2DC5
 10
-24.8392
 20
2.97218
 30
0.000000
  70
    32
  0
VERTEX
  8
0
  5
2DC6
 10
-24.8394
 20
2.97195
 30
0.000000
  70
    32
  0
VERTEX
  8
0
  5
2DC7
 10
-24.8396
 20
2.97172
 30
0.000000
  70
    32
  0
VERTEX
  8
0
  5
2DC8
 10
-24.8398
 20
2.97149
 30
0.000000
  70
    32
  0
VERTEX
  8
0
  5
2DC9
 10
-24.8400
 20
2.97126
 30
0.000000
  70
    32
  0
VERTEX
  8
0
  5
2DCA
 10
-24.8401
 20
2.97103
 30
0.000000
  70
    32
  0
VERTEX
  8
0
  5
2DCB
 10
-24.8403
 20
2.97080
 30
0.000000
  70
    32
  0
VERTEX
  8
0
  5
2DCC
 10
-24.8405
 20
2.97057
 30
0.000000
  70
    32
  0
VERTEX
  8
0
  5
2DCD
 10
-24.8407
 20
2.97034
 30
0.000000
  70
    32
  0
VERTEX
  8
0
  5
2DCE
 10
-24.8409
 20
2.97011
 30
0.000000
  70
    32
  0
VERTEX
  8
0
  5
2DCF
 10
-24.8410
 20
2.96987
 30
0.000000
  70
    32
  0
VERTEX
  8
0
  5
2DD0
 10
-24.8412
 20
2.96964
 30
0.000000
  70
    32
  0
VERTEX
  8
0
  5
2DD1
 10
-24.8414
 20
2.96941
 30
0.000000
  70
    32
  0
VERTEX
  8
0
  5
2DD2
 10
-24.8415
 20
2.96917
 30
0.000000
  70
    32
  0
VERTEX
  8
0
  5
2DD3
 10
-24.8417
 20
2.96893
 30
0.000000
  70
    32
  0
VERTEX
  8
0
  5
2DD4
 10
-24.8419
 20
2.96870
 30
0.000000
  70
    32
  0
VERTEX
  8
0
  5
2DD5
 10
-24.8420
 20
2.96846
 30
0.000000
  70
    32
  0
VERTEX
  8
0
  5
2DD6
 10
-24.8422
 20
2.96822
 30
0.000000
  70
    32
  0
VERTEX
  8
0
  5
2DD7
 10
-24.8424
 20
2.96798
 30
0.000000
  70
    32
  0
VERTEX
  8
0
  5
2DD8
 10
-24.8425
 20
2.96774
 30
0.000000
  70
    32
  0
VERTEX
  8
0
  5
2DD9
 10
-24.8427
 20
2.96750
 30
0.000000
  70
    32
  0
VERTEX
  8
0
  5
2DDA
 10
-24.8428
 20
2.96726
 30
0.000000
  70
    32
  0
VERTEX
  8
0
  5
2DDB
 10
-24.8430
 20
2.96701
 30
0.000000
  70
    32
  0
VERTEX
  8
0
  5
2DDC
 10
-24.8431
 20
2.96677
 30
0.000000
  70
    32
  0
VERTEX
  8
0
  5
2DDD
 10
-24.8433
 20
2.96653
 30
0.000000
  70
    32
  0
VERTEX
  8
0
  5
2DDE
 10
-24.8434
 20
2.96628
 30
0.000000
  70
    32
  0
VERTEX
  8
0
  5
2DDF
 10
-24.8435
 20
2.96604
 30
0.000000
  70
    32
  0
VERTEX
  8
0
  5
2DE0
 10
-24.8437
 20
2.96579
 30
0.000000
  70
    32
  0
VERTEX
  8
0
  5
2DE1
 10
-24.8438
 20
2.96555
 30
0.000000
  70
    32
  0
VERTEX
  8
0
  5
2DE2
 10
-24.8440
 20
2.96530
 30
0.000000
  70
    32
  0
VERTEX
  8
0
  5
2DE3
 10
-24.8441
 20
2.96505
 30
0.000000
  70
    32
  0
VERTEX
  8
0
  5
2DE4
 10
-24.8442
 20
2.96480
 30
0.000000
  70
    32
  0
VERTEX
  8
0
  5
2DE5
 10
-24.8443
 20
2.96456
 30
0.000000
  70
    32
  0
VERTEX
  8
0
  5
2DE6
 10
-24.8445
 20
2.96431
 30
0.000000
  70
    32
  0
VERTEX
  8
0
  5
2DE7
 10
-24.8446
 20
2.96406
 30
0.000000
  70
    32
  0
VERTEX
  8
0
  5
2DE8
 10
-24.8447
 20
2.96381
 30
0.000000
  70
    32
  0
VERTEX
  8
0
  5
2DE9
 10
-24.8448
 20
2.96356
 30
0.000000
  70
    32
  0
VERTEX
  8
0
  5
2DEA
 10
-24.8450
 20
2.96330
 30
0.000000
  70
    32
  0
VERTEX
  8
0
  5
2DEB
 10
-24.8451
 20
2.96305
 30
0.000000
  70
    32
  0
VERTEX
  8
0
  5
2DEC
 10
-24.8452
 20
2.96280
 30
0.000000
  70
    32
  0
VERTEX
  8
0
  5
2DED
 10
-24.8453
 20
2.96255
 30
0.000000
  70
    32
  0
VERTEX
  8
0
  5
2DEE
 10
-24.8454
 20
2.96229
 30
0.000000
  70
    32
  0
VERTEX
  8
0
  5
2DEF
 10
-24.8455
 20
2.96204
 30
0.000000
  70
    32
  0
VERTEX
  8
0
  5
2DF0
 10
-24.8456
 20
2.96178
 30
0.000000
  70
    32
  0
VERTEX
  8
0
  5
2DF1
 10
-24.8458
 20
2.96153
 30
0.000000
  70
    32
  0
VERTEX
  8
0
  5
2DF2
 10
-24.8459
 20
2.96127
 30
0.000000
  70
    32
  0
VERTEX
  8
0
  5
2DF3
 10
-24.8460
 20
2.96102
 30
0.000000
  70
    32
  0
VERTEX
  8
0
  5
2DF4
 10
-24.8461
 20
2.96076
 30
0.000000
  70
    32
  0
VERTEX
  8
0
  5
2DF5
 10
-24.8462
 20
2.96050
 30
0.000000
  70
    32
  0
VERTEX
  8
0
  5
2DF6
 10
-24.8463
 20
2.96024
 30
0.000000
  70
    32
  0
VERTEX
  8
0
  5
2DF7
 10
-24.8464
 20
2.95999
 30
0.000000
  70
    32
  0
VERTEX
  8
0
  5
2DF8
 10
-24.8464
 20
2.95973
 30
0.000000
  70
    32
  0
VERTEX
  8
0
  5
2DF9
 10
-24.8465
 20
2.95947
 30
0.000000
  70
    32
  0
VERTEX
  8
0
  5
2DFA
 10
-24.8466
 20
2.95921
 30
0.000000
  70
    32
  0
VERTEX
  8
0
  5
2DFB
 10
-24.8467
 20
2.95895
 30
0.000000
  70
    32
  0
VERTEX
  8
0
  5
2DFC
 10
-24.8468
 20
2.95869
 30
0.000000
  70
    32
  0
VERTEX
  8
0
  5
2DFD
 10
-24.8469
 20
2.95843
 30
0.000000
  70
    32
  0
VERTEX
  8
0
  5
2DFE
 10
-24.8470
 20
2.95817
 30
0.000000
  70
    32
  0
VERTEX
  8
0
  5
2DFF
 10
-24.8470
 20
2.95791
 30
0.000000
  70
    32
  0
VERTEX
  8
0
  5
2E00
 10
-24.8471
 20
2.95764
 30
0.000000
  70
    32
  0
VERTEX
  8
0
  5
2E01
 10
-24.8472
 20
2.95738
 30
0.000000
  70
    32
  0
VERTEX
  8
0
  5
2E02
 10
-24.8473
 20
2.95712
 30
0.000000
  70
    32
  0
VERTEX
  8
0
  5
2E03
 10
-24.8473
 20
2.95685
 30
0.000000
  70
    32
  0
VERTEX
  8
0
  5
2E04
 10
-24.8474
 20
2.95659
 30
0.000000
  70
    32
  0
VERTEX
  8
0
  5
2E05
 10
-24.8475
 20
2.95633
 30
0.000000
  70
    32
  0
VERTEX
  8
0
  5
2E06
 10
-24.8476
 20
2.95606
 30
0.000000
  70
    32
  0
VERTEX
  8
0
  5
2E07
 10
-24.8476
 20
2.95580
 30
0.000000
  70
    32
  0
VERTEX
  8
0
  5
2E08
 10
-24.8477
 20
2.95553
 30
0.000000
  70
    32
  0
VERTEX
  8
0
  5
2E09
 10
-24.8477
 20
2.95527
 30
0.000000
  70
    32
  0
VERTEX
  8
0
  5
2E0A
 10
-24.8478
 20
2.95500
 30
0.000000
  70
    32
  0
VERTEX
  8
0
  5
2E0B
 10
-24.8479
 20
2.95474
 30
0.000000
  70
    32
  0
VERTEX
  8
0
  5
2E0C
 10
-24.8479
 20
2.95447
 30
0.000000
  70
    32
  0
VERTEX
  8
0
  5
2E0D
 10
-24.8480
 20
2.95421
 30
0.000000
  70
    32
  0
VERTEX
  8
0
  5
2E0E
 10
-24.8480
 20
2.95394
 30
0.000000
  70
    32
  0
VERTEX
  8
0
  5
2E0F
 10
-24.8481
 20
2.95367
 30
0.000000
  70
    32
  0
VERTEX
  8
0
  5
2E10
 10
-24.8481
 20
2.95340
 30
0.000000
  70
    32
  0
VERTEX
  8
0
  5
2E11
 10
-24.8482
 20
2.95314
 30
0.000000
  70
    32
  0
VERTEX
  8
0
  5
2E12
 10
-24.8482
 20
2.95287
 30
0.000000
  70
    32
  0
VERTEX
  8
0
  5
2E13
 10
-24.8483
 20
2.95260
 30
0.000000
  70
    32
  0
VERTEX
  8
0
  5
2E14
 10
-24.8483
 20
2.95233
 30
0.000000
  70
    32
  0
VERTEX
  8
0
  5
2E15
 10
-24.8483
 20
2.95206
 30
0.000000
  70
    32
  0
VERTEX
  8
0
  5
2E16
 10
-24.8484
 20
2.95180
 30
0.000000
  70
    32
  0
VERTEX
  8
0
  5
2E17
 10
-24.8484
 20
2.95153
 30
0.000000
  70
    32
  0
VERTEX
  8
0
  5
2E18
 10
-24.8485
 20
2.95126
 30
0.000000
  70
    32
  0
VERTEX
  8
0
  5
2E19
 10
-24.8485
 20
2.95099
 30
0.000000
  70
    32
  0
VERTEX
  8
0
  5
2E1A
 10
-24.8485
 20
2.95072
 30
0.000000
  70
    32
  0
VERTEX
  8
0
  5
2E1B
 10
-24.8486
 20
2.95045
 30
0.000000
  70
    32
  0
VERTEX
  8
0
  5
2E1C
 10
-24.8486
 20
2.95018
 30
0.000000
  70
    32
  0
VERTEX
  8
0
  5
2E1D
 10
-24.8486
 20
2.94991
 30
0.000000
  70
    32
  0
VERTEX
  8
0
  5
2E1E
 10
-24.8486
 20
2.94964
 30
0.000000
  70
    32
  0
VERTEX
  8
0
  5
2E1F
 10
-24.8487
 20
2.94937
 30
0.000000
  70
    32
  0
VERTEX
  8
0
  5
2E20
 10
-24.8487
 20
2.94910
 30
0.000000
  70
    32
  0
VERTEX
  8
0
  5
2E21
 10
-24.8487
 20
2.94883
 30
0.000000
  70
    32
  0
VERTEX
  8
0
  5
2E22
 10
-24.8487
 20
2.94856
 30
0.000000
  70
    32
  0
VERTEX
  8
0
  5
2E23
 10
-24.8487
 20
2.94829
 30
0.000000
  70
    32
  0
VERTEX
  8
0
  5
2E24
 10
-24.8488
 20
2.94802
 30
0.000000
  70
    32
  0
VERTEX
  8
0
  5
2E25
 10
-24.8488
 20
2.94774
 30
0.000000
  70
    32
  0
VERTEX
  8
0
  5
2E26
 10
-24.8488
 20
2.94747
 30
0.000000
  70
    32
  0
VERTEX
  8
0
  5
2E27
 10
-24.8488
 20
2.94720
 30
0.000000
  70
    32
  0
VERTEX
  8
0
  5
2E28
 10
-24.8488
 20
2.94693
 30
0.000000
  70
    32
  0
VERTEX
  8
0
  5
2E29
 10
-24.8488
 20
2.94666
 30
0.000000
  70
    32
  0
VERTEX
  8
0
  5
2E2A
 10
-24.8488
 20
2.94639
 30
0.000000
  70
    32
  0
VERTEX
  8
0
  5
2E2B
 10
-24.8488
 20
2.94612
 30
0.000000
  70
    32
  0
VERTEX
  8
0
  5
2E2C
 10
-24.8488
 20
2.94584
 30
0.000000
  70
    32
  0
VERTEX
  8
0
  5
2E2D
 10
-24.8488
 20
2.94557
 30
0.000000
  70
    32
  0
VERTEX
  8
0
  5
2E2E
 10
-24.8488
 20
2.94530
 30
0.000000
  70
    32
  0
VERTEX
  8
0
  5
2E2F
 10
-24.8488
 20
2.94503
 30
0.000000
  70
    32
  0
VERTEX
  8
0
  5
2E30
 10
-24.8488
 20
2.94476
 30
0.000000
  70
    32
  0
VERTEX
  8
0
  5
2E31
 10
-24.8488
 20
2.94449
 30
0.000000
  70
    32
  0
VERTEX
  8
0
  5
2E32
 10
-24.8488
 20
2.94421
 30
0.000000
  70
    32
  0
SEQEND
  8
0
  5
2E33
  0
POLYLINE
  8
0
  5
2E34
  66
     1
 10
0.000000
 20
0.000000
 30
0.000000
  70
     8
  0
VERTEX
  8
0
  5
2E35
 10
-24.7068
 20
0.236809
 30
0.000000
  70
    32
  0
VERTEX
  8
0
  5
2E36
 10
-24.7067
 20
0.236304
 30
0.000000
  70
    32
  0
VERTEX
  8
0
  5
2E37
 10
-24.7067
 20
0.235802
 30
0.000000
  70
    32
  0
VERTEX
  8
0
  5
2E38
 10
-24.7067
 20
0.235302
 30
0.000000
  70
    32
  0
VERTEX
  8
0
  5
2E39
 10
-24.7066
 20
0.234804
 30
0.000000
  70
    32
  0
VERTEX
  8
0
  5
2E3A
 10
-24.7066
 20
0.234308
 30
0.000000
  70
    32
  0
VERTEX
  8
0
  5
2E3B
 10
-24.7065
 20
0.233814
 30
0.000000
  70
    32
  0
VERTEX
  8
0
  5
2E3C
 10
-24.7065
 20
0.233322
 30
0.000000
  70
    32
  0
VERTEX
  8
0
  5
2E3D
 10
-24.7064
 20
0.232832
 30
0.000000
  70
    32
  0
VERTEX
  8
0
  5
2E3E
 10
-24.7063
 20
0.232345
 30
0.000000
  70
    32
  0
VERTEX
  8
0
  5
2E3F
 10
-24.7062
 20
0.231860
 30
0.000000
  70
    32
  0
VERTEX
  8
0
  5
2E40
 10
-24.7061
 20
0.231377
 30
0.000000
  70
    32
  0
VERTEX
  8
0
  5
2E41
 10
-24.7060
 20
0.230897
 30
0.000000
  70
    32
  0
VERTEX
  8
0
  5
2E42
 10
-24.7059
 20
0.230419
 30
0.000000
  70
    32
  0
VERTEX
  8
0
  5
2E43
 10
-24.7058
 20
0.229943
 30
0.000000
  70
    32
  0
VERTEX
  8
0
  5
2E44
 10
-24.7057
 20
0.229470
 30
0.000000
  70
    32
  0
VERTEX
  8
0
  5
2E45
 10
-24.7056
 20
0.228999
 30
0.000000
  70
    32
  0
VERTEX
  8
0
  5
2E46
 10
-24.7055
 20
0.228531
 30
0.000000
  70
    32
  0
VERTEX
  8
0
  5
2E47
 10
-24.7054
 20
0.228065
 30
0.000000
  70
    32
  0
VERTEX
  8
0
  5
2E48
 10
-24.7052
 20
0.227602
 30
0.000000
  70
    32
  0
VERTEX
  8
0
  5
2E49
 10
-24.7051
 20
0.227142
 30
0.000000
  70
    32
  0
VERTEX
  8
0
  5
2E4A
 10
-24.7049
 20
0.226684
 30
0.000000
  70
    32
  0
VERTEX
  8
0
  5
2E4B
 10
-24.7048
 20
0.226228
 30
0.000000
  70
    32
  0
VERTEX
  8
0
  5
2E4C
 10
-24.7046
 20
0.225776
 30
0.000000
  70
    32
  0
VERTEX
  8
0
  5
2E4D
 10
-24.7045
 20
0.225326
 30
0.000000
  70
    32
  0
VERTEX
  8
0
  5
2E4E
 10
-24.7043
 20
0.224878
 30
0.000000
  70
    32
  0
VERTEX
  8
0
  5
2E4F
 10
-24.7041
 20
0.224434
 30
0.000000
  70
    32
  0
VERTEX
  8
0
  5
2E50
 10
-24.7040
 20
0.223992
 30
0.000000
  70
    32
  0
VERTEX
  8
0
  5
2E51
 10
-24.7038
 20
0.223554
 30
0.000000
  70
    32
  0
VERTEX
  8
0
  5
2E52
 10
-24.7036
 20
0.223118
 30
0.000000
  70
    32
  0
VERTEX
  8
0
  5
2E53
 10
-24.7034
 20
0.222685
 30
0.000000
  70
    32
  0
VERTEX
  8
0
  5
2E54
 10
-24.7032
 20
0.222255
 30
0.000000
  70
    32
  0
VERTEX
  8
0
  5
2E55
 10
-24.7030
 20
0.221827
 30
0.000000
  70
    32
  0
VERTEX
  8
0
  5
2E56
 10
-24.7028
 20
0.221403
 30
0.000000
  70
    32
  0
VERTEX
  8
0
  5
2E57
 10
-24.7026
 20
0.220982
 30
0.000000
  70
    32
  0
VERTEX
  8
0
  5
2E58
 10
-24.7024
 20
0.220564
 30
0.000000
  70
    32
  0
VERTEX
  8
0
  5
2E59
 10
-24.7022
 20
0.220149
 30
0.000000
  70
    32
  0
VERTEX
  8
0
  5
2E5A
 10
-24.7019
 20
0.219737
 30
0.000000
  70
    32
  0
VERTEX
  8
0
  5
2E5B
 10
-24.7017
 20
0.219329
 30
0.000000
  70
    32
  0
VERTEX
  8
0
  5
2E5C
 10
-24.7015
 20
0.218923
 30
0.000000
  70
    32
  0
VERTEX
  8
0
  5
2E5D
 10
-24.7012
 20
0.218521
 30
0.000000
  70
    32
  0
VERTEX
  8
0
  5
2E5E
 10
-24.7010
 20
0.218122
 30
0.000000
  70
    32
  0
VERTEX
  8
0
  5
2E5F
 10
-24.7007
 20
0.217726
 30
0.000000
  70
    32
  0
VERTEX
  8
0
  5
2E60
 10
-24.7005
 20
0.217333
 30
0.000000
  70
    32
  0
VERTEX
  8
0
  5
2E61
 10
-24.7002
 20
0.216944
 30
0.000000
  70
    32
  0
VERTEX
  8
0
  5
2E62
 10
-24.6999
 20
0.216558
 30
0.000000
  70
    32
  0
VERTEX
  8
0
  5
2E63
 10
-24.6997
 20
0.216176
 30
0.000000
  70
    32
  0
VERTEX
  8
0
  5
2E64
 10
-24.6994
 20
0.215797
 30
0.000000
  70
    32
  0
VERTEX
  8
0
  5
2E65
 10
-24.6991
 20
0.215422
 30
0.000000
  70
    32
  0
VERTEX
  8
0
  5
2E66
 10
-24.6989
 20
0.215050
 30
0.000000
  70
    32
  0
VERTEX
  8
0
  5
2E67
 10
-24.6986
 20
0.214681
 30
0.000000
  70
    32
  0
VERTEX
  8
0
  5
2E68
 10
-24.6983
 20
0.214316
 30
0.000000
  70
    32
  0
VERTEX
  8
0
  5
2E69
 10
-24.6980
 20
0.213955
 30
0.000000
  70
    32
  0
VERTEX
  8
0
  5
2E6A
 10
-24.6977
 20
0.213597
 30
0.000000
  70
    32
  0
VERTEX
  8
0
  5
2E6B
 10
-24.6974
 20
0.213243
 30
0.000000
  70
    32
  0
VERTEX
  8
0
  5
2E6C
 10
-24.6971
 20
0.212893
 30
0.000000
  70
    32
  0
VERTEX
  8
0
  5
2E6D
 10
-24.6968
 20
0.212546
 30
0.000000
  70
    32
  0
VERTEX
  8
0
  5
2E6E
 10
-24.6965
 20
0.212203
 30
0.000000
  70
    32
  0
VERTEX
  8
0
  5
2E6F
 10
-24.6961
 20
0.211864
 30
0.000000
  70
    32
  0
VERTEX
  8
0
  5
2E70
 10
-24.6958
 20
0.211529
 30
0.000000
  70
    32
  0
VERTEX
  8
0
  5
2E71
 10
-24.6955
 20
0.211197
 30
0.000000
  70
    32
  0
VERTEX
  8
0
  5
2E72
 10
-24.6952
 20
0.210869
 30
0.000000
  70
    32
  0
VERTEX
  8
0
  5
2E73
 10
-24.6948
 20
0.210546
 30
0.000000
  70
    32
  0
VERTEX
  8
0
  5
2E74
 10
-24.6945
 20
0.210226
 30
0.000000
  70
    32
  0
VERTEX
  8
0
  5
2E75
 10
-24.6941
 20
0.209910
 30
0.000000
  70
    32
  0
VERTEX
  8
0
  5
2E76
 10
-24.6938
 20
0.209598
 30
0.000000
  70
    32
  0
VERTEX
  8
0
  5
2E77
 10
-24.6935
 20
0.209290
 30
0.000000
  70
    32
  0
VERTEX
  8
0
  5
2E78
 10
-24.6931
 20
0.208987
 30
0.000000
  70
    32
  0
VERTEX
  8
0
  5
2E79
 10
-24.6927
 20
0.208687
 30
0.000000
  70
    32
  0
VERTEX
  8
0
  5
2E7A
 10
-24.6924
 20
0.208391
 30
0.000000
  70
    32
  0
VERTEX
  8
0
  5
2E7B
 10
-24.6920
 20
0.208100
 30
0.000000
  70
    32
  0
VERTEX
  8
0
  5
2E7C
 10
-24.6917
 20
0.207813
 30
0.000000
  70
    32
  0
VERTEX
  8
0
  5
2E7D
 10
-24.6913
 20
0.207530
 30
0.000000
  70
    32
  0
VERTEX
  8
0
  5
2E7E
 10
-24.6909
 20
0.207251
 30
0.000000
  70
    32
  0
VERTEX
  8
0
  5
2E7F
 10
-24.6905
 20
0.206977
 30
0.000000
  70
    32
  0
VERTEX
  8
0
  5
2E80
 10
-24.6902
 20
0.206706
 30
0.000000
  70
    32
  0
VERTEX
  8
0
  5
2E81
 10
-24.6898
 20
0.206441
 30
0.000000
  70
    32
  0
VERTEX
  8
0
  5
2E82
 10
-24.6894
 20
0.206179
 30
0.000000
  70
    32
  0
VERTEX
  8
0
  5
2E83
 10
-24.6890
 20
0.205922
 30
0.000000
  70
    32
  0
VERTEX
  8
0
  5
2E84
 10
-24.6886
 20
0.205669
 30
0.000000
  70
    32
  0
VERTEX
  8
0
  5
2E85
 10
-24.6882
 20
0.205421
 30
0.000000
  70
    32
  0
VERTEX
  8
0
  5
2E86
 10
-24.6878
 20
0.205178
 30
0.000000
  70
    32
  0
VERTEX
  8
0
  5
2E87
 10
-24.6874
 20
0.204938
 30
0.000000
  70
    32
  0
VERTEX
  8
0
  5
2E88
 10
-24.6870
 20
0.204704
 30
0.000000
  70
    32
  0
VERTEX
  8
0
  5
2E89
 10
-24.6866
 20
0.204474
 30
0.000000
  70
    32
  0
VERTEX
  8
0
  5
2E8A
 10
-24.6862
 20
0.204248
 30
0.000000
  70
    32
  0
VERTEX
  8
0
  5
2E8B
 10
-24.6858
 20
0.204028
 30
0.000000
  70
    32
  0
VERTEX
  8
0
  5
2E8C
 10
-24.6854
 20
0.203812
 30
0.000000
  70
    32
  0
VERTEX
  8
0
  5
2E8D
 10
-24.6849
 20
0.203600
 30
0.000000
  70
    32
  0
VERTEX
  8
0
  5
2E8E
 10
-24.6845
 20
0.203394
 30
0.000000
  70
    32
  0
VERTEX
  8
0
  5
2E8F
 10
-24.6841
 20
0.203192
 30
0.000000
  70
    32
  0
VERTEX
  8
0
  5
2E90
 10
-24.6837
 20
0.202995
 30
0.000000
  70
    32
  0
VERTEX
  8
0
  5
2E91
 10
-24.6832
 20
0.202803
 30
0.000000
  70
    32
  0
VERTEX
  8
0
  5
2E92
 10
-24.6828
 20
0.202616
 30
0.000000
  70
    32
  0
VERTEX
  8
0
  5
2E93
 10
-24.6824
 20
0.202433
 30
0.000000
  70
    32
  0
VERTEX
  8
0
  5
2E94
 10
-24.6819
 20
0.202256
 30
0.000000
  70
    32
  0
VERTEX
  8
0
  5
2E95
 10
-24.6815
 20
0.202083
 30
0.000000
  70
    32
  0
VERTEX
  8
0
  5
2E96
 10
-24.6810
 20
0.201916
 30
0.000000
  70
    32
  0
VERTEX
  8
0
  5
2E97
 10
-24.6806
 20
0.201753
 30
0.000000
  70
    32
  0
VERTEX
  8
0
  5
2E98
 10
-24.6801
 20
0.201596
 30
0.000000
  70
    32
  0
VERTEX
  8
0
  5
2E99
 10
-24.6797
 20
0.201444
 30
0.000000
  70
    32
  0
VERTEX
  8
0
  5
2E9A
 10
-24.6792
 20
0.201297
 30
0.000000
  70
    32
  0
VERTEX
  8
0
  5
2E9B
 10
-24.6788
 20
0.201155
 30
0.000000
  70
    32
  0
VERTEX
  8
0
  5
2E9C
 10
-24.6783
 20
0.201018
 30
0.000000
  70
    32
  0
VERTEX
  8
0
  5
2E9D
 10
-24.6779
 20
0.200886
 30
0.000000
  70
    32
  0
VERTEX
  8
0
  5
2E9E
 10
-24.6774
 20
0.200760
 30
0.000000
  70
    32
  0
VERTEX
  8
0
  5
2E9F
 10
-24.6769
 20
0.200639
 30
0.000000
  70
    32
  0
VERTEX
  8
0
  5
2EA0
 10
-24.6765
 20
0.200523
 30
0.000000
  70
    32
  0
VERTEX
  8
0
  5
2EA1
 10
-24.6760
 20
0.200413
 30
0.000000
  70
    32
  0
VERTEX
  8
0
  5
2EA2
 10
-24.6755
 20
0.200307
 30
0.000000
  70
    32
  0
VERTEX
  8
0
  5
2EA3
 10
-24.6751
 20
0.200208
 30
0.000000
  70
    32
  0
VERTEX
  8
0
  5
2EA4
 10
-24.6746
 20
0.200114
 30
0.000000
  70
    32
  0
VERTEX
  8
0
  5
2EA5
 10
-24.6741
 20
0.200025
 30
0.000000
  70
    32
  0
VERTEX
  8
0
  5
2EA6
 10
-24.6737
 20
0.199942
 30
0.000000
  70
    32
  0
VERTEX
  8
0
  5
2EA7
 10
-24.6732
 20
0.199864
 30
0.000000
  70
    32
  0
VERTEX
  8
0
  5
2EA8
 10
-24.6727
 20
0.199792
 30
0.000000
  70
    32
  0
VERTEX
  8
0
  5
2EA9
 10
-24.6722
 20
0.199725
 30
0.000000
  70
    32
  0
VERTEX
  8
0
  5
2EAA
 10
-24.6717
 20
0.199664
 30
0.000000
  70
    32
  0
VERTEX
  8
0
  5
2EAB
 10
-24.6712
 20
0.199609
 30
0.000000
  70
    32
  0
VERTEX
  8
0
  5
2EAC
 10
-24.6708
 20
0.199559
 30
0.000000
  70
    32
  0
VERTEX
  8
0
  5
2EAD
 10
-24.6703
 20
0.199515
 30
0.000000
  70
    32
  0
VERTEX
  8
0
  5
2EAE
 10
-24.6698
 20
0.199477
 30
0.000000
  70
    32
  0
VERTEX
  8
0
  5
2EAF
 10
-24.6693
 20
0.199445
 30
0.000000
  70
    32
  0
VERTEX
  8
0
  5
2EB0
 10
-24.6688
 20
0.199418
 30
0.000000
  70
    32
  0
VERTEX
  8
0
  5
2EB1
 10
-24.6683
 20
0.199398
 30
0.000000
  70
    32
  0
VERTEX
  8
0
  5
2EB2
 10
-24.6678
 20
0.199383
 30
0.000000
  70
    32
  0
VERTEX
  8
0
  5
2EB3
 10
-24.6673
 20
0.199374
 30
0.000000
  70
    32
  0
VERTEX
  8
0
  5
2EB4
 10
-24.6668
 20
0.199371
 30
0.000000
  70
    32
  0
SEQEND
  8
0
  5
2EB5
  0
POLYLINE
  8
0
  5
2EB6
  66
     1
 10
0.000000
 20
0.000000
 30
0.000000
  70
     8
  0
VERTEX
  8
0
  5
2EB7
 10
-24.5358
 20
2.98641
 30
0.000000
  70
    32
  0
VERTEX
  8
0
  5
2EB8
 10
-24.5355
 20
2.98641
 30
0.000000
  70
    32
  0
VERTEX
  8
0
  5
2EB9
 10
-24.5351
 20
2.98641
 30
0.000000
  70
    32
  0
VERTEX
  8
0
  5
2EBA
 10
-24.5348
 20
2.98642
 30
0.000000
  70
    32
  0
VERTEX
  8
0
  5
2EBB
 10
-24.5345
 20
2.98642
 30
0.000000
  70
    32
  0
VERTEX
  8
0
  5
2EBC
 10
-24.5341
 20
2.98644
 30
0.000000
  70
    32
  0
VERTEX
  8
0
  5
2EBD
 10
-24.5338
 20
2.98645
 30
0.000000
  70
    32
  0
VERTEX
  8
0
  5
2EBE
 10
-24.5335
 20
2.98647
 30
0.000000
  70
    32
  0
VERTEX
  8
0
  5
2EBF
 10
-24.5332
 20
2.98648
 30
0.000000
  70
    32
  0
VERTEX
  8
0
  5
2EC0
 10
-24.5329
 20
2.98650
 30
0.000000
  70
    32
  0
VERTEX
  8
0
  5
2EC1
 10
-24.5325
 20
2.98653
 30
0.000000
  70
    32
  0
VERTEX
  8
0
  5
2EC2
 10
-24.5322
 20
2.98655
 30
0.000000
  70
    32
  0
VERTEX
  8
0
  5
2EC3
 10
-24.5319
 20
2.98658
 30
0.000000
  70
    32
  0
VERTEX
  8
0
  5
2EC4
 10
-24.5316
 20
2.98661
 30
0.000000
  70
    32
  0
VERTEX
  8
0
  5
2EC5
 10
-24.5313
 20
2.98665
 30
0.000000
  70
    32
  0
VERTEX
  8
0
  5
2EC6
 10
-24.5309
 20
2.98668
 30
0.000000
  70
    32
  0
VERTEX
  8
0
  5
2EC7
 10
-24.5306
 20
2.98672
 30
0.000000
  70
    32
  0
VERTEX
  8
0
  5
2EC8
 10
-24.5303
 20
2.98676
 30
0.000000
  70
    32
  0
VERTEX
  8
0
  5
2EC9
 10
-24.5300
 20
2.98680
 30
0.000000
  70
    32
  0
VERTEX
  8
0
  5
2ECA
 10
-24.5297
 20
2.98684
 30
0.000000
  70
    32
  0
VERTEX
  8
0
  5
2ECB
 10
-24.5294
 20
2.98689
 30
0.000000
  70
    32
  0
VERTEX
  8
0
  5
2ECC
 10
-24.5291
 20
2.98694
 30
0.000000
  70
    32
  0
VERTEX
  8
0
  5
2ECD
 10
-24.5287
 20
2.98699
 30
0.000000
  70
    32
  0
VERTEX
  8
0
  5
2ECE
 10
-24.5284
 20
2.98705
 30
0.000000
  70
    32
  0
VERTEX
  8
0
  5
2ECF
 10
-24.5281
 20
2.98710
 30
0.000000
  70
    32
  0
VERTEX
  8
0
  5
2ED0
 10
-24.5278
 20
2.98716
 30
0.000000
  70
    32
  0
VERTEX
  8
0
  5
2ED1
 10
-24.5275
 20
2.98722
 30
0.000000
  70
    32
  0
VERTEX
  8
0
  5
2ED2
 10
-24.5272
 20
2.98728
 30
0.000000
  70
    32
  0
VERTEX
  8
0
  5
2ED3
 10
-24.5269
 20
2.98735
 30
0.000000
  70
    32
  0
VERTEX
  8
0
  5
2ED4
 10
-24.5266
 20
2.98742
 30
0.000000
  70
    32
  0
VERTEX
  8
0
  5
2ED5
 10
-24.5263
 20
2.98749
 30
0.000000
  70
    32
  0
VERTEX
  8
0
  5
2ED6
 10
-24.5260
 20
2.98756
 30
0.000000
  70
    32
  0
VERTEX
  8
0
  5
2ED7
 10
-24.5257
 20
2.98763
 30
0.000000
  70
    32
  0
VERTEX
  8
0
  5
2ED8
 10
-24.5254
 20
2.98771
 30
0.000000
  70
    32
  0
VERTEX
  8
0
  5
2ED9
 10
-24.5251
 20
2.98779
 30
0.000000
  70
    32
  0
VERTEX
  8
0
  5
2EDA
 10
-24.5248
 20
2.98787
 30
0.000000
  70
    32
  0
VERTEX
  8
0
  5
2EDB
 10
-24.5245
 20
2.98795
 30
0.000000
  70
    32
  0
VERTEX
  8
0
  5
2EDC
 10
-24.5242
 20
2.98804
 30
0.000000
  70
    32
  0
VERTEX
  8
0
  5
2EDD
 10
-24.5239
 20
2.98812
 30
0.000000
  70
    32
  0
VERTEX
  8
0
  5
2EDE
 10
-24.5236
 20
2.98821
 30
0.000000
  70
    32
  0
VERTEX
  8
0
  5
2EDF
 10
-24.5233
 20
2.98830
 30
0.000000
  70
    32
  0
VERTEX
  8
0
  5
2EE0
 10
-24.5230
 20
2.98840
 30
0.000000
  70
    32
  0
VERTEX
  8
0
  5
2EE1
 10
-24.5227
 20
2.98849
 30
0.000000
  70
    32
  0
VERTEX
  8
0
  5
2EE2
 10
-24.5224
 20
2.98859
 30
0.000000
  70
    32
  0
VERTEX
  8
0
  5
2EE3
 10
-24.5221
 20
2.98869
 30
0.000000
  70
    32
  0
VERTEX
  8
0
  5
2EE4
 10
-24.5218
 20
2.98879
 30
0.000000
  70
    32
  0
VERTEX
  8
0
  5
2EE5
 10
-24.5215
 20
2.98890
 30
0.000000
  70
    32
  0
VERTEX
  8
0
  5
2EE6
 10
-24.5213
 20
2.98900
 30
0.000000
  70
    32
  0
VERTEX
  8
0
  5
2EE7
 10
-24.5210
 20
2.98911
 30
0.000000
  70
    32
  0
VERTEX
  8
0
  5
2EE8
 10
-24.5207
 20
2.98922
 30
0.000000
  70
    32
  0
VERTEX
  8
0
  5
2EE9
 10
-24.5204
 20
2.98934
 30
0.000000
  70
    32
  0
VERTEX
  8
0
  5
2EEA
 10
-24.5201
 20
2.98945
 30
0.000000
  70
    32
  0
VERTEX
  8
0
  5
2EEB
 10
-24.5198
 20
2.98957
 30
0.000000
  70
    32
  0
VERTEX
  8
0
  5
2EEC
 10
-24.5196
 20
2.98969
 30
0.000000
  70
    32
  0
VERTEX
  8
0
  5
2EED
 10
-24.5193
 20
2.98981
 30
0.000000
  70
    32
  0
VERTEX
  8
0
  5
2EEE
 10
-24.5190
 20
2.98993
 30
0.000000
  70
    32
  0
VERTEX
  8
0
  5
2EEF
 10
-24.5187
 20
2.99005
 30
0.000000
  70
    32
  0
VERTEX
  8
0
  5
2EF0
 10
-24.5185
 20
2.99018
 30
0.000000
  70
    32
  0
VERTEX
  8
0
  5
2EF1
 10
-24.5182
 20
2.99031
 30
0.000000
  70
    32
  0
VERTEX
  8
0
  5
2EF2
 10
-24.5179
 20
2.99044
 30
0.000000
  70
    32
  0
VERTEX
  8
0
  5
2EF3
 10
-24.5176
 20
2.99057
 30
0.000000
  70
    32
  0
VERTEX
  8
0
  5
2EF4
 10
-24.5174
 20
2.99071
 30
0.000000
  70
    32
  0
VERTEX
  8
0
  5
2EF5
 10
-24.5171
 20
2.99085
 30
0.000000
  70
    32
  0
VERTEX
  8
0
  5
2EF6
 10
-24.5168
 20
2.99098
 30
0.000000
  70
    32
  0
VERTEX
  8
0
  5
2EF7
 10
-24.5166
 20
2.99112
 30
0.000000
  70
    32
  0
VERTEX
  8
0
  5
2EF8
 10
-24.5163
 20
2.99127
 30
0.000000
  70
    32
  0
VERTEX
  8
0
  5
2EF9
 10
-24.5160
 20
2.99141
 30
0.000000
  70
    32
  0
VERTEX
  8
0
  5
2EFA
 10
-24.5158
 20
2.99156
 30
0.000000
  70
    32
  0
VERTEX
  8
0
  5
2EFB
 10
-24.5155
 20
2.99171
 30
0.000000
  70
    32
  0
VERTEX
  8
0
  5
2EFC
 10
-24.5152
 20
2.99186
 30
0.000000
  70
    32
  0
VERTEX
  8
0
  5
2EFD
 10
-24.5150
 20
2.99201
 30
0.000000
  70
    32
  0
VERTEX
  8
0
  5
2EFE
 10
-24.5147
 20
2.99216
 30
0.000000
  70
    32
  0
VERTEX
  8
0
  5
2EFF
 10
-24.5145
 20
2.99232
 30
0.000000
  70
    32
  0
VERTEX
  8
0
  5
2F00
 10
-24.5142
 20
2.99248
 30
0.000000
  70
    32
  0
VERTEX
  8
0
  5
2F01
 10
-24.5140
 20
2.99264
 30
0.000000
  70
    32
  0
VERTEX
  8
0
  5
2F02
 10
-24.5137
 20
2.99280
 30
0.000000
  70
    32
  0
VERTEX
  8
0
  5
2F03
 10
-24.5135
 20
2.99296
 30
0.000000
  70
    32
  0
VERTEX
  8
0
  5
2F04
 10
-24.5132
 20
2.99313
 30
0.000000
  70
    32
  0
VERTEX
  8
0
  5
2F05
 10
-24.5130
 20
2.99329
 30
0.000000
  70
    32
  0
VERTEX
  8
0
  5
2F06
 10
-24.5127
 20
2.99346
 30
0.000000
  70
    32
  0
VERTEX
  8
0
  5
2F07
 10
-24.5125
 20
2.99363
 30
0.000000
  70
    32
  0
VERTEX
  8
0
  5
2F08
 10
-24.5122
 20
2.99380
 30
0.000000
  70
    32
  0
VERTEX
  8
0
  5
2F09
 10
-24.5120
 20
2.99398
 30
0.000000
  70
    32
  0
VERTEX
  8
0
  5
2F0A
 10
-24.5117
 20
2.99415
 30
0.000000
  70
    32
  0
VERTEX
  8
0
  5
2F0B
 10
-24.5115
 20
2.99433
 30
0.000000
  70
    32
  0
VERTEX
  8
0
  5
2F0C
 10
-24.5113
 20
2.99451
 30
0.000000
  70
    32
  0
VERTEX
  8
0
  5
2F0D
 10
-24.5110
 20
2.99469
 30
0.000000
  70
    32
  0
VERTEX
  8
0
  5
2F0E
 10
-24.5108
 20
2.99487
 30
0.000000
  70
    32
  0
VERTEX
  8
0
  5
2F0F
 10
-24.5105
 20
2.99506
 30
0.000000
  70
    32
  0
VERTEX
  8
0
  5
2F10
 10
-24.5103
 20
2.99525
 30
0.000000
  70
    32
  0
VERTEX
  8
0
  5
2F11
 10
-24.5101
 20
2.99543
 30
0.000000
  70
    32
  0
VERTEX
  8
0
  5
2F12
 10
-24.5098
 20
2.99562
 30
0.000000
  70
    32
  0
VERTEX
  8
0
  5
2F13
 10
-24.5096
 20
2.99581
 30
0.000000
  70
    32
  0
VERTEX
  8
0
  5
2F14
 10
-24.5094
 20
2.99601
 30
0.000000
  70
    32
  0
VERTEX
  8
0
  5
2F15
 10
-24.5092
 20
2.99620
 30
0.000000
  70
    32
  0
VERTEX
  8
0
  5
2F16
 10
-24.5089
 20
2.99640
 30
0.000000
  70
    32
  0
VERTEX
  8
0
  5
2F17
 10
-24.5087
 20
2.99660
 30
0.000000
  70
    32
  0
VERTEX
  8
0
  5
2F18
 10
-24.5085
 20
2.99680
 30
0.000000
  70
    32
  0
VERTEX
  8
0
  5
2F19
 10
-24.5083
 20
2.99700
 30
0.000000
  70
    32
  0
VERTEX
  8
0
  5
2F1A
 10
-24.5081
 20
2.99720
 30
0.000000
  70
    32
  0
VERTEX
  8
0
  5
2F1B
 10
-24.5078
 20
2.99741
 30
0.000000
  70
    32
  0
VERTEX
  8
0
  5
2F1C
 10
-24.5076
 20
2.99761
 30
0.000000
  70
    32
  0
VERTEX
  8
0
  5
2F1D
 10
-24.5074
 20
2.99782
 30
0.000000
  70
    32
  0
VERTEX
  8
0
  5
2F1E
 10
-24.5072
 20
2.99803
 30
0.000000
  70
    32
  0
VERTEX
  8
0
  5
2F1F
 10
-24.5070
 20
2.99824
 30
0.000000
  70
    32
  0
VERTEX
  8
0
  5
2F20
 10
-24.5068
 20
2.99845
 30
0.000000
  70
    32
  0
VERTEX
  8
0
  5
2F21
 10
-24.5066
 20
2.99867
 30
0.000000
  70
    32
  0
VERTEX
  8
0
  5
2F22
 10
-24.5064
 20
2.99888
 30
0.000000
  70
    32
  0
VERTEX
  8
0
  5
2F23
 10
-24.5062
 20
2.99910
 30
0.000000
  70
    32
  0
VERTEX
  8
0
  5
2F24
 10
-24.5060
 20
2.99932
 30
0.000000
  70
    32
  0
VERTEX
  8
0
  5
2F25
 10
-24.5058
 20
2.99954
 30
0.000000
  70
    32
  0
VERTEX
  8
0
  5
2F26
 10
-24.5056
 20
2.99976
 30
0.000000
  70
    32
  0
VERTEX
  8
0
  5
2F27
 10
-24.5054
 20
2.99999
 30
0.000000
  70
    32
  0
VERTEX
  8
0
  5
2F28
 10
-24.5052
 20
3.00021
 30
0.000000
  70
    32
  0
VERTEX
  8
0
  5
2F29
 10
-24.5050
 20
3.00044
 30
0.000000
  70
    32
  0
VERTEX
  8
0
  5
2F2A
 10
-24.5048
 20
3.00067
 30
0.000000
  70
    32
  0
VERTEX
  8
0
  5
2F2B
 10
-24.5046
 20
3.00090
 30
0.000000
  70
    32
  0
VERTEX
  8
0
  5
2F2C
 10
-24.5044
 20
3.00113
 30
0.000000
  70
    32
  0
VERTEX
  8
0
  5
2F2D
 10
-24.5042
 20
3.00136
 30
0.000000
  70
    32
  0
VERTEX
  8
0
  5
2F2E
 10
-24.5040
 20
3.00159
 30
0.000000
  70
    32
  0
VERTEX
  8
0
  5
2F2F
 10
-24.5039
 20
3.00183
 30
0.000000
  70
    32
  0
VERTEX
  8
0
  5
2F30
 10
-24.5037
 20
3.00207
 30
0.000000
  70
    32
  0
VERTEX
  8
0
  5
2F31
 10
-24.5035
 20
3.00231
 30
0.000000
  70
    32
  0
VERTEX
  8
0
  5
2F32
 10
-24.5033
 20
3.00255
 30
0.000000
  70
    32
  0
VERTEX
  8
0
  5
2F33
 10
-24.5031
 20
3.00279
 30
0.000000
  70
    32
  0
VERTEX
  8
0
  5
2F34
 10
-24.5030
 20
3.00303
 30
0.000000
  70
    32
  0
VERTEX
  8
0
  5
2F35
 10
-24.5028
 20
3.00327
 30
0.000000
  70
    32
  0
VERTEX
  8
0
  5
2F36
 10
-24.5026
 20
3.00352
 30
0.000000
  70
    32
  0
VERTEX
  8
0
  5
2F37
 10
-24.5025
 20
3.00377
 30
0.000000
  70
    32
  0
VERTEX
  8
0
  5
2F38
 10
-24.5023
 20
3.00401
 30
0.000000
  70
    32
  0
VERTEX
  8
0
  5
2F39
 10
-24.5021
 20
3.00426
 30
0.000000
  70
    32
  0
VERTEX
  8
0
  5
2F3A
 10
-24.5020
 20
3.00451
 30
0.000000
  70
    32
  0
VERTEX
  8
0
  5
2F3B
 10
-24.5018
 20
3.00477
 30
0.000000
  70
    32
  0
VERTEX
  8
0
  5
2F3C
 10
-24.5016
 20
3.00502
 30
0.000000
  70
    32
  0
VERTEX
  8
0
  5
2F3D
 10
-24.5015
 20
3.00528
 30
0.000000
  70
    32
  0
VERTEX
  8
0
  5
2F3E
 10
-24.5013
 20
3.00553
 30
0.000000
  70
    32
  0
VERTEX
  8
0
  5
2F3F
 10
-24.5012
 20
3.00579
 30
0.000000
  70
    32
  0
VERTEX
  8
0
  5
2F40
 10
-24.5010
 20
3.00605
 30
0.000000
  70
    32
  0
VERTEX
  8
0
  5
2F41
 10
-24.5009
 20
3.00631
 30
0.000000
  70
    32
  0
VERTEX
  8
0
  5
2F42
 10
-24.5007
 20
3.00657
 30
0.000000
  70
    32
  0
VERTEX
  8
0
  5
2F43
 10
-24.5006
 20
3.00683
 30
0.000000
  70
    32
  0
VERTEX
  8
0
  5
2F44
 10
-24.5004
 20
3.00710
 30
0.000000
  70
    32
  0
VERTEX
  8
0
  5
2F45
 10
-24.5003
 20
3.00736
 30
0.000000
  70
    32
  0
VERTEX
  8
0
  5
2F46
 10
-24.5001
 20
3.00763
 30
0.000000
  70
    32
  0
VERTEX
  8
0
  5
2F47
 10
-24.5000
 20
3.00790
 30
0.000000
  70
    32
  0
VERTEX
  8
0
  5
2F48
 10
-24.4999
 20
3.00817
 30
0.000000
  70
    32
  0
VERTEX
  8
0
  5
2F49
 10
-24.4997
 20
3.00844
 30
0.000000
  70
    32
  0
VERTEX
  8
0
  5
2F4A
 10
-24.4996
 20
3.00871
 30
0.000000
  70
    32
  0
VERTEX
  8
0
  5
2F4B
 10
-24.4995
 20
3.00898
 30
0.000000
  70
    32
  0
VERTEX
  8
0
  5
2F4C
 10
-24.4993
 20
3.00925
 30
0.000000
  70
    32
  0
VERTEX
  8
0
  5
2F4D
 10
-24.4992
 20
3.00953
 30
0.000000
  70
    32
  0
VERTEX
  8
0
  5
2F4E
 10
-24.4991
 20
3.00981
 30
0.000000
  70
    32
  0
VERTEX
  8
0
  5
2F4F
 10
-24.4990
 20
3.01008
 30
0.000000
  70
    32
  0
VERTEX
  8
0
  5
2F50
 10
-24.4989
 20
3.01036
 30
0.000000
  70
    32
  0
VERTEX
  8
0
  5
2F51
 10
-24.4987
 20
3.01064
 30
0.000000
  70
    32
  0
VERTEX
  8
0
  5
2F52
 10
-24.4986
 20
3.01092
 30
0.000000
  70
    32
  0
VERTEX
  8
0
  5
2F53
 10
-24.4985
 20
3.01121
 30
0.000000
  70
    32
  0
VERTEX
  8
0
  5
2F54
 10
-24.4984
 20
3.01149
 30
0.000000
  70
    32
  0
VERTEX
  8
0
  5
2F55
 10
-24.4983
 20
3.01177
 30
0.000000
  70
    32
  0
VERTEX
  8
0
  5
2F56
 10
-24.4982
 20
3.01206
 30
0.000000
  70
    32
  0
VERTEX
  8
0
  5
2F57
 10
-24.4981
 20
3.01234
 30
0.000000
  70
    32
  0
VERTEX
  8
0
  5
2F58
 10
-24.4980
 20
3.01263
 30
0.000000
  70
    32
  0
VERTEX
  8
0
  5
2F59
 10
-24.4979
 20
3.01292
 30
0.000000
  70
    32
  0
VERTEX
  8
0
  5
2F5A
 10
-24.4978
 20
3.01321
 30
0.000000
  70
    32
  0
VERTEX
  8
0
  5
2F5B
 10
-24.4977
 20
3.01350
 30
0.000000
  70
    32
  0
VERTEX
  8
0
  5
2F5C
 10
-24.4976
 20
3.01379
 30
0.000000
  70
    32
  0
VERTEX
  8
0
  5
2F5D
 10
-24.4975
 20
3.01409
 30
0.000000
  70
    32
  0
VERTEX
  8
0
  5
2F5E
 10
-24.4974
 20
3.01438
 30
0.000000
  70
    32
  0
VERTEX
  8
0
  5
2F5F
 10
-24.4973
 20
3.01468
 30
0.000000
  70
    32
  0
VERTEX
  8
0
  5
2F60
 10
-24.4972
 20
3.01497
 30
0.000000
  70
    32
  0
VERTEX
  8
0
  5
2F61
 10
-24.4971
 20
3.01527
 30
0.000000
  70
    32
  0
VERTEX
  8
0
  5
2F62
 10
-24.4970
 20
3.01557
 30
0.000000
  70
    32
  0
VERTEX
  8
0
  5
2F63
 10
-24.4970
 20
3.01587
 30
0.000000
  70
    32
  0
VERTEX
  8
0
  5
2F64
 10
-24.4969
 20
3.01617
 30
0.000000
  70
    32
  0
VERTEX
  8
0
  5
2F65
 10
-24.4968
 20
3.01647
 30
0.000000
  70
    32
  0
VERTEX
  8
0
  5
2F66
 10
-24.4967
 20
3.01677
 30
0.000000
  70
    32
  0
VERTEX
  8
0
  5
2F67
 10
-24.4967
 20
3.01707
 30
0.000000
  70
    32
  0
VERTEX
  8
0
  5
2F68
 10
-24.4966
 20
3.01738
 30
0.000000
  70
    32
  0
VERTEX
  8
0
  5
2F69
 10
-24.4965
 20
3.01768
 30
0.000000
  70
    32
  0
VERTEX
  8
0
  5
2F6A
 10
-24.4965
 20
3.01799
 30
0.000000
  70
    32
  0
VERTEX
  8
0
  5
2F6B
 10
-24.4964
 20
3.01830
 30
0.000000
  70
    32
  0
VERTEX
  8
0
  5
2F6C
 10
-24.4963
 20
3.01861
 30
0.000000
  70
    32
  0
VERTEX
  8
0
  5
2F6D
 10
-24.4963
 20
3.01891
 30
0.000000
  70
    32
  0
VERTEX
  8
0
  5
2F6E
 10
-24.4962
 20
3.01922
 30
0.000000
  70
    32
  0
VERTEX
  8
0
  5
2F6F
 10
-24.4962
 20
3.01953
 30
0.000000
  70
    32
  0
VERTEX
  8
0
  5
2F70
 10
-24.4961
 20
3.01985
 30
0.000000
  70
    32
  0
VERTEX
  8
0
  5
2F71
 10
-24.4961
 20
3.02016
 30
0.000000
  70
    32
  0
VERTEX
  8
0
  5
2F72
 10
-24.4960
 20
3.02047
 30
0.000000
  70
    32
  0
VERTEX
  8
0
  5
2F73
 10
-24.4960
 20
3.02079
 30
0.000000
  70
    32
  0
VERTEX
  8
0
  5
2F74
 10
-24.4960
 20
3.02110
 30
0.000000
  70
    32
  0
VERTEX
  8
0
  5
2F75
 10
-24.4959
 20
3.02142
 30
0.000000
  70
    32
  0
VERTEX
  8
0
  5
2F76
 10
-24.4959
 20
3.02173
 30
0.000000
  70
    32
  0
VERTEX
  8
0
  5
2F77
 10
-24.4958
 20
3.02205
 30
0.000000
  70
    32
  0
VERTEX
  8
0
  5
2F78
 10
-24.4958
 20
3.02237
 30
0.000000
  70
    32
  0
VERTEX
  8
0
  5
2F79
 10
-24.4958
 20
3.02269
 30
0.000000
  70
    32
  0
VERTEX
  8
0
  5
2F7A
 10
-24.4958
 20
3.02301
 30
0.000000
  70
    32
  0
VERTEX
  8
0
  5
2F7B
 10
-24.4957
 20
3.02333
 30
0.000000
  70
    32
  0
VERTEX
  8
0
  5
2F7C
 10
-24.4957
 20
3.02365
 30
0.000000
  70
    32
  0
VERTEX
  8
0
  5
2F7D
 10
-24.4957
 20
3.02397
 30
0.000000
  70
    32
  0
VERTEX
  8
0
  5
2F7E
 10
-24.4957
 20
3.02429
 30
0.000000
  70
    32
  0
VERTEX
  8
0
  5
2F7F
 10
-24.4957
 20
3.02462
 30
0.000000
  70
    32
  0
VERTEX
  8
0
  5
2F80
 10
-24.4956
 20
3.02494
 30
0.000000
  70
    32
  0
VERTEX
  8
0
  5
2F81
 10
-24.4956
 20
3.02527
 30
0.000000
  70
    32
  0
VERTEX
  8
0
  5
2F82
 10
-24.4956
 20
3.02559
 30
0.000000
  70
    32
  0
VERTEX
  8
0
  5
2F83
 10
-24.4956
 20
3.02592
 30
0.000000
  70
    32
  0
VERTEX
  8
0
  5
2F84
 10
-24.4956
 20
3.02624
 30
0.000000
  70
    32
  0
VERTEX
  8
0
  5
2F85
 10
-24.4956
 20
3.02657
 30
0.000000
  70
    32
  0
VERTEX
  8
0
  5
2F86
 10
-24.4956
 20
3.02689
 30
0.000000
  70
    32
  0
VERTEX
  8
0
  5
2F87
 10
-24.4956
 20
3.02722
 30
0.000000
  70
    32
  0
VERTEX
  8
0
  5
2F88
 10
-24.4956
 20
3.02754
 30
0.000000
  70
    32
  0
VERTEX
  8
0
  5
2F89
 10
-24.4955
 20
3.02787
 30
0.000000
  70
    32
  0
VERTEX
  8
0
  5
2F8A
 10
-24.4955
 20
3.02820
 30
0.000000
  70
    32
  0
VERTEX
  8
0
  5
2F8B
 10
-24.4955
 20
3.02852
 30
0.000000
  70
    32
  0
VERTEX
  8
0
  5
2F8C
 10
-24.4955
 20
3.02885
 30
0.000000
  70
    32
  0
VERTEX
  8
0
  5
2F8D
 10
-24.4955
 20
3.02917
 30
0.000000
  70
    32
  0
VERTEX
  8
0
  5
2F8E
 10
-24.4955
 20
3.02950
 30
0.000000
  70
    32
  0
VERTEX
  8
0
  5
2F8F
 10
-24.4955
 20
3.02983
 30
0.000000
  70
    32
  0
VERTEX
  8
0
  5
2F90
 10
-24.4955
 20
3.03015
 30
0.000000
  70
    32
  0
VERTEX
  8
0
  5
2F91
 10
-24.4955
 20
3.03048
 30
0.000000
  70
    32
  0
VERTEX
  8
0
  5
2F92
 10
-24.4955
 20
3.03081
 30
0.000000
  70
    32
  0
VERTEX
  8
0
  5
2F93
 10
-24.4955
 20
3.03113
 30
0.000000
  70
    32
  0
VERTEX
  8
0
  5
2F94
 10
-24.4955
 20
3.03146
 30
0.000000
  70
    32
  0
VERTEX
  8
0
  5
2F95
 10
-24.4955
 20
3.03178
 30
0.000000
  70
    32
  0
VERTEX
  8
0
  5
2F96
 10
-24.4954
 20
3.03211
 30
0.000000
  70
    32
  0
VERTEX
  8
0
  5
2F97
 10
-24.4954
 20
3.03244
 30
0.000000
  70
    32
  0
VERTEX
  8
0
  5
2F98
 10
-24.4954
 20
3.03276
 30
0.000000
  70
    32
  0
VERTEX
  8
0
  5
2F99
 10
-24.4954
 20
3.03309
 30
0.000000
  70
    32
  0
VERTEX
  8
0
  5
2F9A
 10
-24.4954
 20
3.03341
 30
0.000000
  70
    32
  0
VERTEX
  8
0
  5
2F9B
 10
-24.4954
 20
3.03374
 30
0.000000
  70
    32
  0
VERTEX
  8
0
  5
2F9C
 10
-24.4954
 20
3.03407
 30
0.000000
  70
    32
  0
VERTEX
  8
0
  5
2F9D
 10
-24.4954
 20
3.03439
 30
0.000000
  70
    32
  0
VERTEX
  8
0
  5
2F9E
 10
-24.4954
 20
3.03472
 30
0.000000
  70
    32
  0
VERTEX
  8
0
  5
2F9F
 10
-24.4954
 20
3.03505
 30
0.000000
  70
    32
  0
VERTEX
  8
0
  5
2FA0
 10
-24.4954
 20
3.03537
 30
0.000000
  70
    32
  0
VERTEX
  8
0
  5
2FA1
 10
-24.4954
 20
3.03570
 30
0.000000
  70
    32
  0
VERTEX
  8
0
  5
2FA2
 10
-24.4954
 20
3.03602
 30
0.000000
  70
    32
  0
VERTEX
  8
0
  5
2FA3
 10
-24.4953
 20
3.03635
 30
0.000000
  70
    32
  0
VERTEX
  8
0
  5
2FA4
 10
-24.4953
 20
3.03668
 30
0.000000
  70
    32
  0
VERTEX
  8
0
  5
2FA5
 10
-24.4953
 20
3.03700
 30
0.000000
  70
    32
  0
VERTEX
  8
0
  5
2FA6
 10
-24.4953
 20
3.03733
 30
0.000000
  70
    32
  0
VERTEX
  8
0
  5
2FA7
 10
-24.4953
 20
3.03766
 30
0.000000
  70
    32
  0
VERTEX
  8
0
  5
2FA8
 10
-24.4953
 20
3.03798
 30
0.000000
  70
    32
  0
VERTEX
  8
0
  5
2FA9
 10
-24.4953
 20
3.03831
 30
0.000000
  70
    32
  0
VERTEX
  8
0
  5
2FAA
 10
-24.4953
 20
3.03863
 30
0.000000
  70
    32
  0
VERTEX
  8
0
  5
2FAB
 10
-24.4953
 20
3.03896
 30
0.000000
  70
    32
  0
VERTEX
  8
0
  5
2FAC
 10
-24.4953
 20
3.03929
 30
0.000000
  70
    32
  0
VERTEX
  8
0
  5
2FAD
 10
-24.4953
 20
3.03961
 30
0.000000
  70
    32
  0
VERTEX
  8
0
  5
2FAE
 10
-24.4953
 20
3.03994
 30
0.000000
  70
    32
  0
VERTEX
  8
0
  5
2FAF
 10
-24.4952
 20
3.04027
 30
0.000000
  70
    32
  0
VERTEX
  8
0
  5
2FB0
 10
-24.4952
 20
3.04059
 30
0.000000
  70
    32
  0
VERTEX
  8
0
  5
2FB1
 10
-24.4952
 20
3.04092
 30
0.000000
  70
    32
  0
VERTEX
  8
0
  5
2FB2
 10
-24.4952
 20
3.04124
 30
0.000000
  70
    32
  0
VERTEX
  8
0
  5
2FB3
 10
-24.4952
 20
3.04157
 30
0.000000
  70
    32
  0
VERTEX
  8
0
  5
2FB4
 10
-24.4952
 20
3.04190
 30
0.000000
  70
    32
  0
VERTEX
  8
0
  5
2FB5
 10
-24.4952
 20
3.04222
 30
0.000000
  70
    32
  0
VERTEX
  8
0
  5
2FB6
 10
-24.4952
 20
3.04255
 30
0.000000
  70
    32
  0
VERTEX
  8
0
  5
2FB7
 10
-24.4952
 20
3.04287
 30
0.000000
  70
    32
  0
VERTEX
  8
0
  5
2FB8
 10
-24.4952
 20
3.04320
 30
0.000000
  70
    32
  0
VERTEX
  8
0
  5
2FB9
 10
-24.4952
 20
3.04353
 30
0.000000
  70
    32
  0
VERTEX
  8
0
  5
2FBA
 10
-24.4952
 20
3.04385
 30
0.000000
  70
    32
  0
VERTEX
  8
0
  5
2FBB
 10
-24.4952
 20
3.04418
 30
0.000000
  70
    32
  0
VERTEX
  8
0
  5
2FBC
 10
-24.4951
 20
3.04451
 30
0.000000
  70
    32
  0
VERTEX
  8
0
  5
2FBD
 10
-24.4951
 20
3.04483
 30
0.000000
  70
    32
  0
VERTEX
  8
0
  5
2FBE
 10
-24.4951
 20
3.04516
 30
0.000000
  70
    32
  0
VERTEX
  8
0
  5
2FBF
 10
-24.4951
 20
3.04548
 30
0.000000
  70
    32
  0
VERTEX
  8
0
  5
2FC0
 10
-24.4951
 20
3.04581
 30
0.000000
  70
    32
  0
VERTEX
  8
0
  5
2FC1
 10
-24.4951
 20
3.04614
 30
0.000000
  70
    32
  0
VERTEX
  8
0
  5
2FC2
 10
-24.4951
 20
3.04646
 30
0.000000
  70
    32
  0
VERTEX
  8
0
  5
2FC3
 10
-24.4951
 20
3.04679
 30
0.000000
  70
    32
  0
VERTEX
  8
0
  5
2FC4
 10
-24.4951
 20
3.04712
 30
0.000000
  70
    32
  0
VERTEX
  8
0
  5
2FC5
 10
-24.4951
 20
3.04744
 30
0.000000
  70
    32
  0
VERTEX
  8
0
  5
2FC6
 10
-24.4951
 20
3.04777
 30
0.000000
  70
    32
  0
VERTEX
  8
0
  5
2FC7
 10
-24.4951
 20
3.04809
 30
0.000000
  70
    32
  0
VERTEX
  8
0
  5
2FC8
 10
-24.4951
 20
3.04842
 30
0.000000
  70
    32
  0
VERTEX
  8
0
  5
2FC9
 10
-24.4950
 20
3.04875
 30
0.000000
  70
    32
  0
VERTEX
  8
0
  5
2FCA
 10
-24.4950
 20
3.04907
 30
0.000000
  70
    32
  0
VERTEX
  8
0
  5
2FCB
 10
-24.4950
 20
3.04940
 30
0.000000
  70
    32
  0
VERTEX
  8
0
  5
2FCC
 10
-24.4950
 20
3.04972
 30
0.000000
  70
    32
  0
VERTEX
  8
0
  5
2FCD
 10
-24.4950
 20
3.05005
 30
0.000000
  70
    32
  0
VERTEX
  8
0
  5
2FCE
 10
-24.4950
 20
3.05038
 30
0.000000
  70
    32
  0
VERTEX
  8
0
  5
2FCF
 10
-24.4950
 20
3.05070
 30
0.000000
  70
    32
  0
VERTEX
  8
0
  5
2FD0
 10
-24.4950
 20
3.05103
 30
0.000000
  70
    32
  0
VERTEX
  8
0
  5
2FD1
 10
-24.4950
 20
3.05136
 30
0.000000
  70
    32
  0
VERTEX
  8
0
  5
2FD2
 10
-24.4950
 20
3.05168
 30
0.000000
  70
    32
  0
VERTEX
  8
0
  5
2FD3
 10
-24.4950
 20
3.05201
 30
0.000000
  70
    32
  0
VERTEX
  8
0
  5
2FD4
 10
-24.4950
 20
3.05233
 30
0.000000
  70
    32
  0
VERTEX
  8
0
  5
2FD5
 10
-24.4949
 20
3.05266
 30
0.000000
  70
    32
  0
VERTEX
  8
0
  5
2FD6
 10
-24.4949
 20
3.05299
 30
0.000000
  70
    32
  0
VERTEX
  8
0
  5
2FD7
 10
-24.4949
 20
3.05331
 30
0.000000
  70
    32
  0
VERTEX
  8
0
  5
2FD8
 10
-24.4949
 20
3.05364
 30
0.000000
  70
    32
  0
VERTEX
  8
0
  5
2FD9
 10
-24.4949
 20
3.05397
 30
0.000000
  70
    32
  0
VERTEX
  8
0
  5
2FDA
 10
-24.4949
 20
3.05429
 30
0.000000
  70
    32
  0
VERTEX
  8
0
  5
2FDB
 10
-24.4949
 20
3.05462
 30
0.000000
  70
    32
  0
VERTEX
  8
0
  5
2FDC
 10
-24.4949
 20
3.05494
 30
0.000000
  70
    32
  0
VERTEX
  8
0
  5
2FDD
 10
-24.4949
 20
3.05527
 30
0.000000
  70
    32
  0
VERTEX
  8
0
  5
2FDE
 10
-24.4949
 20
3.05560
 30
0.000000
  70
    32
  0
VERTEX
  8
0
  5
2FDF
 10
-24.4949
 20
3.05592
 30
0.000000
  70
    32
  0
VERTEX
  8
0
  5
2FE0
 10
-24.4949
 20
3.05625
 30
0.000000
  70
    32
  0
VERTEX
  8
0
  5
2FE1
 10
-24.4949
 20
3.05658
 30
0.000000
  70
    32
  0
VERTEX
  8
0
  5
2FE2
 10
-24.4948
 20
3.05690
 30
0.000000
  70
    32
  0
VERTEX
  8
0
  5
2FE3
 10
-24.4948
 20
3.05723
 30
0.000000
  70
    32
  0
VERTEX
  8
0
  5
2FE4
 10
-24.4948
 20
3.05755
 30
0.000000
  70
    32
  0
VERTEX
  8
0
  5
2FE5
 10
-24.4948
 20
3.05788
 30
0.000000
  70
    32
  0
VERTEX
  8
0
  5
2FE6
 10
-24.4948
 20
3.05821
 30
0.000000
  70
    32
  0
VERTEX
  8
0
  5
2FE7
 10
-24.4948
 20
3.05853
 30
0.000000
  70
    32
  0
VERTEX
  8
0
  5
2FE8
 10
-24.4948
 20
3.05886
 30
0.000000
  70
    32
  0
VERTEX
  8
0
  5
2FE9
 10
-24.4948
 20
3.05918
 30
0.000000
  70
    32
  0
VERTEX
  8
0
  5
2FEA
 10
-24.4948
 20
3.05951
 30
0.000000
  70
    32
  0
VERTEX
  8
0
  5
2FEB
 10
-24.4948
 20
3.05984
 30
0.000000
  70
    32
  0
VERTEX
  8
0
  5
2FEC
 10
-24.4948
 20
3.06016
 30
0.000000
  70
    32
  0
VERTEX
  8
0
  5
2FED
 10
-24.4948
 20
3.06049
 30
0.000000
  70
    32
  0
VERTEX
  8
0
  5
2FEE
 10
-24.4948
 20
3.06082
 30
0.000000
  70
    32
  0
VERTEX
  8
0
  5
2FEF
 10
-24.4947
 20
3.06114
 30
0.000000
  70
    32
  0
VERTEX
  8
0
  5
2FF0
 10
-24.4947
 20
3.06147
 30
0.000000
  70
    32
  0
VERTEX
  8
0
  5
2FF1
 10
-24.4947
 20
3.06179
 30
0.000000
  70
    32
  0
VERTEX
  8
0
  5
2FF2
 10
-24.4947
 20
3.06212
 30
0.000000
  70
    32
  0
VERTEX
  8
0
  5
2FF3
 10
-24.4947
 20
3.06245
 30
0.000000
  70
    32
  0
VERTEX
  8
0
  5
2FF4
 10
-24.4947
 20
3.06277
 30
0.000000
  70
    32
  0
VERTEX
  8
0
  5
2FF5
 10
-24.4947
 20
3.06310
 30
0.000000
  70
    32
  0
VERTEX
  8
0
  5
2FF6
 10
-24.4947
 20
3.06343
 30
0.000000
  70
    32
  0
SEQEND
  8
0
  5
2FF7
  0
POLYLINE
  5
2432
  8
0
 66
     1
 10
0.0
 20
0.0
 30
0.0
  0
VERTEX
  5
2433
  8
0
 10
-20.171753948443179
 20
0.0297125176458053
 30
0.0
  0
VERTEX
  5
2434
  8
0
 10
-20.173536699501909
 20
0.0297125176458053
 30
0.0
  0
SEQEND
  5
2435
  8
0
  0
POLYLINE
  5
2436
  8
0
 66
     1
 10
0.0
 20
0.0
 30
0.0
  0
VERTEX
  5
2437
  8
0
 10
-19.641088383289091
 20
0.0297125176458053
 30
0.0
  0
VERTEX
  5
2438
  8
0
 10
-19.643911072465439
 20
0.0297125176458053
 30
0.0
  0
SEQEND
  5
2439
  8
0
  0
POLYLINE
  5
243A
  8
0
 66
     1
 10
0.0
 20
0.0
 30
0.0
  0
VERTEX
  5
243B
  8
0
 10
-19.712695550815479
 20
0.1993709934033063
 30
0.0
  0
VERTEX
  5
243C
  8
0
 10
-20.10207809456378
 20
0.1993709934033063
 30
0.0
  0
SEQEND
  5
243D
  8
0
  0
POLYLINE
  5
243E
  8
0
 66
     1
 10
0.0
 20
0.0
 30
0.0
  0
VERTEX
  5
243F
  8
0
 10
-20.13461330138594
 20
0.0
 30
0.0
  0
VERTEX
  5
2440
  8
0
 10
-19.67941753105217
 20
0.0
 30
0.0
  0
SEQEND
  5
2441
  8
0
  0
POLYLINE
  5
2442
  8
0
 66
     1
 10
0.0
 20
0.0
 30
0.0
  0
VERTEX
  5
2443
  8
0
 10
19.641979758818451
 20
0.0297125176458053
 30
0.0
  0
VERTEX
  5
2444
  8
0
 10
19.640494132936141
 20
0.0297125176458053
 30
0.0
  0
SEQEND
  5
2445
  8
0
  0
POLYLINE
  5
2446
  8
0
 66
     1
 10
0.0
 20
0.0
 30
0.0
  0
VERTEX
  5
2447
  8
0
 10
20.172942449148959
 20
0.0297125176458053
 30
0.0
  0
VERTEX
  5
2448
  8
0
 10
20.170416885149081
 20
0.0297125176458053
 30
0.0
  0
SEQEND
  5
2449
  8
0
  0
POLYLINE
  5
244A
  8
0
 66
     1
 10
0.0
 20
0.0
 30
0.0
  0
VERTEX
  5
244B
  8
0
 10
20.101632406799041
 20
0.1993709934033063
 30
0.0
  0
VERTEX
  5
244C
  8
0
 10
19.712249863050801
 20
0.1993709934033063
 30
0.0
  0
SEQEND
  5
244D
  8
0
  0
POLYLINE
  5
244E
  8
0
 66
     1
 10
0.0
 20
0.0
 30
0.0
  0
VERTEX
  5
244F
  8
0
 10
19.67941753105217
 20
0.0
 30
0.0
  0
VERTEX
  5
2450
  8
0
 10
20.13431617620947
 20
0.0
 30
0.0
  0
SEQEND
  5
2451
  8
0
  0
POLYLINE
  5
2452
  8
0
 66
     1
 10
0.0
 20
0.0
 30
0.0
  0
VERTEX
  5
2453
  8
0
 10
19.7840055931654
 20
0.1993709934033063
 30
0.0
  0
VERTEX
  5
2454
  8
0
 10
-19.784451280930082
 20
0.1993709934033063
 30
0.0
  0
SEQEND
  5
2455
  8
0
  0
POLYLINE
  5
2456
  8
0
 66
     1
 10
0.0
 20
0.0
 30
0.0
  0
VERTEX
  5
2457
  8
0
 10
-24.808986577424012
 20
2.9864051485798759
 30
0.0
  0
VERTEX
  5
2458
  8
0
 10
-6.3257207254978587
 20
2.9864051485798759
 30
0.0
  0
SEQEND
  5
2459
  8
0
  0
POLYLINE
  5
245A
  8
0
 66
     1
 10
0.0
 20
0.0
 30
0.0
  0
VERTEX
  5
245B
  8
0
 10
-24.706775516722448
 20
0.2368087656370221
 30
0.0
  0
VERTEX
  5
245C
  8
0
 10
-24.848801351069401
 20
2.9442133735228131
 30
0.0
  0
SEQEND
  5
245D
  8
0
  0
POLYLINE
  5
245E
  8
0
 66
     1
 10
0.0
 20
0.0
 30
0.0
  0
VERTEX
  5
245F
  8
0
 10
-20.0300252392727
 20
0.1993709934033063
 30
0.0
  0
VERTEX
  5
2460
  8
0
 10
-24.666812180488851
 20
0.1993709934033063
 30
0.0
  0
SEQEND
  5
2461
  8
0
  0
LINE
  5
2462
  8
0
 10
5.8783987723402609
 20
2.9878907744621861
 30
0.0
 11
24.539568732258662
 21
2.9878907744621861
 31
0.0
  0
LINE
  5
2463
  8
0
 10
24.539568732258662
 20
2.9878907744621861
 30
0.0
 11
24.17114054116384
 21
0.1993709934033063
 31
0.0
  0
LINE
  5
2464
  8
0
 10
24.17114054116384
 20
0.1993709934033063
 30
0.0
 11
20.029579551507961
 21
0.1993709934033063
 31
0.0
  0
LINE
  5
2465
  8
0
 10
22.914661196195659
 20
2.987890774462183
 30
0.0
 11
22.768457346629489
 21
0.1993709934033063
 31
0.0
  0
POLYLINE
  5
2466
  8
0
 66
     1
 10
0.0
 20
0.0
 30
0.0
  0
VERTEX
  5
2467
  8
0
 10
-19.641088383289091
 20
0.0297125176458053
 30
0.0
  0
VERTEX
  5
2468
  8
0
 10
-19.608553176466931
 20
0.1595562197579738
 30
0.0
  0
VERTEX
  5
2469
  8
0
 10
-19.608553176466931
 20
0.1993709934033063
 30
0.0
  0
SEQEND
  5
246A
  8
0
  0
POLYLINE
  5
246B
  8
0
 66
     1
 10
0.0
 20
0.0
 30
0.0
  0
VERTEX
  5
246C
  8
0
 10
-20.20547765597118
 20
0.1993709934033063
 30
0.0
  0
VERTEX
  5
246D
  8
0
 10
-20.20547765597118
 20
0.1595562197579738
 30
0.0
  0
VERTEX
  5
246E
  8
0
 10
-20.173536699501909
 20
0.0297125176458053
 30
0.0
  0
SEQEND
  5
246F
  8
0
  0
POLYLINE
  5
2470
  8
0
 66
     1
 10
0.0
 20
0.0
 30
0.0
  0
VERTEX
  5
2471
  8
0
 10
20.172942449148959
 20
0.0297125176458053
 30
0.0
  0
VERTEX
  5
2472
  8
0
 10
20.20518053079471
 20
0.1595562197579738
 30
0.0
  0
VERTEX
  5
2473
  8
0
 10
20.20518053079471
 20
0.1993709934033063
 30
0.0
  0
SEQEND
  5
2474
  8
0
  0
POLYLINE
  5
2475
  8
0
 66
     1
 10
0.0
 20
0.0
 30
0.0
  0
VERTEX
  5
2476
  8
0
 10
19.608553176466931
 20
0.1993709934033063
 30
0.0
  0
VERTEX
  5
2477
  8
0
 10
19.608553176466931
 20
0.1595562197579738
 30
0.0
  0
VERTEX
  5
2478
  8
0
 10
19.640494132936141
 20
0.0297125176458053
 30
0.0
  0
SEQEND
  5
2479
  8
0
  0
POLYLINE
  5
247A
  8
0
 66
     1
 10
0.0
 20
0.0
 30
0.0
  0
VERTEX
  5
247B
  8
0
 10
-23.208655569596971
 20
2.9864051485798759
 30
0.0
  0
VERTEX
  5
247C
  8
0
 10
-22.868537935844198
 20
0.1993709934033099
 30
0.0
  0
SEQEND
  5
247D
  8
0
  0
POLYLINE
  5
247E
  8
0
 66
     1
 10
0.0
 20
0.0
 30
0.0
  0
VERTEX
  5
247F
  8
0
 10
-24.494689807718238
 20
3.0634253253916022
 30
0.0
  0
VERTEX
  5
2480
  8
0
 10
-24.627800518717489
 20
3.4442750455017399
 30
0.0
  0
SEQEND
  5
2481
  8
0
  0
POLYLINE
  5
2482
  8
0
 66
     1
 10
0.0
 20
0.0
 30
0.0
  0
VERTEX
  5
2483
  8
0
 10
23.986692651576359
 20
2.99086202622675
 30
0.0
  0
VERTEX
  5
2484
  8
0
 10
24.119172484729759
 20
3.4472462972663069
 30
0.0
  0
SEQEND
  5
2485
  8
0
  0
LINE
  5
2486
  8
0
 10
-24.852456908830121
 20
3.4442750455017399
 30
0.0
 11
-25.113403607740931
 21
8.3439746590646315
 31
0.0
  0
LINE
  5
2487
  8
0
 10
-6.3257207254978587
 20
0.1993709934033063
 30
0.0
 11
-6.3257207254978587
 21
20.86680066171699
 31
0.0
  0
LINE
  5
2488
  8
0
 10
5.8783987723402609
 20
0.1993709934033063
 30
0.0
 11
5.8783987723402609
 21
20.86680066171699
 31
0.0
  0
ENDSEC
  0
EOF
