  0
SECTION
  2
HEADER
  9
$ACADVER
  1
AC1009
  9
$INSBASE
 10
4711.569572432471432
 20
206.1910060766282129
 30
0.0
  9
$EXTMIN
 10
4711.3427505071449559
 20
203.734371130428201
 30
0.0
  9
$EXTMAX
 10
4711.58054969058594
 20
208.6476410228281964
 30
0.0
  9
$LIMMIN
 10
0.0
 20
0.0
  9
$LIMMAX
 10
11.6929133858000007
 20
8.2677165353999982
  9
$ORTHOMODE
 70
     0
  9
$REGENMODE
 70
     1
  9
$FILLMODE
 70
     1
  9
$QTEXTMODE
 70
     0
  9
$MIRRTEXT
 70
     0
  9
$DRAGMODE
 70
     2
  9
$LTSCALE
 40
0.6431102362
  9
$OSMODE
 70
   575
  9
$ATTMODE
 70
     1
  9
$TEXTSIZE
 40
0.2
  9
$TRACEWID
 40
0.05
  9
$TEXTSTYLE
  7
STANDARD
  9
$CLAYER
  8
0
  9
$CELTYPE
  6
BYLAYER
  9
$CECOLOR
 62
   256
  9
$DIMSCALE
 40
1.0
  9
$DIMASZ
 40
0.1875
  9
$DIMEXO
 40
0.0625
  9
$DIMDLI
 40
0.4443307087
  9
$DIMRND
 40
0.0
  9
$DIMDLE
 40
0.0
  9
$DIMEXE
 40
0.125
  9
$DIMTP
 40
0.01
  9
$DIMTM
 40
0.01
  9
$DIMTXT
 40
2.0
  9
$DIMCEN
 40
0.1052362205
  9
$DIMTSZ
 40
0.0
  9
$DIMTOL
 70
     1
  9
$DIMLIM
 70
     0
  9
$DIMTIH
 70
     1
  9
$DIMTOH
 70
     1
  9
$DIMSE1
 70
     0
  9
$DIMSE2
 70
     0
  9
$DIMTAD
 70
     0
  9
$DIMZIN
 70
     0
  9
$DIMBLK
  1

  9
$DIMASO
 70
     1
  9
$DIMSHO
 70
     1
  9
$DIMPOST
  1
\X
  9
$DIMAPOST
  1

  9
$DIMALT
 70
     1
  9
$DIMALTD
 70
     2
  9
$DIMALTF
 40
25.3999999999999986
  9
$DIMLFAC
 40
1.0
  9
$DIMTOFL
 70
     0
  9
$DIMTVP
 40
0.0
  9
$DIMTIX
 70
     0
  9
$DIMSOXD
 70
     0
  9
$DIMSAH
 70
     0
  9
$DIMBLK1
  1

  9
$DIMBLK2
  1

  9
$DIMSTYLE
  2
STANDARD
  9
$DIMCLRD
 70
     0
  9
$DIMCLRE
 70
     0
  9
$DIMCLRT
 70
     0
  9
$DIMTFAC
 40
1.0
  9
$DIMGAP
 40
0.09
  9
$LUNITS
 70
     2
  9
$LUPREC
 70
     4
  9
$SKETCHINC
 40
0.1
  9
$FILLETRAD
 40
0.0
  9
$AUNITS
 70
     0
  9
$AUPREC
 70
     0
  9
$MENU
  1
.
  9
$ELEVATION
 40
0.0
  9
$PELEVATION
 40
0.0
  9
$THICKNESS
 40
0.0
  9
$LIMCHECK
 70
     0
  9
$BLIPMODE
 70
     0
  9
$CHAMFERA
 40
0.0
  9
$CHAMFERB
 40
0.0
  9
$SKPOLY
 70
     0
  9
$TDCREATE
 40
2458060.468368056230247
  9
$TDUPDATE
 40
2459579.8039004630409181
  9
$TDINDWG
 40
0.4132940972
  9
$TDUSRTIMER
 40
0.4132940972
  9
$USRTIMER
 70
     1
  9
$ANGBASE
 50
0.0
  9
$ANGDIR
 70
     0
  9
$PDMODE
 70
     0
  9
$PDSIZE
 40
0.3125
  9
$PLINEWID
 40
0.0
  9
$COORDS
 70
     1
  9
$SPLFRAME
 70
     0
  9
$SPLINETYPE
 70
     6
  9
$SPLINESEGS
 70
     8
  9
$ATTDIA
 70
     1
  9
$ATTREQ
 70
     1
  9
$HANDLING
 70
     1
  9
$HANDSEED
  5
AB3B
  9
$SURFTAB1
 70
     6
  9
$SURFTAB2
 70
     6
  9
$SURFTYPE
 70
     6
  9
$SURFU
 70
     6
  9
$SURFV
 70
     6
  9
$UCSNAME
  2

  9
$UCSORG
 10
0.0
 20
0.0
 30
0.0
  9
$UCSXDIR
 10
1.0
 20
0.0
 30
0.0
  9
$UCSYDIR
 10
0.0
 20
1.0
 30
0.0
  9
$PUCSNAME
  2

  9
$PUCSORG
 10
0.0
 20
0.0
 30
0.0
  9
$PUCSXDIR
 10
1.0
 20
0.0
 30
0.0
  9
$PUCSYDIR
 10
0.0
 20
1.0
 30
0.0
  9
$USERI1
 70
     0
  9
$USERI2
 70
     0
  9
$USERI3
 70
     0
  9
$USERI4
 70
     0
  9
$USERI5
 70
     0
  9
$USERR1
 40
0.0
  9
$USERR2
 40
0.0
  9
$USERR3
 40
0.0
  9
$USERR4
 40
0.0
  9
$USERR5
 40
0.0
  9
$WORLDVIEW
 70
     1
  9
$SHADEDGE
 70
     3
  9
$SHADEDIF
 70
    70
  9
$TILEMODE
 70
     1
  9
$MAXACTVP
 70
    64
  9
$PLIMCHECK
 70
     0
  9
$PEXTMIN
 10
1.0000000000000000E+20
 20
1.0000000000000000E+20
 30
1.0000000000000000E+20
  9
$PEXTMAX
 10
-1.0000000000000000E+20
 20
-1.0000000000000000E+20
 30
-1.0000000000000000E+20
  9
$PLIMMIN
 10
0.0
 20
0.0
  9
$PLIMMAX
 10
12.0
 20
9.0
  9
$UNITMODE
 70
     0
  9
$VISRETAIN
 70
     1
  9
$PLINEGEN
 70
     0
  9
$PSLTSCALE
 70
     1
  0
ENDSEC
  0
SECTION
  2
TABLES
  0
TABLE
  2
VPORT
 70
     1
  0
VPORT
  2
*ACTIVE
 70
     0
 10
0.0
 20
0.0
 11
1.0
 21
1.0
 12
907.9175827160537438
 22
80.1957438798782647
 13
0.0
 23
0.0
 14
1.0
 24
1.0
 15
0.0
 25
0.0
 16
0.0
 26
0.0
 36
17.1152628219792007
 17
3803.5440673828129547
 27
125.9952621967499056
 37
0.0
 40
4.9604372833670141
 41
2.469551282051281
 42
50.0
 43
0.0
 44
0.0
 50
0.0
 51
0.0
 71
     0
 72
   100
 73
     1
 74
     1
 75
     0
 76
     0
 77
     0
 78
     0
  0
ENDTAB
  0
TABLE
  2
LTYPE
 70
     2
  0
LTYPE
  2
CONTINUOUS
 70
     0
  3
Solid line
 72
    65
 73
     0
 40
0.0
  0
LTYPE
  2
PHANTOM2
 70
     0
  3
___ _ _ ___ _ _ ___ _ _ ___ _ _
 72
    65
 73
     6
 40
1.25
 49
0.625
 49
-0.125
 49
0.125
 49
-0.125
 49
0.125
 49
-0.125
  0
ENDTAB
  0
TABLE
  2
LAYER
 70
     2
  0
LAYER
  2
0
 70
     0
 62
   255
  6
CONTINUOUS
  0
LAYER
  2
DEFPOINTS
 70
     0
 62
     7
  6
CONTINUOUS
  0
ENDTAB
  0
TABLE
  2
STYLE
 70
     1
  0
STYLE
  2
STANDARD
 70
     0
 40
0.0
 41
0.8
 50
0.0
 71
     0
 42
0.2
  3
txt
  4

  0
ENDTAB
  0
TABLE
  2
VIEW
 70
     0
  0
ENDTAB
  0
TABLE
  2
UCS
 70
     0
  0
ENDTAB
  0
TABLE
  2
APPID
 70
     9
  0
APPID
  2
ACAD
 70
     0
  0
APPID
  2
ACAD_MLEADERVER
 70
     0
  0
APPID
  2
ACAD_EXEMPT_FROM_CAD_STANDARDS
 70
     0
  0
APPID
  2
ACAD_NAV_VCDISPLAY
 70
     0
  0
APPID
  2
ACAECLAYERSTANDARD
 70
     0
  0
APPID
  2
ACCMTRANSPARENCY
 70
     0
  0
APPID
  2
ACAD_DSTYLE_DIMJAG
 70
     0
  0
APPID
  2
ACAD_DSTYLE_DIMTALN
 70
     0
  0
APPID
  2
ACDBATTR
 70
     0
  0
ENDTAB
  0
TABLE
  2
DIMSTYLE
 70
     1
  0
DIMSTYLE
  2
STANDARD
 70
     0
  3

  4

  5

  6

  7

 40
1.0
 41
0.1875
 42
0.0625
 43
0.38
 44
0.125
 45
0.0
 46
0.0
 47
0.01
 48
0.01
140
0.15625
141
0.09
142
0.0
143
25.3999999999999986
144
1.0
145
0.0
146
1.0
147
0.09
 71
     1
 72
     0
 73
     1
 74
     1
 75
     0
 76
     0
 77
     0
 78
     4
170
     0
171
     2
172
     0
173
     0
174
     0
175
     0
176
     0
177
     0
178
     0
  0
ENDTAB
  0
ENDSEC
  0
SECTION
  2
BLOCKS
  0
BLOCK
  8
0
  2
$MODEL_SPACE
 70
     0
 10
0.0
 20
0.0
 30
0.0
  3
$MODEL_SPACE
  1

  0
ENDBLK
  5
21
  8
0
  0
BLOCK
 67
     1
  8
0
  2
$PAPER_SPACE
 70
     0
 10
0.0
 20
0.0
 30
0.0
  3
$PAPER_SPACE
  1

  0
ENDBLK
  5
1D
 67
     1
  8
0
  0
BLOCK
  8
0
  2
_FILLED
 70
     0
 10
0.0
 20
0.0
 30
0.0
  3
_FILLED
  1

  0
SOLID
  5
A922
  8
0
  6
BYBLOCK
 62
     0
 10
0.0
 20
0.0
 30
0.0
 11
-1.0
 21
0.1666666667
 31
0.0
 12
-1.0
 22
-0.1666666667
 32
0.0
 13
-1.0
 23
-0.1666666667
 33
0.0
  0
ENDBLK
  5
A923
  8
0
  6
BYBLOCK
 62
     0
  0
ENDSEC
  0
SECTION
  2
ENTITIES
  0
ATTDEF
  5
3930
  8
DEFPOINTS
 10
4711.5698830239180097
 20
206.1944655798691883
 30
0.0
 40
0.001
  1
K-8014
  3

  2
MODELNUMBER
 70
     0
1001
ACDBATTR
1070
     0
1070
     1
  0
ATTDEF
  5
3931
  8
DEFPOINTS
 10
4711.5698830239180097
 20
206.1927989132024948
 30
0.0
 40
0.001
  1
WATERTILE
  3

  2
TRADENAME
 70
     0
1001
ACDBATTR
1070
     0
1070
     1
  0
ATTDEF
  5
3932
  8
DEFPOINTS
 10
4711.5698830239180097
 20
206.1911322465358865
 30
0.0
 40
0.001
  1
BODY SPRAY
  3

  2
PRODUCT
 70
     0
1001
ACDBATTR
1070
     0
1070
     1
  0
LINE
  5
A9AE
  8
0
 10
4711.569572432471432
 20
208.6476410228281964
 30
0.0
 11
4711.569572432471432
 21
203.734371130428201
 31
0.0
  0
LINE
  5
A9AF
  8
0
 10
4711.569572432471432
 20
208.6476410228281964
 30
0.0
 11
4711.4070558460716711
 21
208.6419658186285062
 31
0.0
  0
ARC
  5
A9B0
  8
0
 10
4711.4081028309637986
 20
208.6119840937807055
 30
0.0
 40
0.0300000000366883
 50
91.9999999815975258
 51
177.1364331218688051
  0
ARC
  5
A9B1
  8
0
 10
4718.2311957013480423
 20
208.2706907684435862
 30
0.0
 40
6.8616233394635664
 50
177.1364331218688051
 51
180.0082125643378959
  0
LINE
  5
A9B2
  8
0
 10
4711.3695724323715694
 20
208.2697072488284107
 30
0.0
 11
4711.3695724324707044
 21
204.111318560163312
 31
0.0
  0
ARC
  5
A9B3
  8
0
 10
4718.2311393050704282
 20
204.1113185603284137
 30
0.0
 40
6.8615668725984209
 50
180.0000000013808972
 51
182.8635688925429008
  0
ARC
  5
A9B4
  8
0
 10
4711.4081025779469201
 20
203.7700278028121943
 30
0.0
 40
0.0299997346107927
 50
182.8635688925429008
 51
268.0004658418296231
  0
LINE
  5
A9B5
  8
0
 10
4711.4070558460716711
 20
203.7400463347179027
 30
0.0
 11
4711.569572432471432
 21
203.734371130428201
 31
0.0
  0
ARC
  5
A9B6
  8
0
 10
4711.378153103159093
 20
206.1643629635443915
 30
0.0
 40
0.0761310977644888
 50
96.4715094921140661
 51
105.7412354436362989
  0
ARC
  5
A9B7
  8
0
 10
4711.36428495446944
 20
206.2200347485062082
 30
0.0
 40
0.0188666852817799
 50
111.0796746281767042
 51
168.0833412968275979
  0
ARC
  5
A9B8
  8
0
 10
4711.4891772742503235
 20
206.1942115259415118
 30
0.0
 40
0.1464005836365116
 50
168.2876895580106122
 51
181.2545947064760128
  0
ARC
  5
A9B9
  8
0
 10
4711.4927274800356827
 20
206.1879580402973033
 30
0.0
 40
0.1499466760952615
 50
178.8352416437471106
 51
191.3005980734380955
  0
ARC
  5
A9BA
  8
0
 10
4711.3673888118019022
 20
206.1639918528896942
 30
0.0
 40
0.0223667714466572
 50
194.0153359340365
 51
232.8390297309933885
  0
ARC
  5
A9BB
  8
0
 10
4711.3630329289580914
 20
206.1601039789572951
 30
0.0
 40
0.016675014630423
 50
236.7002275883936875
 51
259.8869053141108907
  0
ARC
  5
A9BC
  8
0
 10
4776.7067092002525897
 20
573.3124633801199934
 30
0.0
 40
372.9384510503106753
 50
259.9084876818217253
 51
259.9099650581180754
  0
ARC
  5
A9BD
  8
0
 10
4711.3747951869745521
 20
206.5090669586132037
 30
0.0
 40
0.0649320181118395
 50
94.6135235274701074
 51
103.9797669568833953
  0
ARC
  5
A9BE
  8
0
 10
4711.3647245150541494
 20
206.5551108020524964
 30
0.0
 40
0.017870207431079
 50
108.3150119298446015
 51
158.21313957515639
  0
ARC
  5
A9BF
  8
0
 10
4711.4552897369976563
 20
206.528536221397502
 30
0.0
 40
0.1121862930872726
 50
162.7824602820745952
 51
179.5717826462895061
  0
ARC
  5
A9C0
  8
0
 10
4711.5133877463549652
 20
206.5183569219069
 30
0.0
 40
0.1706372392092029
 50
176.2979357165932868
 51
188.0733944367823938
  0
ARC
  5
A9C1
  8
0
 10
4711.3684728279868068
 20
206.4987166838731127
 30
0.0
 40
0.0244171036498762
 50
190.2009880819510101
 51
219.9157365708308873
  0
ARC
  5
A9C2
  8
0
 10
4711.362010563205331
 20
206.4944948537720961
 30
0.0
 40
0.0167762536716429
 50
223.0199843839776008
 51
257.8306848798296187
  0
ARC
  5
A9C3
  8
0
 10
4801.8956550423099543
 20
629.7791160339481848
 30
0.0
 40
432.8749646822589057
 50
257.9272681962307274
 51
257.9287704024499135
  0
ARC
  5
A9C4
  8
0
 10
4711.3749020870072854
 20
206.513660679306895
 30
0.0
 40
0.0461451875558273
 50
246.8344507065156961
 51
263.3676780465796128
  0
ARC
  5
A9C5
  8
0
 10
4711.3649646182302604
 20
206.4861529507624027
 30
0.0
 40
0.0170296258427771
 50
201.6642676734282134
 51
241.1559759904311022
  0
ARC
  5
A9C6
  8
0
 10
4711.3743263759361071
 20
206.4896771962656032
 30
0.0
 40
0.0270317371829783
 50
187.4422996473662124
 51
201.2811498400403138
  0
ARC
  5
A9C7
  8
0
 10
4711.3753057947324123
 20
206.4911611025289062
 30
0.0
 40
0.0445371170762669
 50
248.7499384224688015
 51
262.603661164388086
  0
ARC
  5
A9C8
  8
0
 10
4711.3661963238218959
 20
206.4642701565788059
 30
0.0
 40
0.0162216420845116
 50
211.1297885891630983
 51
244.3084014911308941
  0
ARC
  5
A9C9
  8
0
 10
4711.3737255347459723
 20
206.4674060774698887
 30
0.0
 40
0.0243178654955468
 50
179.2264155247823112
 51
208.2821978416704098
  0
ARC
  5
A9CA
  8
0
 10
4711.5743843066993577
 20
206.4788468322815902
 30
0.0
 40
0.2252486987922614
 50
179.7407132699916872
 51
182.827781782833398
  0
ARC
  5
A9CB
  8
0
 10
4711.3846095141043406
 20
206.7517343081788965
 30
0.0
 40
0.0834157613563197
 50
252.7993495327816902
 51
259.6147070357494044
  0
ARC
  5
A9CC
  8
0
 10
4711.3656729219519548
 20
206.6874859295419924
 30
0.0
 40
0.0164661370873656
 50
183.5714978362204874
 51
249.6319626801343077
  0
ARC
  5
A9CD
  8
0
 10
4712.0247778924131126
 20
206.684112457022195
 30
0.0
 40
0.6755432072542944
 50
174.5588130430348883
 51
179.800878299174002
  0
ARC
  5
A9CE
  8
0
 10
4711.3787096787136761
 20
206.7465833050312938
 30
0.0
 40
0.0264786257307174
 50
157.0107888593668974
 51
176.5642896792498959
  0
ARC
  5
A9CF
  8
0
 10
4711.3392977733728912
 20
206.7657397627079092
 30
0.0
 40
0.017429675505533
 50
329.6189787885217015
 51
334.5838378828144073
  0
ARC
  5
A9D0
  8
0
 10
4711.3825530550484473
 20
206.828605778802995
 30
0.0
 40
0.0758373211417923
 50
250.4550819822754875
 51
260.1444939978812272
  0
ARC
  5
A9D1
  8
0
 10
4711.3636739522253265
 20
206.7721496627671911
 30
0.0
 40
0.0163550665045027
 50
215.1674785428656946
 51
246.6130884920067956
  0
ARC
  5
A9D2
  8
0
 10
4711.3776536113227849
 20
206.7778916791442043
 30
0.0
 40
0.0312710752683255
 50
175.0956751715910116
 51
209.003142054038193
  0
ARC
  5
A9D3
  8
0
 10
4711.8870074743435907
 20
206.7776818597374984
 30
0.0
 40
0.5405181400832264
 50
177.9362696462877977
 51
179.6943694572346999
  0
ARC
  5
A9D4
  8
0
 10
4711.3933850568628259
 20
206.9098448568749973
 30
0.0
 40
0.1254813317135097
 50
252.2416737875392982
 51
259.060623160947614
  0
ARC
  5
A9D5
  8
0
 10
4711.3597093011585457
 20
206.8046944557661959
 30
0.0
 40
0.0150699945440523
 50
199.5573313624367131
 51
252.2416737875392982
  0
ARC
  5
A9D6
  8
0
 10
4711.4060664762118904
 20
206.8181107824665048
 30
0.0
 40
0.0633091478025755
 50
175.4596451523790108
 51
196.9538254857027937
  0
ARC
  5
A9D7
  8
0
 10
4711.5539404404171364
 20
206.8244198311379876
 30
0.0
 40
0.2109884259791274
 50
167.9727282910708936
 51
180.3523277725672926
  0
ARC
  5
A9D8
  8
0
 10
4711.3661526062342091
 20
206.8656378438548131
 30
0.0
 40
0.0187711985633357
 50
98.7171981036082684
 51
171.5845074440786959
  0
ARC
  5
A9D9
  8
0
 10
4711.3524402979082879
 20
207.0127263452912985
 30
0.0
 40
0.1289927332389637
 50
274.8327887596939263
 51
277.6322750679253204
  0
ARC
  5
A9DA
  8
0
 10
4711.4059294897142536
 20
207.5302911095357956
 30
0.0
 40
0.1476860843302201
 50
248.7230218585322916
 51
255.7485425030073998
  0
ARC
  5
A9DB
  8
0
 10
4711.3590171702580847
 20
207.407363585263596
 30
0.0
 40
0.0161389808871213
 50
190.9503800295917983
 51
245.5514339011398874
  0
ARC
  5
A9DC
  8
0
 10
4711.3815541520216357
 20
207.4095410652361124
 30
0.0
 40
0.0387385771841158
 50
172.54863493125319
 51
187.7787920722169019
  0
ARC
  5
A9DD
  8
0
 10
4711.9544310537248748
 20
207.3597692849228906
 30
0.0
 40
0.6137393532316087
 50
169.3342632865343091
 51
174.8777257783009986
  0
ARC
  5
A9DE
  8
0
 10
4711.3673306168948329
 20
207.4694375699943976
 30
0.0
 40
0.0165083854848659
 50
114.6071178023507997
 51
166.2565972359919044
  0
ARC
  5
A9DF
  8
0
 10
4711.3696407257830288
 20
207.4580741362140941
 30
0.0
 40
0.0279260036704828
 50
90.1401175227725702
 51
109.2003609046896031
  0
ARC
  5
A9E0
  8
0
 10
4711.3713276314001632
 20
207.4506982993437134
 30
0.0
 40
0.0792902694818718
 50
91.268424388137035
 51
94.0133258485778072
  0
ARC
  5
A9E1
  8
0
 10
4711.3668658367623721
 20
207.5142923806737087
 30
0.0
 40
0.0155398593527093
 50
94.0133258485778072
 51
161.5799002710886896
  0
ARC
  5
A9E2
  8
0
 10
4714.5359162387330798
 20
207.0420866274610887
 30
0.0
 40
3.219345350533779
 50
171.4772081735877975
 51
172.6597425647329089
  0
ARC
  5
A9E3
  8
0
 10
4711.3588117865228924
 20
207.4512688736542998
 30
0.0
 40
0.0159999999466729
 50
172.3636382637411941
 51
217.6736007850493024
  0
ARC
  5
A9E4
  8
0
 10
4711.3850908426220485
 20
207.337303431162411
 30
0.0
 40
0.0804049549423098
 50
245.0737302815689986
 51
258.8719028609007182
  0
ARC
  5
A9E5
  8
0
 10
4711.3608525625577386
 20
207.2797002127547898
 30
0.0
 40
0.0180984503582324
 50
175.0466088673315141
 51
237.7839659006243949
  0
ARC
  5
A9E6
  8
0
 10
4711.6839744995168076
 20
207.2716428508464048
 30
0.0
 40
0.3412884045426335
 50
172.1306185887787876
 51
178.3847593082020921
  0
ARC
  5
A9E7
  8
0
 10
4711.4754283539659809
 20
207.306832770919101
 30
0.0
 40
0.1300411074647062
 50
161.6624344238371975
 51
174.9098473636016138
  0
ARC
  5
A9E8
  8
0
 10
4711.3666854721877826
 20
207.3405193469841947
 30
0.0
 40
0.0163753576245949
 50
93.5365352948006858
 51
153.8137483768011862
  0
ARC
  5
A9E9
  8
0
 10
4711.4168114964186316
 20
206.5294539584899951
 30
0.0
 40
0.8289882314569055
 50
93.2667121684029752
 51
93.5365352948006858
  0
ARC
  5
A9EA
  8
0
 10
4711.3814747449996503
 20
207.0326290056430025
 30
0.0
 40
0.0675034834095579
 50
247.3785585421514099
 51
259.8444320178820135
  0
ARC
  5
A9EB
  8
0
 10
4711.3631836503809609
 20
206.9849429004891874
 30
0.0
 40
0.0165150394840108
 50
186.4638594188822083
 51
242.3132693047868997
  0
ARC
  5
A9EC
  8
0
 10
4711.6152530057461263
 20
206.9896384871101986
 30
0.0
 40
0.2685594138618011
 50
174.6408771172226011
 51
181.3985701814858942
  0
ARC
  5
A9ED
  8
0
 10
4711.710823164780777
 20
206.9888519231375028
 30
0.0
 40
0.3638764090703535
 50
170.5021680072634922
 51
175.9231666092289004
  0
ARC
  5
A9EE
  8
0
 10
4711.4320322756866517
 20
207.2958728137531068
 30
0.0
 40
0.2501981560693536
 50
251.5294363449573041
 51
255.543700896233986
  0
ARC
  5
A9EF
  8
0
 10
4711.3684477846600203
 20
207.046227464937914
 30
0.0
 40
0.0167270705313934
 50
137.7075043353513877
 51
170.8226770550062952
  0
ARC
  5
A9F0
  8
0
 10
4711.3675292751167945
 20
207.0782219233767876
 30
0.0
 40
0.0245854390624205
 50
175.5754264919264074
 51
233.0926133839317913
  0
ARC
  5
A9F1
  8
0
 10
4711.6051547036886404
 20
207.0818957607137065
 30
0.0
 40
0.2621436210484698
 50
168.3706017840256095
 51
180.3884288941600005
  0
ARC
  5
A9F2
  8
0
 10
4711.3696347611921738
 20
207.1316627088733924
 30
0.0
 40
0.0214639491438706
 50
125.3736705771975011
 51
171.7603077515929044
  0
ARC
  5
A9F3
  8
0
 10
4711.3680312986907666
 20
207.1307656342812891
 30
0.0
 40
0.021345476072625
 50
85.8596680360405742
 51
120.4642116491368
  0
ARC
  5
A9F4
  8
0
 10
4711.3720280539710075
 20
207.1312726970652989
 30
0.0
 40
0.0454702318922722
 50
93.0957668168521622
 51
97.3715409269495638
  0
ARC
  5
A9F5
  8
0
 10
4711.3681973942848344
 20
207.1608822848837121
 30
0.0
 40
0.0156138817399823
 50
97.3715409269495638
 51
174.9351372884559908
  0
ARC
  5
A9F6
  8
0
 10
4711.9413338060767273
 20
207.0825029240180015
 30
0.0
 40
0.594067700046255
 50
172.2843360626773119
 51
174.3894550171374931
  0
ARC
  5
A9F7
  8
0
 10
4711.3747951869745521
 20
205.8729415986433935
 30
0.0
 40
0.0649320181118395
 50
256.0202330431167184
 51
265.386476472529921
  0
ARC
  5
A9F8
  8
0
 10
4711.3647245150541494
 20
205.8268977552046124
 30
0.0
 40
0.017870207431079
 50
201.78686042484361
 51
251.6849880701554127
  0
ARC
  5
A9F9
  8
0
 10
4711.4552897369976563
 20
205.8534723358592089
 30
0.0
 40
0.1121862930872726
 50
180.4282173537104086
 51
197.2175397179254048
  0
ARC
  5
A9FA
  8
0
 10
4711.5133877463549652
 20
205.8636516353502088
 30
0.0
 40
0.1706372392092029
 50
171.9266055632176062
 51
183.7020642834067132
  0
ARC
  5
A9FB
  8
0
 10
4711.3684728279868068
 20
205.8832918733835982
 30
0.0
 40
0.0244171036498762
 50
140.0842634291691127
 51
169.7990119180489899
  0
ARC
  5
A9FC
  8
0
 10
4711.362010563205331
 20
205.8875137034845864
 30
0.0
 40
0.0167762536716429
 50
102.1693151201703955
 51
136.9800156160223992
  0
ARC
  5
A9FD
  8
0
 10
4801.8956550423081353
 20
-217.397107476692014
 30
0.0
 40
432.8749646822589057
 50
102.0712295975501007
 51
102.072731803769301
  0
ARC
  5
A9FE
  8
0
 10
4711.3749020870072854
 20
205.8683478779497023
 30
0.0
 40
0.0461451875558273
 50
96.6323219534204156
 51
113.1655492934842044
  0
ARC
  5
A9FF
  8
0
 10
4711.3649646182302604
 20
205.8958556064947061
 30
0.0
 40
0.0170296258427771
 50
118.8440240095687983
 51
158.3357323265717866
  0
ARC
  5
AA00
  8
0
 10
4711.3743263759361071
 20
205.892331360990994
 30
0.0
 40
0.0270317371829783
 50
158.7188501599596009
 51
172.5577003526337023
  0
ARC
  5
AA01
  8
0
 10
4711.3753057947324123
 20
205.8908474547278047
 30
0.0
 40
0.0445371170762669
 50
97.3963388356118145
 51
111.250061577531099
  0
ARC
  5
AA02
  8
0
 10
4711.3661963238218959
 20
205.9177384006783029
 30
0.0
 40
0.0162216420845116
 50
115.6915985088691059
 51
148.8702114108369017
  0
ARC
  5
AA03
  8
0
 10
4711.3737255347459723
 20
205.9146024797867938
 30
0.0
 40
0.0243178654955468
 50
151.7178021583295902
 51
180.7735844752176035
  0
ARC
  5
AA04
  8
0
 10
4711.5743843066993577
 20
205.9031617249754902
 30
0.0
 40
0.2252486987922614
 50
177.1722182171405109
 51
180.2592867300083128
  0
ARC
  5
AA05
  8
0
 10
4711.3846095141043406
 20
205.630274249077786
 30
0.0
 40
0.0834157613563197
 50
100.3852929641990954
 51
107.2006504672182956
  0
ARC
  5
AA06
  8
0
 10
4711.3656729219519548
 20
205.694522627715088
 30
0.0
 40
0.0164661370873656
 50
110.3680373198657065
 51
176.4285021637793989
  0
ARC
  5
AA07
  8
0
 10
4712.0247778924131126
 20
205.6978961002344874
 30
0.0
 40
0.6755432072542944
 50
180.1991217008259127
 51
185.4411869569651117
  0
ARC
  5
AA08
  8
0
 10
4711.3787096787136761
 20
205.6354252522257866
 30
0.0
 40
0.0264786257307174
 50
183.4357103207501041
 51
202.9892111406331026
  0
ARC
  5
AA09
  8
0
 10
4711.3392977733728912
 20
205.6162687945491996
 30
0.0
 40
0.017429675505533
 50
25.4161621171855501
 51
30.3810212114782416
  0
ARC
  5
AA0A
  8
0
 10
4711.3825530550484473
 20
205.5534027784536022
 30
0.0
 40
0.0758373211417923
 50
99.8555060021188154
 51
109.5449180177244983
  0
ARC
  5
AA0B
  8
0
 10
4711.3636739522253265
 20
205.6098588944894914
 30
0.0
 40
0.0163550665045027
 50
113.3869115079932044
 51
144.8325214571343054
  0
ARC
  5
AA0C
  8
0
 10
4711.3776536113227849
 20
205.6041168781123929
 30
0.0
 40
0.0312710752683255
 50
150.996857945961807
 51
184.9043248284089884
  0
ARC
  5
AA0D
  8
0
 10
4711.8870074743435907
 20
205.6043266975192125
 30
0.0
 40
0.5405181400832264
 50
180.3056305427651864
 51
182.0637303537120886
  0
ARC
  5
AA0E
  8
0
 10
4711.3933850568628259
 20
205.4721637003821115
 30
0.0
 40
0.1254813317135097
 50
100.9393768390523007
 51
107.7583262124607018
  0
ARC
  5
AA0F
  8
0
 10
4711.3597093011585457
 20
205.5773141014904013
 30
0.0
 40
0.0150699945440523
 50
107.7583262124607018
 51
160.4426686375632869
  0
ARC
  5
AA10
  8
0
 10
4711.4060664762118904
 20
205.5638977747902061
 30
0.0
 40
0.0633091478025755
 50
163.0461745142970926
 51
184.5403548476209039
  0
ARC
  5
AA11
  8
0
 10
4711.5539404404171364
 20
205.5575887261186949
 30
0.0
 40
0.2109884259791274
 50
179.6476722274325937
 51
192.0272717089289927
  0
ARC
  5
AA12
  8
0
 10
4711.3661526062342091
 20
205.5163707134018125
 30
0.0
 40
0.0187711985633357
 50
188.4154925559211904
 51
261.2828018963916747
  0
ARC
  5
AA13
  8
0
 10
4711.3524402979082879
 20
205.3692822119654124
 30
0.0
 40
0.1289927332389637
 50
82.367724932074708
 51
85.1672112403060737
  0
ARC
  5
AA14
  8
0
 10
4711.4059294897142536
 20
204.8517174477208869
 30
0.0
 40
0.1476860843302201
 50
104.2514574969925008
 51
111.2769781414676942
  0
ARC
  5
AA15
  8
0
 10
4711.3590171702580847
 20
204.9746449719930865
 30
0.0
 40
0.0161389808871213
 50
114.4485660988560056
 51
169.049619970408088
  0
ARC
  5
AA16
  8
0
 10
4711.3815541520216357
 20
204.9724674920205985
 30
0.0
 40
0.0387385771841158
 50
172.2212079277830981
 51
187.4513650687466964
  0
ARC
  5
AA17
  8
0
 10
4711.9544310537248748
 20
205.0222392723337919
 30
0.0
 40
0.6137393532316087
 50
185.1222742216988877
 51
190.6657367134656056
  0
ARC
  5
AA18
  8
0
 10
4711.3673306168948329
 20
204.9125709872625976
 30
0.0
 40
0.0165083854848659
 50
193.7434027640080103
 51
245.392882197648504
  0
ARC
  5
AA19
  8
0
 10
4711.3696407257830288
 20
204.9239344210425884
 30
0.0
 40
0.0279260036704828
 50
250.7996390953103969
 51
269.8598824772274156
  0
ARC
  5
AA1A
  8
0
 10
4711.3713276314001632
 20
204.9313102579133954
 30
0.0
 40
0.0792902694818718
 50
265.9866741514222213
 51
268.7315756118629793
  0
ARC
  5
AA1B
  8
0
 10
4711.3668658367623721
 20
204.8677161765830022
 30
0.0
 40
0.0155398593527093
 50
198.4200997289113104
 51
265.9866741514222213
  0
ARC
  5
AA1C
  8
0
 10
4714.5359162387330798
 20
205.3399219297955938
 30
0.0
 40
3.219345350533779
 50
187.3402574352670058
 51
188.5227918264122025
  0
ARC
  5
AA1D
  8
0
 10
4711.3588117865228924
 20
204.9307396836022974
 30
0.0
 40
0.0159999999466729
 50
142.3263992149506976
 51
187.6363617362586922
  0
ARC
  5
AA1E
  8
0
 10
4711.3850908426220485
 20
205.0447051260941862
 30
0.0
 40
0.0804049549423098
 50
101.128097139099296
 51
114.9262697184310014
  0
ARC
  5
AA1F
  8
0
 10
4711.3608525625577386
 20
205.1023083445022905
 30
0.0
 40
0.0180984503582324
 50
122.2160340993756051
 51
184.9533911326684006
  0
ARC
  5
AA20
  8
0
 10
4711.6839744995168076
 20
205.1103657064103061
 30
0.0
 40
0.3412884045426335
 50
181.6152406917977942
 51
187.8693814112212124
  0
ARC
  5
AA21
  8
0
 10
4711.4754283539659809
 20
205.0751757863380078
 30
0.0
 40
0.1300411074647062
 50
185.090152636398301
 51
198.3375655761626888
  0
ARC
  5
AA22
  8
0
 10
4711.3666854721877826
 20
205.0414892102724025
 30
0.0
 40
0.0163753576245949
 50
206.1862516231988138
 51
266.4634647051993284
  0
ARC
  5
AA23
  8
0
 10
4711.4168114964186316
 20
205.8525545987666021
 30
0.0
 40
0.8289882314569055
 50
266.4634647051993284
 51
266.7332878315970106
  0
ARC
  5
AA24
  8
0
 10
4711.3814747449996503
 20
205.3493795516139926
 30
0.0
 40
0.0675034834095579
 50
100.1555679821180007
 51
112.6214414578479932
  0
ARC
  5
AA25
  8
0
 10
4711.3631836503809609
 20
205.3970656567674098
 30
0.0
 40
0.0165150394840108
 50
117.6867306952130008
 51
173.5361405811177065
  0
ARC
  5
AA26
  8
0
 10
4711.6152530057461263
 20
205.3923700701469102
 30
0.0
 40
0.2685594138618011
 50
178.6014298185141058
 51
185.3591228827773989
  0
ARC
  5
AA27
  8
0
 10
4711.710823164780777
 20
205.3931566341192081
 30
0.0
 40
0.3638764090703535
 50
184.0768333907709859
 51
189.4978319927363941
  0
ARC
  5
AA28
  8
0
 10
4711.4320322756866517
 20
205.0861357435036041
 30
0.0
 40
0.2501981560693536
 50
104.4562991037659998
 51
108.4705636550426959
  0
ARC
  5
AA29
  8
0
 10
4711.3684477846600203
 20
205.3357810923187969
 30
0.0
 40
0.0167270705313934
 50
189.1773229449935911
 51
222.2924956646486123
  0
ARC
  5
AA2A
  8
0
 10
4711.3675292751167945
 20
205.3037866338798096
 30
0.0
 40
0.0245854390624205
 50
126.9073866160681945
 51
184.4245735080735926
  0
ARC
  5
AA2B
  8
0
 10
4711.6051547036886404
 20
205.3001127965428907
 30
0.0
 40
0.2621436210484698
 50
179.6115711058399995
 51
191.629398215948811
  0
ARC
  5
AA2C
  8
0
 10
4711.3696347611921738
 20
205.250345848383688
 30
0.0
 40
0.0214639491438706
 50
188.2396922484070103
 51
234.6263294228016036
  0
ARC
  5
AA2D
  8
0
 10
4711.3680312986907666
 20
205.2512429229757913
 30
0.0
 40
0.021345476072625
 50
239.5357883508632142
 51
274.1403319639593974
  0
ARC
  5
AA2E
  8
0
 10
4711.3720280539710075
 20
205.250735860191412
 30
0.0
 40
0.0454702318922722
 50
262.6284590730501805
 51
266.9042331831478236
  0
ARC
  5
AA2F
  8
0
 10
4711.3681973942848344
 20
205.2211262723729988
 30
0.0
 40
0.0156138817399823
 50
185.0648627115440092
 51
262.6284590730504078
  0
ARC
  5
AA30
  8
0
 10
4711.9413338060767273
 20
205.2995056332385957
 30
0.0
 40
0.594067700046255
 50
185.6105449828625069
 51
187.7156639373226028
  0
ENDSEC
  0
EOF
