  0
SECTION
  2
HEADER
  9
$ACADVER
  1
AC1009
  9
$INSBASE
 10
4709.5298415268925964
 20
206.3898625799938884
 30
0.0
  9
$EXTMIN
 10
4707.0732065806942046
 20
203.9332276337939049
 30
0.0
  9
$EXTMAX
 10
4711.9864764730937168
 20
208.8464975261939003
 30
0.0
  9
$LIMMIN
 10
0.0
 20
0.0
  9
$LIMMAX
 10
11.6929133858000007
 20
8.2677165353999982
  9
$ORTHOMODE
 70
     0
  9
$REGENMODE
 70
     1
  9
$FILLMODE
 70
     1
  9
$QTEXTMODE
 70
     0
  9
$MIRRTEXT
 70
     0
  9
$DRAGMODE
 70
     2
  9
$LTSCALE
 40
0.6431102362
  9
$OSMODE
 70
   575
  9
$ATTMODE
 70
     1
  9
$TEXTSIZE
 40
0.2
  9
$TRACEWID
 40
0.05
  9
$TEXTSTYLE
  7
STANDARD
  9
$CLAYER
  8
0
  9
$CELTYPE
  6
BYLAYER
  9
$CECOLOR
 62
   256
  9
$DIMSCALE
 40
1.0
  9
$DIMASZ
 40
0.1875
  9
$DIMEXO
 40
0.0625
  9
$DIMDLI
 40
0.4443307087
  9
$DIMRND
 40
0.0
  9
$DIMDLE
 40
0.0
  9
$DIMEXE
 40
0.125
  9
$DIMTP
 40
0.01
  9
$DIMTM
 40
0.01
  9
$DIMTXT
 40
2.0
  9
$DIMCEN
 40
0.1052362205
  9
$DIMTSZ
 40
0.0
  9
$DIMTOL
 70
     1
  9
$DIMLIM
 70
     0
  9
$DIMTIH
 70
     1
  9
$DIMTOH
 70
     1
  9
$DIMSE1
 70
     0
  9
$DIMSE2
 70
     0
  9
$DIMTAD
 70
     0
  9
$DIMZIN
 70
     0
  9
$DIMBLK
  1

  9
$DIMASO
 70
     1
  9
$DIMSHO
 70
     1
  9
$DIMPOST
  1
\X
  9
$DIMAPOST
  1

  9
$DIMALT
 70
     1
  9
$DIMALTD
 70
     2
  9
$DIMALTF
 40
25.3999999999999986
  9
$DIMLFAC
 40
1.0
  9
$DIMTOFL
 70
     0
  9
$DIMTVP
 40
0.0
  9
$DIMTIX
 70
     0
  9
$DIMSOXD
 70
     0
  9
$DIMSAH
 70
     0
  9
$DIMBLK1
  1

  9
$DIMBLK2
  1

  9
$DIMSTYLE
  2
STANDARD
  9
$DIMCLRD
 70
     0
  9
$DIMCLRE
 70
     0
  9
$DIMCLRT
 70
     0
  9
$DIMTFAC
 40
1.0
  9
$DIMGAP
 40
0.09
  9
$LUNITS
 70
     2
  9
$LUPREC
 70
     4
  9
$SKETCHINC
 40
0.1
  9
$FILLETRAD
 40
0.0
  9
$AUNITS
 70
     0
  9
$AUPREC
 70
     0
  9
$MENU
  1
.
  9
$ELEVATION
 40
0.0
  9
$PELEVATION
 40
0.0
  9
$THICKNESS
 40
0.0
  9
$LIMCHECK
 70
     0
  9
$BLIPMODE
 70
     0
  9
$CHAMFERA
 40
0.0
  9
$CHAMFERB
 40
0.0
  9
$SKPOLY
 70
     0
  9
$TDCREATE
 40
2458060.468368056230247
  9
$TDUPDATE
 40
2459579.8035416668280959
  9
$TDINDWG
 40
0.4121945602
  9
$TDUSRTIMER
 40
0.4121945602
  9
$USRTIMER
 70
     1
  9
$ANGBASE
 50
0.0
  9
$ANGDIR
 70
     0
  9
$PDMODE
 70
     0
  9
$PDSIZE
 40
0.3125
  9
$PLINEWID
 40
0.0
  9
$COORDS
 70
     1
  9
$SPLFRAME
 70
     0
  9
$SPLINETYPE
 70
     6
  9
$SPLINESEGS
 70
     8
  9
$ATTDIA
 70
     1
  9
$ATTREQ
 70
     1
  9
$HANDLING
 70
     1
  9
$HANDSEED
  5
A84E
  9
$SURFTAB1
 70
     6
  9
$SURFTAB2
 70
     6
  9
$SURFTYPE
 70
     6
  9
$SURFU
 70
     6
  9
$SURFV
 70
     6
  9
$UCSNAME
  2

  9
$UCSORG
 10
0.0
 20
0.0
 30
0.0
  9
$UCSXDIR
 10
1.0
 20
0.0
 30
0.0
  9
$UCSYDIR
 10
0.0
 20
1.0
 30
0.0
  9
$PUCSNAME
  2

  9
$PUCSORG
 10
0.0
 20
0.0
 30
0.0
  9
$PUCSXDIR
 10
1.0
 20
0.0
 30
0.0
  9
$PUCSYDIR
 10
0.0
 20
1.0
 30
0.0
  9
$USERI1
 70
     0
  9
$USERI2
 70
     0
  9
$USERI3
 70
     0
  9
$USERI4
 70
     0
  9
$USERI5
 70
     0
  9
$USERR1
 40
0.0
  9
$USERR2
 40
0.0
  9
$USERR3
 40
0.0
  9
$USERR4
 40
0.0
  9
$USERR5
 40
0.0
  9
$WORLDVIEW
 70
     1
  9
$SHADEDGE
 70
     3
  9
$SHADEDIF
 70
    70
  9
$TILEMODE
 70
     1
  9
$MAXACTVP
 70
    64
  9
$PLIMCHECK
 70
     0
  9
$PEXTMIN
 10
1.0000000000000000E+20
 20
1.0000000000000000E+20
 30
1.0000000000000000E+20
  9
$PEXTMAX
 10
-1.0000000000000000E+20
 20
-1.0000000000000000E+20
 30
-1.0000000000000000E+20
  9
$PLIMMIN
 10
0.0
 20
0.0
  9
$PLIMMAX
 10
12.0
 20
9.0
  9
$UNITMODE
 70
     0
  9
$VISRETAIN
 70
     1
  9
$PLINEGEN
 70
     0
  9
$PSLTSCALE
 70
     1
  0
ENDSEC
  0
SECTION
  2
TABLES
  0
TABLE
  2
VPORT
 70
     1
  0
VPORT
  2
*ACTIVE
 70
     0
 10
0.0
 20
0.0
 11
1.0
 21
1.0
 12
905.9857741376863487
 22
80.3946003774692457
 13
0.0
 23
0.0
 14
1.0
 24
1.0
 15
0.0
 25
0.0
 16
0.0
 26
0.0
 36
17.1152628219792007
 17
3803.5440673828129547
 27
125.9952621967499056
 37
0.0
 40
5.90292037011766
 41
2.469551282051281
 42
50.0
 43
0.0
 44
0.0
 50
0.0
 51
0.0
 71
     0
 72
   100
 73
     1
 74
     1
 75
     0
 76
     0
 77
     0
 78
     0
  0
ENDTAB
  0
TABLE
  2
LTYPE
 70
     2
  0
LTYPE
  2
CONTINUOUS
 70
     0
  3
Solid line
 72
    65
 73
     0
 40
0.0
  0
LTYPE
  2
PHANTOM2
 70
     0
  3
___ _ _ ___ _ _ ___ _ _ ___ _ _
 72
    65
 73
     6
 40
1.25
 49
0.625
 49
-0.125
 49
0.125
 49
-0.125
 49
0.125
 49
-0.125
  0
ENDTAB
  0
TABLE
  2
LAYER
 70
     2
  0
LAYER
  2
0
 70
     0
 62
   255
  6
CONTINUOUS
  0
LAYER
  2
DEFPOINTS
 70
     0
 62
     7
  6
CONTINUOUS
  0
ENDTAB
  0
TABLE
  2
STYLE
 70
     1
  0
STYLE
  2
STANDARD
 70
     0
 40
0.0
 41
0.8
 50
0.0
 71
     0
 42
0.2
  3
txt
  4

  0
ENDTAB
  0
TABLE
  2
VIEW
 70
     0
  0
ENDTAB
  0
TABLE
  2
UCS
 70
     0
  0
ENDTAB
  0
TABLE
  2
APPID
 70
     9
  0
APPID
  2
ACAD
 70
     0
  0
APPID
  2
ACAD_MLEADERVER
 70
     0
  0
APPID
  2
ACAD_EXEMPT_FROM_CAD_STANDARDS
 70
     0
  0
APPID
  2
ACAD_NAV_VCDISPLAY
 70
     0
  0
APPID
  2
ACAECLAYERSTANDARD
 70
     0
  0
APPID
  2
ACCMTRANSPARENCY
 70
     0
  0
APPID
  2
ACAD_DSTYLE_DIMJAG
 70
     0
  0
APPID
  2
ACAD_DSTYLE_DIMTALN
 70
     0
  0
APPID
  2
ACDBATTR
 70
     0
  0
ENDTAB
  0
TABLE
  2
DIMSTYLE
 70
     1
  0
DIMSTYLE
  2
STANDARD
 70
     0
  3

  4

  5

  6

  7

 40
1.0
 41
0.1875
 42
0.0625
 43
0.38
 44
0.125
 45
0.0
 46
0.0
 47
0.01
 48
0.01
140
0.15625
141
0.09
142
0.0
143
25.3999999999999986
144
1.0
145
0.0
146
1.0
147
0.09
 71
     1
 72
     0
 73
     1
 74
     1
 75
     0
 76
     0
 77
     0
 78
     4
170
     0
171
     2
172
     0
173
     0
174
     0
175
     0
176
     0
177
     0
178
     0
  0
ENDTAB
  0
ENDSEC
  0
SECTION
  2
BLOCKS
  0
BLOCK
  8
0
  2
$MODEL_SPACE
 70
     0
 10
0.0
 20
0.0
 30
0.0
  3
$MODEL_SPACE
  1

  0
ENDBLK
  5
21
  8
0
  0
BLOCK
 67
     1
  8
0
  2
$PAPER_SPACE
 70
     0
 10
0.0
 20
0.0
 30
0.0
  3
$PAPER_SPACE
  1

  0
ENDBLK
  5
1D
 67
     1
  8
0
  0
ENDSEC
  0
SECTION
  2
ENTITIES
  0
ATTDEF
  5
3930
  8
DEFPOINTS
 10
4709.5299913938051759
 20
206.3932743009270041
 30
0.0
 40
0.001
  1
K-8014
  3

  2
MODELNUMBER
 70
     0
1001
ACDBATTR
1070
     0
1070
     1
  0
ATTDEF
  5
3931
  8
DEFPOINTS
 10
4709.5299913938051759
 20
206.3916076342603105
 30
0.0
 40
0.001
  1
WATERTILE
  3

  2
TRADENAME
 70
     0
1001
ACDBATTR
1070
     0
1070
     1
  0
ATTDEF
  5
3932
  8
DEFPOINTS
 10
4709.5299913938051759
 20
206.3899409675935885
 30
0.0
 40
0.001
  1
BODY SPRAY
  3

  2
PRODUCT
 70
     0
1001
ACDBATTR
1070
     0
1070
     1
  0
CIRCLE
  5
A69F
  8
0
 10
4709.5298415268925964
 20
206.3898625799938884
 30
0.0
 40
2.456634946199999
  0
CIRCLE
  5
A6A0
  8
0
 10
4709.5298415268925964
 20
206.3898625799938884
 30
0.0
 40
1.8542209332999999
  0
CIRCLE
  5
A6A1
  8
0
 10
4709.5298415268925964
 20
206.3898625799938884
 30
0.0
 40
1.657518218499999
  0
CIRCLE
  5
A6A2
  8
0
 10
4709.5298415268925964
 20
206.9948625799939066
 30
0.0
 40
0.0679999999999996
  0
CIRCLE
  5
A6A3
  8
0
 10
4709.5298415268925964
 20
207.0001044322438872
 30
0.0
 40
0.0129740597500003
  0
CIRCLE
  5
A6A4
  8
0
 10
4709.5298415268925964
 20
206.9992696027939019
 30
0.0
 40
0.0472368788000006
  0
CIRCLE
  5
A6A5
  8
0
 10
4709.2273415268937242
 20
206.9138079492834947
 30
0.0
 40
0.0679999999999996
  0
CIRCLE
  5
A6A6
  8
0
 10
4709.2247206007687055
 20
206.9183475264948981
 30
0.0
 40
0.0129740597500003
  0
CIRCLE
  5
A6A7
  8
0
 10
4709.2251380154939397
 20
206.9176245429833045
 30
0.0
 40
0.0472368788000006
  0
CIRCLE
  5
A6A8
  8
0
 10
4709.0058961576041838
 20
206.6923625799938975
 30
0.0
 40
0.0679999999999996
  0
CIRCLE
  5
A6A9
  8
0
 10
4709.0013565803928941
 20
206.6949835061188878
 30
0.0
 40
0.0129740597500003
  0
CIRCLE
  5
A6AA
  8
0
 10
4709.0020795639038624
 20
206.6945660913939093
 30
0.0
 40
0.0472368788000006
  0
CIRCLE
  5
A6AB
  8
0
 10
4708.9248415268939425
 20
206.3898625799938884
 30
0.0
 40
0.0679999999999996
  0
CIRCLE
  5
A6AC
  8
0
 10
4708.919599674643905
 20
206.3898625799938884
 30
0.0
 40
0.0129740597500003
  0
CIRCLE
  5
A6AD
  8
0
 10
4708.9204345040925546
 20
206.3898625799938884
 30
0.0
 40
0.0472368788000006
  0
CIRCLE
  5
A6AE
  8
0
 10
4709.0058961576041838
 20
206.0873625799939077
 30
0.0
 40
0.0679999999999996
  0
CIRCLE
  5
A6AF
  8
0
 10
4709.0013565803928941
 20
206.084741653868889
 30
0.0
 40
0.0129740597500003
  0
CIRCLE
  5
A6B0
  8
0
 10
4709.0020795639038624
 20
206.0851590685938959
 30
0.0
 40
0.0472368788000006
  0
CIRCLE
  5
A6B1
  8
0
 10
4709.2273415268937242
 20
205.8659172107043105
 30
0.0
 40
0.0679999999999996
  0
CIRCLE
  5
A6B2
  8
0
 10
4709.2247206007687055
 20
205.8613776334929071
 30
0.0
 40
0.0129740597500003
  0
CIRCLE
  5
A6B3
  8
0
 10
4709.2251380154939397
 20
205.862100617004387
 30
0.0
 40
0.0472368788000006
  0
CIRCLE
  5
A6B4
  8
0
 10
4709.5298415268925964
 20
205.7848625799938986
 30
0.0
 40
0.0679999999999996
  0
CIRCLE
  5
A6B5
  8
0
 10
4709.5298415268925964
 20
205.7796207277438896
 30
0.0
 40
0.0129740597500003
  0
CIRCLE
  5
A6B6
  8
0
 10
4709.5298415268925964
 20
205.7804555571939034
 30
0.0
 40
0.0472368788000006
  0
CIRCLE
  5
A6B7
  8
0
 10
4709.8323415268941972
 20
205.8659172107043105
 30
0.0
 40
0.0679999999999996
  0
CIRCLE
  5
A6B8
  8
0
 10
4709.8349624530192159
 20
205.8613776334929071
 30
0.0
 40
0.0129740597500003
  0
CIRCLE
  5
A6B9
  8
0
 10
4709.8345450382939816
 20
205.862100617004387
 30
0.0
 40
0.0472368788000006
  0
CIRCLE
  5
A6BA
  8
0
 10
4710.0537868961837376
 20
206.0873625799939077
 30
0.0
 40
0.0679999999999996
  0
CIRCLE
  5
A6BB
  8
0
 10
4710.0583264733950273
 20
206.084741653868889
 30
0.0
 40
0.0129740597500003
  0
CIRCLE
  5
A6BC
  8
0
 10
4710.05760348988224
 20
206.0851590685938959
 30
0.0
 40
0.0472368788000006
  0
CIRCLE
  5
A6BD
  8
0
 10
4710.1348415268930694
 20
206.3898625799938884
 30
0.0
 40
0.0679999999999996
  0
CIRCLE
  5
A6BE
  8
0
 10
4710.1400833791431069
 20
206.3898625799938884
 30
0.0
 40
0.0129740597500003
  0
CIRCLE
  5
A6BF
  8
0
 10
4710.1392485496926383
 20
206.3898625799938884
 30
0.0
 40
0.0472368788000006
  0
CIRCLE
  5
A6C0
  8
0
 10
4710.0537868961837376
 20
206.6923625799938975
 30
0.0
 40
0.0679999999999996
  0
CIRCLE
  5
A6C1
  8
0
 10
4710.0583264733950273
 20
206.6949835061188878
 30
0.0
 40
0.0129740597500003
  0
CIRCLE
  5
A6C2
  8
0
 10
4710.05760348988224
 20
206.6945660913939093
 30
0.0
 40
0.0472368788000006
  0
CIRCLE
  5
A6C3
  8
0
 10
4709.8323415268941972
 20
206.9138079492834947
 30
0.0
 40
0.0679999999999996
  0
CIRCLE
  5
A6C4
  8
0
 10
4709.8349624530192159
 20
206.9183475264948981
 30
0.0
 40
0.0129740597500003
  0
CIRCLE
  5
A6C5
  8
0
 10
4709.8345450382939816
 20
206.9176245429833045
 30
0.0
 40
0.0472368788000006
  0
CIRCLE
  5
A6C6
  8
0
 10
4710.8148415268942699
 20
206.3898625799938884
 30
0.0
 40
0.0679999999999996
  0
CIRCLE
  5
A6C7
  8
0
 10
4710.8235246732047017
 20
206.3898625799940021
 30
0.0
 40
0.0129992338363327
  0
CIRCLE
  5
A6C8
  8
0
 10
4710.8218024849793437
 20
206.3898611073867073
 30
0.0
 40
0.0473305669435036
  0
CIRCLE
  5
A6C9
  8
0
 10
4710.7710562136753651
 20
206.7224450529506043
 30
0.0
 40
0.0679999999999996
  0
CIRCLE
  5
A6CA
  8
0
 10
4710.779443488951074
 20
206.7246924165876862
 30
0.0
 40
0.0129992338363327
  0
CIRCLE
  5
A6CB
  8
0
 10
4710.7777803640028651
 20
206.7242452590458015
 30
0.0
 40
0.0473305669435036
  0
CIRCLE
  5
A6CC
  8
0
 10
4710.6426841707570929
 20
207.0323625799939009
 30
0.0
 40
0.0679999999999996
  0
CIRCLE
  5
A6CD
  8
0
 10
4710.6502039960478214
 20
207.0367041531499979
 30
0.0
 40
0.0129992338363327
  0
CIRCLE
  5
A6CE
  8
0
 10
4710.6487132735956038
 20
207.035841783721196
 30
0.0
 40
0.0473305669435036
  0
CIRCLE
  5
A6CF
  8
0
 10
4710.4384737407190187
 20
207.2984947938186053
 30
0.0
 40
0.0679999999999996
  0
CIRCLE
  5
A6D0
  8
0
 10
4710.4446136523583846
 20
207.3046347054579996
 30
0.0
 40
0.0129992338363327
  0
CIRCLE
  5
A6D1
  8
0
 10
4710.4433969226738554
 20
207.3034158931934883
 30
0.0
 40
0.0473305669435036
  0
CIRCLE
  5
A6D2
  8
0
 10
4710.1723415268934332
 20
207.502705223856907
 30
0.0
 40
0.0679999999999996
  0
CIRCLE
  5
A6D3
  8
0
 10
4710.1766831000486491
 20
207.5102250491478912
 30
0.0
 40
0.0129992338363327
  0
CIRCLE
  5
A6D4
  8
0
 10
4710.1758232812517235
 20
207.508732854089601
 30
0.0
 40
0.0473305669435036
  0
CIRCLE
  5
A6D5
  8
0
 10
4709.8624239998498524
 20
207.6310772667754065
 30
0.0
 40
0.0679999999999996
  0
CIRCLE
  5
A6D6
  8
0
 10
4709.8646713634871048
 20
207.6394645420515985
 30
0.0
 40
0.0129992338363327
  0
CIRCLE
  5
A6D7
  8
0
 10
4709.8642270508044021
 20
207.6378006548266058
 30
0.0
 40
0.0473305669435036
  0
CIRCLE
  5
A6D8
  8
0
 10
4709.5298415268925964
 20
207.6748625799939134
 30
0.0
 40
0.0679999999999996
  0
CIRCLE
  5
A6D9
  8
0
 10
4709.5298415268925964
 20
207.6835457263059084
 30
0.0
 40
0.0129992338363327
  0
CIRCLE
  5
A6DA
  8
0
 10
4709.5298429995009428
 20
207.6818235380789872
 30
0.0
 40
0.0473305669435036
  0
CIRCLE
  5
A6DB
  8
0
 10
4709.1972590539371595
 20
207.6310772667754065
 30
0.0
 40
0.0679999999999996
  0
CIRCLE
  5
A6DC
  8
0
 10
4709.1950116902999071
 20
207.6394645420515133
 30
0.0
 40
0.0129992338363327
  0
CIRCLE
  5
A6DD
  8
0
 10
4709.1954588478420192
 20
207.6378014171042139
 30
0.0
 40
0.0473305669435036
  0
CIRCLE
  5
A6DE
  8
0
 10
4708.8873415268926692
 20
207.502705223856907
 30
0.0
 40
0.0679999999999996
  0
CIRCLE
  5
A6DF
  8
0
 10
4708.8829999537374533
 20
207.510225049147806
 30
0.0
 40
0.0129992338363327
  0
CIRCLE
  5
A6E0
  8
0
 10
4708.8838623231658858
 20
207.5087343266968105
 30
0.0
 40
0.0473305669435036
  0
CIRCLE
  5
A6E1
  8
0
 10
4708.6212093130689027
 20
207.2984947938186053
 30
0.0
 40
0.0679999999999996
  0
CIRCLE
  5
A6E2
  8
0
 10
4708.6150694014286273
 20
207.3046347054578007
 30
0.0
 40
0.0129992338363327
  0
CIRCLE
  5
A6E3
  8
0
 10
4708.616288213693224
 20
207.3034179757746926
 30
0.0
 40
0.0473305669435036
  0
CIRCLE
  5
A6E4
  8
0
 10
4708.4169988830308284
 20
207.0323625799939009
 30
0.0
 40
0.0679999999999996
  0
CIRCLE
  5
A6E5
  8
0
 10
4708.4094790577401
 20
207.0367041531497989
 30
0.0
 40
0.0129992338363327
  0
CIRCLE
  5
A6E6
  8
0
 10
4708.4109712527979354
 20
207.0358443343517081
 30
0.0
 40
0.0473305669435036
  0
CIRCLE
  5
A6E7
  8
0
 10
4708.2886268401116467
 20
206.7224450529506043
 30
0.0
 40
0.0679999999999996
  0
CIRCLE
  5
A6E8
  8
0
 10
4708.2802395648350284
 20
206.724692416587402
 30
0.0
 40
0.0129992338363327
  0
CIRCLE
  5
A6E9
  8
0
 10
4708.2819034520607602
 20
206.724248103904614
 30
0.0
 40
0.0473305669435036
  0
CIRCLE
  5
A6EA
  8
0
 10
4708.2448415268936515
 20
206.3898625799938884
 30
0.0
 40
0.0679999999999996
  0
CIRCLE
  5
A6EB
  8
0
 10
4708.2361583805823102
 20
206.3898625799938031
 30
0.0
 40
0.0129992338363327
  0
CIRCLE
  5
A6EC
  8
0
 10
4708.2378805688076682
 20
206.3898640526012116
 30
0.0
 40
0.0473305669435036
  0
CIRCLE
  5
A6ED
  8
0
 10
4708.2886268401116467
 20
206.0572801070372009
 30
0.0
 40
0.0679999999999996
  0
CIRCLE
  5
A6EE
  8
0
 10
4708.2802395648350284
 20
206.0550327434000053
 30
0.0
 40
0.0129992338363327
  0
CIRCLE
  5
A6EF
  8
0
 10
4708.2819026897823278
 20
206.05547990094189
 30
0.0
 40
0.0473305669435036
  0
CIRCLE
  5
A6F0
  8
0
 10
4708.4169988830308284
 20
205.7473625799939043
 30
0.0
 40
0.0679999999999996
  0
CIRCLE
  5
A6F1
  8
0
 10
4708.4094790577401
 20
205.7430210068378074
 30
0.0
 40
0.0129992338363327
  0
CIRCLE
  5
A6F2
  8
0
 10
4708.4109697801914081
 20
205.7438833762666945
 30
0.0
 40
0.0473305669435036
  0
CIRCLE
  5
A6F3
  8
0
 10
4708.6212093130689027
 20
205.4812303661691999
 30
0.0
 40
0.0679999999999996
  0
CIRCLE
  5
A6F4
  8
0
 10
4708.6150694014313558
 20
205.4750904545298056
 30
0.0
 40
0.0129992338363327
  0
CIRCLE
  5
A6F5
  8
0
 10
4708.6162861311131564
 20
205.4763092667942033
 30
0.0
 40
0.0473305669435036
  0
CIRCLE
  5
A6F6
  8
0
 10
4708.8873415268926692
 20
205.2770199361308983
 30
0.0
 40
0.0679999999999996
  0
CIRCLE
  5
A6F7
  8
0
 10
4708.8829999537383628
 20
205.269500110839914
 30
0.0
 40
0.0129992338363327
  0
CIRCLE
  5
A6F8
  8
0
 10
4708.8838597725361979
 20
205.2709923058982042
 30
0.0
 40
0.0473305669435036
  0
CIRCLE
  5
A6F9
  8
0
 10
4709.1972590539371595
 20
205.1486478932125124
 30
0.0
 40
0.0679999999999996
  0
CIRCLE
  5
A6FA
  8
0
 10
4709.1950116902999071
 20
205.1402606179362067
 30
0.0
 40
0.0129992338363327
  0
CIRCLE
  5
A6FB
  8
0
 10
4709.1954560029826098
 20
205.1419245051610858
 30
0.0
 40
0.0473305669435036
  0
CIRCLE
  5
A6FC
  8
0
 10
4709.5298415268925964
 20
205.1048625799938918
 30
0.0
 40
0.0679999999999996
  0
CIRCLE
  5
A6FD
  8
0
 10
4709.5298415268944154
 20
205.0961794336818969
 30
0.0
 40
0.0129992338363327
  0
CIRCLE
  5
A6FE
  8
0
 10
4709.5298400542869786
 20
205.0979016219089033
 30
0.0
 40
0.0473305669435036
  0
CIRCLE
  5
A6FF
  8
0
 10
4709.8624239998498524
 20
205.1486478932125124
 30
0.0
 40
0.0679999999999996
  0
CIRCLE
  5
A700
  8
0
 10
4709.8646713634871048
 20
205.140260617936292
 30
0.0
 40
0.0129992338363327
  0
CIRCLE
  5
A701
  8
0
 10
4709.8642242059459022
 20
205.1419237428835913
 30
0.0
 40
0.0473305669435036
  0
CIRCLE
  5
A702
  8
0
 10
4710.1723415268934332
 20
205.2770199361308983
 30
0.0
 40
0.0679999999999996
  0
CIRCLE
  5
A703
  8
0
 10
4710.1766831000486491
 20
205.2695001108399993
 30
0.0
 40
0.0129992338363327
  0
CIRCLE
  5
A704
  8
0
 10
4710.1758207306211261
 20
205.2709908332909094
 30
0.0
 40
0.0473305669435036
  0
CIRCLE
  5
A705
  8
0
 10
4710.4384737407190187
 20
205.4812303661691999
 30
0.0
 40
0.0679999999999996
  0
CIRCLE
  5
A706
  8
0
 10
4710.4446136523592941
 20
205.4750904545300045
 30
0.0
 40
0.0129992338363327
  0
CIRCLE
  5
A707
  8
0
 10
4710.4433948400928784
 20
205.4763071842131126
 30
0.0
 40
0.0473305669435036
  0
CIRCLE
  5
A708
  8
0
 10
4710.6426841707570929
 20
205.7473625799939043
 30
0.0
 40
0.0679999999999996
  0
CIRCLE
  5
A709
  8
0
 10
4710.6502039960478214
 20
205.7430210068380916
 30
0.0
 40
0.0129992338363327
  0
CIRCLE
  5
A70A
  8
0
 10
4710.6487118009899859
 20
205.7438808256360971
 30
0.0
 40
0.0473305669435036
  0
CIRCLE
  5
A70B
  8
0
 10
4710.7710562136753651
 20
206.0572801070372009
 30
0.0
 40
0.0679999999999996
  0
CIRCLE
  5
A70C
  8
0
 10
4710.779443488951074
 20
206.0550327434004032
 30
0.0
 40
0.0129992338363327
  0
CIRCLE
  5
A70D
  8
0
 10
4710.7777796017262517
 20
206.0554770560831912
 30
0.0
 40
0.0473305669435036
  0
CIRCLE
  5
A70E
  8
0
 10
4710.4604848534936536
 20
206.225765052093891
 30
0.0
 40
0.0679999999999996
  0
CIRCLE
  5
A70F
  8
0
 10
4710.4695281914200677
 20
206.2241723836438894
 30
0.0
 40
0.0129973484259253
  0
CIRCLE
  5
A710
  8
0
 10
4710.4681183041266195
 20
206.224388455273612
 30
0.0
 40
0.0473161377314967
  0
CIRCLE
  5
A711
  8
0
 10
4710.4604848534945631
 20
206.5539601078858993
 30
0.0
 40
0.0679999999999996
  0
CIRCLE
  5
A712
  8
0
 10
4710.4695275361036693
 20
206.5555564928297088
 30
0.0
 40
0.0129973484259253
  0
CIRCLE
  5
A713
  8
0
 10
4710.4681287745688678
 20
206.5552773238919997
 30
0.0
 40
0.0473161377314966
  0
CIRCLE
  5
A714
  8
0
 10
4710.348235533476327
 20
206.8623625799924923
 30
0.0
 40
0.0679999999999996
  0
CIRCLE
  5
A715
  8
0
 10
4710.356186879787856
 20
206.8669554707458076
 30
0.0
 40
0.0129973484259253
  0
CIRCLE
  5
A716
  8
0
 10
4710.3549679552961607
 20
206.8662147331345977
 30
0.0
 40
0.0473161377314966
  0
CIRCLE
  5
A717
  8
0
 10
4710.1372758180532401
 20
207.1137745787420101
 30
0.0
 40
0.0679999999999996
  0
CIRCLE
  5
A718
  8
0
 10
4710.143176778355155
 20
207.1208100048959864
 30
0.0
 40
0.0129973484259253
  0
CIRCLE
  5
A719
  8
0
 10
4710.1422847111880401
 20
207.1196970424994959
 30
0.0
 40
0.0473161377314966
  0
CIRCLE
  5
A71A
  8
0
 10
4709.853050562342105
 20
207.2778721066391086
 30
0.0
 40
0.0679999999999996
  0
CIRCLE
  5
A71B
  8
0
 10
4709.8561893937303466
 20
207.286501491967897
 30
0.0
 40
0.0129973484259253
  0
CIRCLE
  5
A71C
  8
0
 10
4709.8557317803551996
 20
207.2851505444766076
 30
0.0
 40
0.0473161377314966
  0
CIRCLE
  5
A71D
  8
0
 10
4709.5298415268971439
 20
207.334862579998088
 30
0.0
 40
0.0679999999999996
  0
CIRCLE
  5
A71E
  8
0
 10
4709.5298396399839476
 20
207.3440450932749002
 30
0.0
 40
0.0129973484259253
  0
CIRCLE
  5
A71F
  8
0
 10
4709.5298716753277404
 20
207.3426191048939984
 30
0.0
 40
0.0473161377314966
  0
CIRCLE
  5
A720
  8
0
 10
4709.2066324914530924
 20
207.2778721066418939
 30
0.0
 40
0.0679999999999996
  0
CIRCLE
  5
A721
  8
0
 10
4709.2034901138276837
 20
207.2865002012460138
 30
0.0
 40
0.0129973484259253
  0
CIRCLE
  5
A722
  8
0
 10
4709.2040079339540171
 20
207.285171167219687
 30
0.0
 40
0.0473161377314966
  0
CIRCLE
  5
A723
  8
0
 10
4708.9224072357401383
 20
207.1137745787472113
 30
0.0
 40
0.0679999999999996
  0
CIRCLE
  5
A724
  8
0
 10
4708.9165033845210928
 20
207.1208075791321903
 30
0.0
 40
0.0129973484259253
  0
CIRCLE
  5
A725
  8
0
 10
4708.9174445326789282
 20
207.1197358005784963
 30
0.0
 40
0.0473161377314966
  0
CIRCLE
  5
A726
  8
0
 10
4708.7114475203161419
 20
206.8623625799995125
 30
0.0
 40
0.0679999999999996
  0
CIRCLE
  5
A727
  8
0
 10
4708.703494287092326
 20
206.8669522025230094
 30
0.0
 40
0.0129973484259253
  0
CIRCLE
  5
A728
  8
0
 10
4708.7047452469259952
 20
206.866266951753289
 30
0.0
 40
0.0473161377314966
  0
CIRCLE
  5
A729
  8
0
 10
4708.5991982002942677
 20
206.5539601078938858
 30
0.0
 40
0.0679999999999996
  0
CIRCLE
  5
A72A
  8
0
 10
4708.5901548623678536
 20
206.5555527763438874
 30
0.0
 40
0.0129973484259253
  0
CIRCLE
  5
A72B
  8
0
 10
4708.5915647496585734
 20
206.555336704714108
 30
0.0
 40
0.0473161377314966
  0
CIRCLE
  5
A72C
  8
0
 10
4708.5991982002924487
 20
206.2257650521019059
 30
0.0
 40
0.0679999999999996
  0
CIRCLE
  5
A72D
  8
0
 10
4708.5901555176851616
 20
206.2241686671580965
 30
0.0
 40
0.0129973484259253
  0
CIRCLE
  5
A72E
  8
0
 10
4708.5915542792190536
 20
206.2244478360958055
 30
0.0
 40
0.0473161377314966
  0
CIRCLE
  5
A72F
  8
0
 10
4708.7114475203106849
 20
205.9173625799953129
 30
0.0
 40
0.0679999999999996
  0
CIRCLE
  5
A730
  8
0
 10
4708.7034961740000654
 20
205.9127696892419976
 30
0.0
 40
0.0129973484259253
  0
CIRCLE
  5
A731
  8
0
 10
4708.7047150984926702
 20
205.9135104268530938
 30
0.0
 40
0.0473161377314966
  0
CIRCLE
  5
A732
  8
0
 10
4708.9224072357346813
 20
205.6659505812457951
 30
0.0
 40
0.0679999999999996
  0
CIRCLE
  5
A733
  8
0
 10
4708.9165062754336759
 20
205.6589151550917904
 30
0.0
 40
0.0129973484259253
  0
CIRCLE
  5
A734
  8
0
 10
4708.9173983425998813
 20
205.6600281174883094
 30
0.0
 40
0.0473161377314966
  0
CIRCLE
  5
A735
  8
0
 10
4709.2066324914458164
 20
205.5018530533486114
 30
0.0
 40
0.0679999999999996
  0
CIRCLE
  5
A736
  8
0
 10
4709.2034936600575747
 20
205.4932236680197946
 30
0.0
 40
0.0129973484259253
  0
CIRCLE
  5
A737
  8
0
 10
4709.2039512734318123
 20
205.4945746155111976
 30
0.0
 40
0.0473161377314966
  0
CIRCLE
  5
A738
  8
0
 10
4709.5298415268889585
 20
205.4448625799896888
 30
0.0
 40
0.0679999999999996
  0
CIRCLE
  5
A739
  8
0
 10
4709.5298434138030643
 20
205.435680066712905
 30
0.0
 40
0.0129973484259253
  0
CIRCLE
  5
A73A
  8
0
 10
4709.529811378460181
 20
205.4371060550938068
 30
0.0
 40
0.0473161377314966
  0
CIRCLE
  5
A73B
  8
0
 10
4709.85305056233301
 20
205.5018530533457977
 30
0.0
 40
0.0679999999999996
  0
CIRCLE
  5
A73C
  8
0
 10
4709.8561929399602377
 20
205.4932249587417914
 30
0.0
 40
0.0129973484259253
  0
CIRCLE
  5
A73D
  8
0
 10
4709.8556751198329948
 20
205.4945539927680898
 30
0.0
 40
0.0473161377314966
  0
CIRCLE
  5
A73E
  8
0
 10
4710.1372758180468736
 20
205.6659505812405939
 30
0.0
 40
0.0679999999999996
  0
CIRCLE
  5
A73F
  8
0
 10
4710.1431796692668286
 20
205.6589175808555865
 30
0.0
 40
0.0129973484259253
  0
CIRCLE
  5
A740
  8
0
 10
4710.1422385211080837
 20
205.6599893594093089
 30
0.0
 40
0.0473161377314966
  0
CIRCLE
  5
A741
  8
0
 10
4710.3482355334717795
 20
205.9173625799882075
 30
0.0
 40
0.0679999999999996
  0
CIRCLE
  5
A742
  8
0
 10
4710.3561887666955954
 20
205.9127729574647105
 30
0.0
 40
0.0129973484259253
  0
CIRCLE
  5
A743
  8
0
 10
4710.3549378068619262
 20
205.9134582082344878
 30
0.0
 40
0.0473161377314966
  0
ENDSEC
  0
EOF
