  0
SECTION
  2
HEADER
  9
$ACADVER
  1
AC1009
  9
$INSBASE
 10
3904.3766130017820615
 20
27.204679024047401
 30
0.0
  9
$EXTMIN
 10
3901.9199780555809411
 20
26.9779461158267289
 30
0.0
  9
$EXTMAX
 10
3906.8332479479809081
 20
27.2096079531615302
 30
0.0
  9
$LIMMIN
 10
0.0
 20
0.0
  9
$LIMMAX
 10
11.6929133858000007
 20
8.2677165353999982
  9
$ORTHOMODE
 70
     1
  9
$REGENMODE
 70
     1
  9
$FILLMODE
 70
     1
  9
$QTEXTMODE
 70
     0
  9
$MIRRTEXT
 70
     0
  9
$DRAGMODE
 70
     2
  9
$LTSCALE
 40
0.6431102362
  9
$OSMODE
 70
  4095
  9
$ATTMODE
 70
     1
  9
$TEXTSIZE
 40
0.2
  9
$TRACEWID
 40
0.05
  9
$TEXTSTYLE
  7
STANDARD
  9
$CLAYER
  8
0
  9
$CELTYPE
  6
BYLAYER
  9
$CECOLOR
 62
   256
  9
$DIMSCALE
 40
1.0
  9
$DIMASZ
 40
0.1875
  9
$DIMEXO
 40
0.0625
  9
$DIMDLI
 40
0.4443307087
  9
$DIMRND
 40
0.0
  9
$DIMDLE
 40
0.0
  9
$DIMEXE
 40
0.125
  9
$DIMTP
 40
0.01
  9
$DIMTM
 40
0.01
  9
$DIMTXT
 40
2.0
  9
$DIMCEN
 40
0.1052362205
  9
$DIMTSZ
 40
0.0
  9
$DIMTOL
 70
     1
  9
$DIMLIM
 70
     0
  9
$DIMTIH
 70
     1
  9
$DIMTOH
 70
     1
  9
$DIMSE1
 70
     0
  9
$DIMSE2
 70
     0
  9
$DIMTAD
 70
     0
  9
$DIMZIN
 70
     0
  9
$DIMBLK
  1

  9
$DIMASO
 70
     1
  9
$DIMSHO
 70
     1
  9
$DIMPOST
  1
\X
  9
$DIMAPOST
  1

  9
$DIMALT
 70
     1
  9
$DIMALTD
 70
     2
  9
$DIMALTF
 40
25.3999999999999986
  9
$DIMLFAC
 40
1.0
  9
$DIMTOFL
 70
     0
  9
$DIMTVP
 40
0.0
  9
$DIMTIX
 70
     0
  9
$DIMSOXD
 70
     0
  9
$DIMSAH
 70
     0
  9
$DIMBLK1
  1

  9
$DIMBLK2
  1

  9
$DIMSTYLE
  2
STANDARD
  9
$DIMCLRD
 70
     0
  9
$DIMCLRE
 70
     0
  9
$DIMCLRT
 70
     0
  9
$DIMTFAC
 40
1.0
  9
$DIMGAP
 40
0.09
  9
$LUNITS
 70
     2
  9
$LUPREC
 70
     4
  9
$SKETCHINC
 40
0.1
  9
$FILLETRAD
 40
0.0
  9
$AUNITS
 70
     0
  9
$AUPREC
 70
     0
  9
$MENU
  1
.
  9
$ELEVATION
 40
0.0
  9
$PELEVATION
 40
0.0
  9
$THICKNESS
 40
0.0
  9
$LIMCHECK
 70
     0
  9
$BLIPMODE
 70
     0
  9
$CHAMFERA
 40
0.0
  9
$CHAMFERB
 40
0.0
  9
$SKPOLY
 70
     0
  9
$TDCREATE
 40
2458060.468368056230247
  9
$TDUPDATE
 40
2459621.6827893517911434
  9
$TDINDWG
 40
0.4559677083
  9
$TDUSRTIMER
 40
0.4559677083
  9
$USRTIMER
 70
     1
  9
$ANGBASE
 50
0.0
  9
$ANGDIR
 70
     0
  9
$PDMODE
 70
     0
  9
$PDSIZE
 40
0.3125
  9
$PLINEWID
 40
0.0
  9
$COORDS
 70
     1
  9
$SPLFRAME
 70
     0
  9
$SPLINETYPE
 70
     6
  9
$SPLINESEGS
 70
     8
  9
$ATTDIA
 70
     1
  9
$ATTREQ
 70
     1
  9
$HANDLING
 70
     1
  9
$HANDSEED
  5
916D
  9
$SURFTAB1
 70
     6
  9
$SURFTAB2
 70
     6
  9
$SURFTYPE
 70
     6
  9
$SURFU
 70
     6
  9
$SURFV
 70
     6
  9
$UCSNAME
  2

  9
$UCSORG
 10
0.0
 20
0.0
 30
0.0
  9
$UCSXDIR
 10
1.0
 20
0.0
 30
0.0
  9
$UCSYDIR
 10
0.0
 20
1.0
 30
0.0
  9
$PUCSNAME
  2

  9
$PUCSORG
 10
0.0
 20
0.0
 30
0.0
  9
$PUCSXDIR
 10
1.0
 20
0.0
 30
0.0
  9
$PUCSYDIR
 10
0.0
 20
1.0
 30
0.0
  9
$USERI1
 70
     0
  9
$USERI2
 70
     0
  9
$USERI3
 70
     0
  9
$USERI4
 70
     0
  9
$USERI5
 70
     0
  9
$USERR1
 40
0.0
  9
$USERR2
 40
0.0
  9
$USERR3
 40
0.0
  9
$USERR4
 40
0.0
  9
$USERR5
 40
0.0
  9
$WORLDVIEW
 70
     1
  9
$SHADEDGE
 70
     3
  9
$SHADEDIF
 70
    70
  9
$TILEMODE
 70
     1
  9
$MAXACTVP
 70
    64
  9
$PLIMCHECK
 70
     0
  9
$PEXTMIN
 10
1.0000000000000000E+20
 20
1.0000000000000000E+20
 30
1.0000000000000000E+20
  9
$PEXTMAX
 10
-1.0000000000000000E+20
 20
-1.0000000000000000E+20
 30
-1.0000000000000000E+20
  9
$PLIMMIN
 10
0.0
 20
0.0
  9
$PLIMMAX
 10
12.0
 20
9.0
  9
$UNITMODE
 70
     0
  9
$VISRETAIN
 70
     1
  9
$PLINEGEN
 70
     0
  9
$PSLTSCALE
 70
     1
  0
ENDSEC
  0
SECTION
  2
TABLES
  0
TABLE
  2
VPORT
 70
     1
  0
VPORT
  2
*ACTIVE
 70
     0
 10
0.0
 20
0.0
 11
1.0
 21
1.0
 12
0.0000260877184246
 22
-0.2621447108061634
 13
0.0
 23
0.0
 14
1.0
 24
1.0
 15
0.0
 25
0.0
 16
0.0
 26
0.0
 36
17.9899633219623389
 17
3904.3765869140629547
 27
27.3559217453003001
 37
0.0
 40
2.9549124991619951
 41
1.67063492063492
 42
50.0
 43
0.0
 44
0.0
 50
0.0
 51
0.0
 71
     0
 72
   100
 73
     1
 74
     1
 75
     0
 76
     0
 77
     0
 78
     0
  0
ENDTAB
  0
TABLE
  2
LTYPE
 70
     3
  0
LTYPE
  2
CONTINUOUS
 70
     0
  3
Solid line
 72
    65
 73
     0
 40
0.0
  0
LTYPE
  2
PHANTOM2
 70
     0
  3
___ _ _ ___ _ _ ___ _ _ ___ _ _
 72
    65
 73
     6
 40
1.25
 49
0.625
 49
-0.125
 49
0.125
 49
-0.125
 49
0.125
 49
-0.125
  0
ENDTAB
  0
TABLE
  2
LAYER
 70
     2
  0
LAYER
  2
0
 70
     0
 62
   255
  6
CONTINUOUS
  0
LAYER
  2
DEFPOINTS
 70
     0
 62
     7
  6
CONTINUOUS
  0
ENDTAB
  0
TABLE
  2
STYLE
 70
     1
  0
STYLE
  2
STANDARD
 70
     0
 40
0.0
 41
0.8
 50
0.0
 71
     0
 42
0.2
  3
txt
  4

  0
ENDTAB
  0
TABLE
  2
VIEW
 70
     0
  0
ENDTAB
  0
TABLE
  2
UCS
 70
     0
  0
ENDTAB
  0
TABLE
  2
APPID
 70
     9
  0
APPID
  2
ACAD
 70
     0
  0
APPID
  2
ACAD_MLEADERVER
 70
     0
  0
APPID
  2
ACAD_EXEMPT_FROM_CAD_STANDARDS
 70
     0
  0
APPID
  2
ACAD_NAV_VCDISPLAY
 70
     0
  0
APPID
  2
ACAECLAYERSTANDARD
 70
     0
  0
APPID
  2
ACCMTRANSPARENCY
 70
     0
  0
APPID
  2
ACAD_DSTYLE_DIMJAG
 70
     0
  0
APPID
  2
ACAD_DSTYLE_DIMTALN
 70
     0
  0
APPID
  2
ACDBATTR
 70
     0
  0
ENDTAB
  0
TABLE
  2
DIMSTYLE
 70
     2
  0
DIMSTYLE
  2
STANDARD
 70
     0
  3

  4

  5

  6

  7

 40
1.0
 41
0.1875
 42
0.0625
 43
0.38
 44
0.125
 45
0.0
 46
0.0
 47
0.01
 48
0.01
140
0.15625
141
0.09
142
0.0
143
25.3999999999999986
144
1.0
145
0.0
146
1.0
147
0.09
 71
     1
 72
     0
 73
     1
 74
     1
 75
     0
 76
     0
 77
     0
 78
     4
170
     0
171
     2
172
     0
173
     0
174
     0
175
     0
176
     0
177
     0
178
     0
  0
ENDTAB
  0
ENDSEC
  0
SECTION
  2
BLOCKS
  0
BLOCK
  8
0
  2
$MODEL_SPACE
 70
     0
 10
0.0
 20
0.0
 30
0.0
  3
$MODEL_SPACE
  1

  0
ENDBLK
  5
21
  8
0
  0
BLOCK
 67
     1
  8
0
  2
$PAPER_SPACE
 70
     0
 10
0.0
 20
0.0
 30
0.0
  3
$PAPER_SPACE
  1

  0
ENDBLK
  5
1D
 67
     1
  8
0
  0
ENDSEC
  0
SECTION
  2
ENTITIES
  0
ATTDEF
  5
3930
  8
DEFPOINTS
 10
3904.3730081441781294
 20
27.208607953161529
 30
0.0
 40
0.001
  1
K-8013
  3

  2
MODELNUMBER
 70
     0
1001
ACDBATTR
1070
     0
1070
     1
  0
ATTDEF
  5
3931
  8
DEFPOINTS
 10
3904.3730081441781294
 20
27.206941286494871
 30
0.0
 40
0.001
  1
WATERTILE
  3

  2
TRADENAME
 70
     0
1001
ACDBATTR
1070
     0
1070
     1
  0
ATTDEF
  5
3932
  8
DEFPOINTS
 10
3904.3730081441781294
 20
27.2052746198281987
 30
0.0
 40
0.001
  1
BODY SPRAY
  3

  2
PRODUCT
 70
     0
1001
ACDBATTR
1070
     0
1070
     1
  0
LINE
  5
8947
  8
0
 10
3901.9199780555809411
 20
27.204679024047401
 30
0.0
 11
3906.8332479479809081
 21
27.204679024047401
 31
0.0
  0
LINE
  5
8948
  8
0
 10
3901.9199780555809411
 20
27.204679024047401
 30
0.0
 11
3901.9256532597810292
 21
27.0421624376474092
 31
0.0
  0
ARC
  5
8949
  8
0
 10
3901.9556349846288867
 20
27.04320942254013
 30
0.0
 40
0.0300000000366883
 50
181.9999999815985063
 51
267.1364331218683219
  0
ARC
  5
894A
  8
0
 10
3902.2969283099650966
 20
33.8663022929239474
 30
0.0
 40
6.8616233394635664
 50
267.1364331218683219
 51
270.0082125643378959
  0
LINE
  5
894B
  8
0
 10
3902.2979118295811531
 20
27.0046790239474106
 30
0.0
 11
3906.4563005182458255
 21
27.0046790240474088
 31
0.0
  0
ARC
  5
894C
  8
0
 10
3906.456300518081207
 20
33.8662458966458289
 30
0.0
 40
6.8615668725984209
 50
270.0000000013808972
 51
272.8635688925439808
  0
ARC
  5
894D
  8
0
 10
3906.7975912755969148
 20
27.0432091695230312
 30
0.0
 40
0.0299997346107927
 50
272.8635688925439808
 51
358.0004658418179133
  0
LINE
  5
894E
  8
0
 10
3906.8275727436921443
 20
27.0421624376474092
 30
0.0
 11
3906.8332479479809081
 21
27.204679024047401
 31
0.0
  0
ARC
  5
8951
  8
0
 10
3904.3766130017820615
 20
27.6336790240473995
 30
0.0
 40
1.8579999999999119
 50
346.6491951804015912
 51
346.6503223745942819
  0
ARC
  5
8955
  8
0
 10
3904.3767460707122154
 20
27.6336790240474102
 30
0.0
 40
1.8581294729310871
 50
193.348730226487902
 51
193.3498573377173955
  0
LINE
  5
8956
  8
0
 10
3903.0372588568889114
 20
27.0046790239474106
 30
0.0
 11
3903.037635426081124
 21
26.9999527674474109
 31
0.0
  0
ARC
  5
8957
  8
0
 10
3903.0537175279891926
 20
27.0012341249280183
 30
0.0
 40
0.0161330678656747
 50
184.555474754625493
 51
267.2262416737556237
  0
ARC
  5
8958
  8
0
 10
3903.2805339137207739
 20
29.0154141519615401
 30
0.0
 40
2.0430112464262482
 50
263.6038148524118014
 51
265.6955890605196942
  0
ARC
  5
8959
  8
0
 10
3903.1273287274948416
 20
26.9943026899501994
 30
0.0
 40
0.0161377383372073
 50
269.5241143903095917
 51
307.1554909397530082
  0
ARC
  5
895A
  8
0
 10
3903.1565075103330855
 20
27.0074786297429803
 30
0.0
 40
0.0631486477477092
 50
182.5409599129826006
 51
188.5780754693822985
  0
ARC
  5
895B
  8
0
 10
3903.1103713492047973
 20
27.0013787545792816
 30
0.0
 40
0.0166404662367992
 50
191.5056607101429051
 51
264.4588347187921045
  0
ARC
  5
895C
  8
0
 10
3903.2203925675448772
 20
27.8063451141010383
 30
0.0
 40
0.8290782985472668
 50
262.2621314738141791
 51
267.3320069139859925
  0
ARC
  5
895D
  8
0
 10
3903.1831499866061677
 20
26.9946501883814705
 30
0.0
 40
0.0165398433774457
 50
265.3192266956381218
 51
344.1488933716956922
  0
ARC
  5
895E
  8
0
 10
4260.040914966204582
 20
-70.0498176795092746
 30
0.0
 40
369.8011097194918761
 50
164.7844823400793075
 51
164.7868179904274939
  0
ARC
  5
895F
  8
0
 10
3903.4124177342150688
 20
27.0222617522615707
 30
0.0
 40
0.2098677764836506
 50
184.8058753877866138
 51
186.6406493067906922
  0
ARC
  5
8960
  8
0
 10
3903.2201834151360345
 20
27.0009399393459404
 30
0.0
 40
0.0164910299998896
 50
190.2966786731840898
 51
254.4871971690477039
  0
ARC
  5
8961
  8
0
 10
3903.2979364595521474
 20
27.4637336988949592
 30
0.0
 40
0.4856843273777517
 50
260.2603858689881804
 51
267.8560266844165199
  0
ARC
  5
8962
  8
0
 10
3903.286129128326138
 20
27.0562093084227584
 30
0.0
 40
0.0780796048662655
 50
265.3259799019187994
 51
278.1445053176828992
  0
ARC
  5
8963
  8
0
 10
3903.2926073553799142
 20
26.9954970304432109
 30
0.0
 40
0.0172016555182546
 50
285.4529412200977845
 51
343.2777890705568211
  0
ARC
  5
8964
  8
0
 10
4013.2279497651102247
 20
-1.95781399467555
 30
0.0
 40
113.6669046921153949
 50
165.2381790848338881
 51
165.2455453046435991
  0
ARC
  5
8965
  8
0
 10
3903.4189414013490023
 20
27.0075584175426009
 30
0.0
 40
0.0569616574260828
 50
182.8975181442094993
 51
191.3754070897612962
  0
ARC
  5
8966
  8
0
 10
3903.3796843919558341
 20
27.0008682848531514
 30
0.0
 40
0.0171970980866714
 50
195.3239665990201104
 51
258.318248361566873
  0
ARC
  5
8967
  8
0
 10
3903.4298095428248416
 20
27.2656022675441108
 30
0.0
 40
0.2866324133408809
 50
259.2208410895548241
 51
266.7864663891016903
  0
ARC
  5
8968
  8
0
 10
3903.4386773900300796
 20
27.20675847317899
 30
0.0
 40
0.22870135917771
 50
263.7404996078259956
 51
272.3955837810157163
  0
ARC
  5
8969
  8
0
 10
3903.4483974201862111
 20
27.0035954887924383
 30
0.0
 40
0.0253390114370427
 50
269.6368006452149189
 51
305.3248699566391906
  0
ARC
  5
896A
  8
0
 10
3903.4523341164749581
 20
26.9951057804223495
 30
0.0
 40
0.0162251114455243
 50
311.3282989661947227
 51
345.872863628032178
  0
ARC
  5
896B
  8
0
 10
3906.6939197680931102
 20
26.1882710095237989
 30
0.0
 40
3.3242629155330148
 50
165.7832558068596995
 51
166.0237544658745037
  0
ARC
  5
896C
  8
0
 10
3903.3861725603960622
 20
27.0237709469670691
 30
0.0
 40
0.0990637068975812
 50
341.9460875950351806
 51
348.8882215891201213
  0
ARC
  5
896D
  8
0
 10
3903.4653281272458116
 20
26.9988710702269685
 30
0.0
 40
0.0161113991395065
 50
261.8666821255815762
 51
338.8958905697036812
  0
ARC
  5
896E
  8
0
 10
3903.5849445800181456
 20
27.01268689362686
 30
0.0
 40
0.0830930533109774
 50
185.5303098224576104
 51
187.9820428175800942
  0
ARC
  5
896F
  8
0
 10
3903.517806515718803
 20
27.0032727105709291
 30
0.0
 40
0.0152981676592767
 50
187.9820428175810889
 51
227.1364851210472864
  0
ARC
  5
8970
  8
0
 10
3903.5199913766327882
 20
27.0058089891599202
 30
0.0
 40
0.0186438719578863
 50
227.5171405612410069
 51
264.9166573257454047
  0
ARC
  5
8971
  8
0
 10
3903.5723017571649507
 20
27.4203076892779904
 30
0.0
 40
0.4364182637683739
 50
262.8973045352485087
 51
266.5569162094088824
  0
ARC
  5
8972
  8
0
 10
3903.6103683269898283
 20
27.8944798540297612
 30
0.0
 40
0.9120703780923914
 50
265.9588321791014209
 51
268.0010866856389953
  0
ARC
  5
8973
  8
0
 10
3903.5843121068501205
 20
27.0708317363019688
 30
0.0
 40
0.0880556694771675
 50
266.2511915541439862
 51
278.1101819221844949
  0
ARC
  5
8974
  8
0
 10
3903.592336544454156
 20
26.999190487184979
 30
0.0
 40
0.0161443897178168
 50
285.8088823017931759
 51
346.4242004799489791
  0
ARC
  5
8975
  8
0
 10
3903.455749138396186
 20
27.0368424073281517
 30
0.0
 40
0.1578189427723618
 50
344.776260311222984
 51
348.2407822365998982
  0
ARC
  5
8976
  8
0
 10
3903.5913370153011783
 20
27.0169632575110406
 30
0.0
 40
0.0816697056216105
 50
339.8558388896796032
 51
351.349104580678727
  0
ARC
  5
8977
  8
0
 10
3903.6526436983740496
 20
26.9960739657895914
 30
0.0
 40
0.0169857795718619
 50
283.3780118068423803
 51
334.7843175014962753
  0
ARC
  5
8978
  8
0
 10
3903.6331580450519141
 20
27.1731265931163612
 30
0.0
 40
0.1949885699277801
 50
265.4924219572957895
 51
276.897164565157027
  0
ARC
  5
8979
  8
0
 10
3903.6283895950709848
 20
27.2616633934460602
 30
0.0
 40
0.2831191130994218
 50
259.8601366450297974
 51
267.8632739800294758
  0
ARC
  5
897A
  8
0
 10
3904.0805788580928493
 20
27.0152594279326905
 30
0.0
 40
0.0827482569166438
 50
343.0798381330101847
 51
352.6539047498085893
  0
ARC
  5
897B
  8
0
 10
3904.1438630017792093
 20
26.9973365752979184
 30
0.0
 40
0.0170348524956278
 50
293.0114742655403006
 51
338.8004137424223927
  0
ARC
  5
897C
  8
0
 10
3904.1164164561278085
 20
27.1365196520882215
 30
0.0
 40
0.158573536261489
 50
266.3425787146828156
 51
282.420123371659713
  0
ARC
  5
897D
  8
0
 10
3904.1080300554572204
 20
27.2114619540799687
 30
0.0
 40
0.2331992819791569
 50
260.8334856129649779
 51
269.5751617470402266
  0
ARC
  5
897E
  8
0
 10
3904.0728025338839871
 20
26.9994098079999212
 30
0.0
 40
0.0182704607099889
 50
191.0442457254947897
 51
263.9611170623102225
  0
ARC
  5
897F
  8
0
 10
3955.90376619157405
 20
35.1240470715400619
 30
0.0
 40
52.482136058118698
 50
188.8998193330149036
 51
188.9095096723451945
  0
ARC
  5
8980
  8
0
 10
3904.3844543430009253
 20
27.0106682363477404
 30
0.0
 40
0.0626926061176579
 50
185.4819976815844882
 51
197.8395375670334033
  0
ARC
  5
8981
  8
0
 10
3904.3377882646809667
 20
26.99564986790379
 30
0.0
 40
0.013669404911411
 50
197.8395375670334033
 51
246.0532799690817001
  0
ARC
  5
8982
  8
0
 10
3904.3564348630629866
 20
27.04676589127331
 30
0.0
 40
0.0680549094022563
 50
249.1747276275766865
 51
271.1862051670804021
  0
ARC
  5
8983
  8
0
 10
3904.3774228269658124
 20
27.3159889745026483
 30
0.0
 40
0.3378312420870547
 50
266.6775441933164075
 51
272.2706105276336075
  0
ARC
  5
8984
  8
0
 10
3904.388262916289932
 20
27.1233506095727286
 30
0.0
 40
0.144949964427661
 50
271.0058541743898104
 51
280.6294065668510029
  0
ARC
  5
8985
  8
0
 10
3904.4120700828098052
 20
26.9983614720349507
 30
0.0
 40
0.0177175029658334
 50
279.5179194017657096
 51
348.5794024348543871
  0
ARC
  5
8986
  8
0
 10
3904.2705219261351886
 20
27.028073842945421
 30
0.0
 40
0.1623500529473819
 50
348.1925498028517154
 51
351.7147714374773955
  0
ARC
  5
8987
  8
0
 10
3903.8398591173299792
 20
27.0066511728161487
 30
0.0
 40
0.0432434966194848
 50
182.6139193605544904
 51
199.2612536341162865
  0
ARC
  5
8988
  8
0
 10
3903.8153654158741119
 20
27.0002477095151505
 30
0.0
 40
0.018123098681769
 50
205.7080174669810049
 51
257.2604481866649735
  0
ARC
  5
8989
  8
0
 10
3903.8570763064130915
 20
27.226841735349069
 30
0.0
 40
0.2485105169831198
 50
259.4015144823694072
 51
269.9631120972977101
  0
ARC
  5
898A
  8
0
 10
3903.8657956052420559
 20
27.1531168042898017
 30
0.0
 40
0.175010927942413
 50
267.0918126393887064
 51
277.6203625148751257
  0
ARC
  5
898B
  8
0
 10
3903.886213467997095
 20
26.9971591771339305
 30
0.0
 40
0.0177286146580783
 50
279.054760594106483
 51
327.8081184674928181
  0
ARC
  5
898C
  8
0
 10
3903.8878326690751237
 20
26.9961398321829407
 30
0.0
 40
0.0158152730108824
 50
327.8081184674927044
 51
347.8413397456616281
  0
ARC
  5
898D
  8
0
 10
3906.9038130092149004
 20
26.3463392429158887
 30
0.0
 40
3.0693716286088262
 50
167.6145776857260898
 51
167.8413397456614859
  0
ARC
  5
898E
  8
0
 10
3903.8734831698197922
 20
27.0183090207940992
 30
0.0
 40
0.0845375273444719
 50
343.9190426731022967
 51
350.7216953461547178
  0
ARC
  5
898F
  8
0
 10
3903.9393090332409884
 20
27.0001569686359204
 30
0.0
 40
0.0162785749432923
 50
303.5831837973711913
 51
341.1314967685083843
  0
ARC
  5
8990
  8
0
 10
3903.9360153017860284
 20
27.0072295104983198
 30
0.0
 40
0.0240209348401213
 50
270.1500640416782062
 51
300.7956378927809737
  0
ARC
  5
8991
  8
0
 10
3903.9180075612598557
 20
27.3967393141303006
 30
0.0
 40
0.4139252976751028
 50
267.1336877524383908
 51
272.5021456338180883
  0
LINE
  5
8992
  8
0
 10
3905.7159671466729378
 20
27.0046790239474106
 30
0.0
 11
3905.7155905774811799
 21
26.9999527674474109
 31
0.0
  0
ARC
  5
8993
  8
0
 10
3905.6995084755731114
 20
27.0012341249280183
 30
0.0
 40
0.0161330678656747
 50
272.7737583262443763
 51
355.4445252453742796
  0
ARC
  5
8994
  8
0
 10
3905.4726920898410754
 20
29.0154141519615401
 30
0.0
 40
2.0430112464262482
 50
274.3044109394801922
 51
276.3961851475880849
  0
ARC
  5
8995
  8
0
 10
3905.6258972760670076
 20
26.9943026899501994
 30
0.0
 40
0.0161377383372073
 50
232.8445090602469918
 51
270.4758856096904083
  0
ARC
  5
8996
  8
0
 10
3905.5967184932301279
 20
27.0074786297429803
 30
0.0
 40
0.0631486477477092
 50
351.4219245306176731
 51
357.4590400870173994
  0
ARC
  5
8997
  8
0
 10
3905.6428546543570519
 20
27.0013787545792816
 30
0.0
 40
0.0166404662367992
 50
275.5411652812077818
 51
348.4943392898567822
  0
ARC
  5
8998
  8
0
 10
3905.5328334360178815
 20
27.8063451141010383
 30
0.0
 40
0.8290782985472668
 50
272.6679930860138938
 51
277.7378685261858209
  0
ARC
  5
8999
  8
0
 10
3905.5700760169561363
 20
26.9946501883814705
 30
0.0
 40
0.0165398433774457
 50
195.8511066283041089
 51
274.6807733043619919
  0
ARC
  5
899A
  8
0
 10
3548.7123110373568124
 20
-70.0498176795092746
 30
0.0
 40
369.8011097194918761
 50
15.2131820095725292
 51
15.2155176599208808
  0
ARC
  5
899B
  8
0
 10
3905.3408082693467804
 20
27.0222617522615707
 30
0.0
 40
0.2098677764836506
 50
353.3593506932091941
 51
355.1941246122132156
  0
ARC
  5
899C
  8
0
 10
3905.5330425884258148
 20
27.0009399393459404
 30
0.0
 40
0.0164910299998896
 50
285.5128028309524097
 51
349.7033213268156828
  0
ARC
  5
899D
  8
0
 10
3905.4552895440101565
 20
27.4637336988949592
 30
0.0
 40
0.4856843273777517
 50
272.1439733155834801
 51
279.7396141310118196
  0
ARC
  5
899E
  8
0
 10
3905.4670968752361659
 20
27.0562093084227584
 30
0.0
 40
0.0780796048662655
 50
261.8554946823171008
 51
274.6740200980810869
  0
ARC
  5
899F
  8
0
 10
3905.4606186481828445
 20
26.9954970304432109
 30
0.0
 40
0.0172016555182546
 50
196.7222109294432073
 51
254.5470587799021018
  0
ARC
  5
89A0
  8
0
 10
3795.5252762384511698
 20
-1.95781399467555
 30
0.0
 40
113.6669046921153949
 50
14.7544546953563902
 51
14.7618209152076503
  0
ARC
  5
89A1
  8
0
 10
3905.3342846022142112
 20
27.0075584175426009
 30
0.0
 40
0.0569616574260828
 50
348.6245929102386754
 51
357.1024818557904155
  0
ARC
  5
89A2
  8
0
 10
3905.3735416116060151
 20
27.0008682848531514
 30
0.0
 40
0.0171970980866714
 50
281.681751638433127
 51
344.676033400979918
  0
ARC
  5
89A3
  8
0
 10
3905.3234164607370076
 20
27.2656022675441108
 30
0.0
 40
0.2866324133408809
 50
273.213533610898196
 51
280.7791589104451759
  0
ARC
  5
89A4
  8
0
 10
3905.3145486135331339
 20
27.20675847317899
 30
0.0
 40
0.22870135917771
 50
267.6044162189842837
 51
276.2595003921738908
  0
ARC
  5
89A5
  8
0
 10
3905.3048285833770024
 20
27.0035954887924383
 30
0.0
 40
0.0253390114370427
 50
234.6751300433608947
 51
270.3631993547850811
  0
ARC
  5
89A6
  8
0
 10
3905.3008918870868911
 20
26.9951057804223495
 30
0.0
 40
0.0162251114455243
 50
194.1271363719677936
 51
228.6717010338051921
  0
ARC
  5
89A7
  8
0
 10
3902.0593062354678295
 20
26.1882710095237989
 30
0.0
 40
3.3242629155330148
 50
13.9762455341254608
 51
14.2167441931403005
  0
ARC
  5
89A8
  8
0
 10
3905.367053443165787
 20
27.0237709469670691
 30
0.0
 40
0.0990637068975812
 50
191.1117784108797935
 51
198.053912404964592
  0
ARC
  5
89A9
  8
0
 10
3905.2878978763151281
 20
26.9988710702269685
 30
0.0
 40
0.0161113991395065
 50
201.1041094302960914
 51
278.1333178744183101
  0
ARC
  5
89AA
  8
0
 10
3905.1682814235441583
 20
27.01268689362686
 30
0.0
 40
0.0830930533109774
 50
352.0179571824197069
 51
354.469690177542418
  0
ARC
  5
89AB
  8
0
 10
3905.2354194878439557
 20
27.0032727105709291
 30
0.0
 40
0.0152981676592767
 50
312.8635148789525147
 51
352.0179571824186837
  0
ARC
  5
89AC
  8
0
 10
3905.2332346269299705
 20
27.0058089891599202
 30
0.0
 40
0.0186438719578863
 50
275.0833426742545953
 51
312.4828594387590215
  0
ARC
  5
89AD
  8
0
 10
3905.180924246397808
 20
27.4203076892779904
 30
0.0
 40
0.4364182637683739
 50
273.4430837905911176
 51
277.1026954647513776
  0
ARC
  5
89AE
  8
0
 10
3905.1428576765720209
 20
27.8944798540297612
 30
0.0
 40
0.9120703780923914
 50
271.9989133143610047
 51
274.0411678208985791
  0
ARC
  5
89AF
  8
0
 10
3905.168913896713093
 20
27.0708317363019688
 30
0.0
 40
0.0880556694771675
 50
261.8898180778156188
 51
273.7488084458560138
  0
ARC
  5
89B0
  8
0
 10
3905.160889459108148
 20
26.999190487184979
 30
0.0
 40
0.0161443897178168
 50
193.5757995200507935
 51
254.1911176982067957
  0
ARC
  5
89B1
  8
0
 10
3905.2974768651670274
 20
27.0368424073281517
 30
0.0
 40
0.1578189427723618
 50
191.7592177633997892
 51
195.2237396887769023
  0
ARC
  5
89B2
  8
0
 10
3905.1618889882620351
 20
27.0169632575110406
 30
0.0
 40
0.0816697056216105
 50
188.6508954193211025
 51
200.1441611103201978
  0
ARC
  5
89B3
  8
0
 10
3905.1005823051877996
 20
26.9960739657895914
 30
0.0
 40
0.0169857795718619
 50
205.2156824985036963
 51
256.6219881931576197
  0
ARC
  5
89B4
  8
0
 10
3905.1200679585108446
 20
27.1731265931163612
 30
0.0
 40
0.1949885699277801
 50
263.102835434842973
 51
274.5075780427042105
  0
ARC
  5
89B5
  8
0
 10
3905.1248364084908644
 20
27.2616633934460602
 30
0.0
 40
0.2831191130994218
 50
272.1367260199705242
 51
280.1398633549702026
  0
ARC
  5
89B6
  8
0
 10
3904.6726471454680905
 20
27.0152594279326905
 30
0.0
 40
0.0827482569166438
 50
187.3460952501910981
 51
196.9201618669897869
  0
ARC
  5
89B7
  8
0
 10
3904.6093630017830947
 20
26.9973365752979184
 30
0.0
 40
0.0170348524956278
 50
201.1995862575774083
 51
246.9885257344596141
  0
ARC
  5
89B8
  8
0
 10
3904.6368095474349502
 20
27.1365196520882215
 30
0.0
 40
0.158573536261489
 50
257.579876628340287
 51
273.6574212853171844
  0
ARC
  5
89B9
  8
0
 10
3904.645195948104174
 20
27.2114619540799687
 30
0.0
 40
0.2331992819791569
 50
270.4248382529597734
 51
279.1665143870350221
  0
ARC
  5
89BA
  8
0
 10
3904.6804234696769527
 20
26.9994098079999212
 30
0.0
 40
0.0182704607099889
 50
276.0388829376898912
 51
348.9557542745050114
  0
ARC
  5
89BB
  8
0
 10
3852.8494598119877992
 20
35.1240470715400619
 30
0.0
 40
52.482136058118698
 50
351.090490327654777
 51
351.1001806669847838
  0
ARC
  5
89BC
  8
0
 10
3904.9133668862327795
 20
27.0066511728161487
 30
0.0
 40
0.0432434966194848
 50
340.7387463658835145
 51
357.3860806394453107
  0
ARC
  5
89BD
  8
0
 10
3904.937860587688192
 20
27.0002477095151505
 30
0.0
 40
0.018123098681769
 50
282.7395518133350265
 51
334.2919825330188246
  0
ARC
  5
89BE
  8
0
 10
3904.8961496971492124
 20
27.226841735349069
 30
0.0
 40
0.2485105169831198
 50
270.0368879027021762
 51
280.5984855176304791
  0
ARC
  5
89BF
  8
0
 10
3904.8874303983197933
 20
27.1531168042898017
 30
0.0
 40
0.175010927942413
 50
262.3796374851248743
 51
272.9081873606112936
  0
ARC
  5
89C0
  8
0
 10
3904.8670125355661185
 20
26.9971591771339305
 30
0.0
 40
0.0177286146580783
 50
212.1918815325072103
 51
260.945239405893517
  0
ARC
  5
89C1
  8
0
 10
3904.8653933344880897
 20
26.9961398321829407
 30
0.0
 40
0.0158152730108824
 50
192.1586602543382014
 51
212.1918815325072103
  0
ARC
  5
89C2
  8
0
 10
3901.8494129943469488
 20
26.3463392429158887
 30
0.0
 40
3.0693716286088262
 50
12.1586602543384199
 51
12.38542231427388
  0
ARC
  5
89C3
  8
0
 10
3904.879742833742057
 20
27.0183090207940992
 30
0.0
 40
0.0845375273444719
 50
189.2783046538453107
 51
196.0809573268973907
  0
ARC
  5
89C4
  8
0
 10
3904.8139169703222251
 20
27.0001569686359204
 30
0.0
 40
0.0162785749432923
 50
198.8685032314913883
 51
236.416816202628695
  0
ARC
  5
89C5
  8
0
 10
3904.8172107017758208
 20
27.0072295104983198
 30
0.0
 40
0.0240209348401213
 50
239.2043621072189978
 51
269.8499359583217938
  0
ARC
  5
89C6
  8
0
 10
3904.835218442302903
 20
27.3967393141303006
 30
0.0
 40
0.4139252976751028
 50
267.497854366181798
 51
272.8663122475614955
  0
ENDSEC
  0
EOF
