  0
SECTION
  2
HEADER
  9
$ACADVER
  1
AC1009
  9
$INSBASE
 10
3905.4079288706020634
 20
34.4237170658159002
 30
0.0
  9
$EXTMIN
 10
3902.9512939244018526
 20
31.9670821196159096
 30
0.0
  9
$EXTMAX
 10
3907.8645638168031837
 20
36.8803520120158979
 30
0.0
  9
$LIMMIN
 10
0.0
 20
0.0
  9
$LIMMAX
 10
11.6929133858000007
 20
8.2677165353999982
  9
$ORTHOMODE
 70
     1
  9
$REGENMODE
 70
     1
  9
$FILLMODE
 70
     1
  9
$QTEXTMODE
 70
     0
  9
$MIRRTEXT
 70
     0
  9
$DRAGMODE
 70
     2
  9
$LTSCALE
 40
0.6431102362
  9
$OSMODE
 70
  4095
  9
$ATTMODE
 70
     1
  9
$TEXTSIZE
 40
0.2
  9
$TRACEWID
 40
0.05
  9
$TEXTSTYLE
  7
STANDARD
  9
$CLAYER
  8
0
  9
$CELTYPE
  6
BYLAYER
  9
$CECOLOR
 62
   256
  9
$DIMSCALE
 40
1.0
  9
$DIMASZ
 40
0.1875
  9
$DIMEXO
 40
0.0625
  9
$DIMDLI
 40
0.4443307087
  9
$DIMRND
 40
0.0
  9
$DIMDLE
 40
0.0
  9
$DIMEXE
 40
0.125
  9
$DIMTP
 40
0.01
  9
$DIMTM
 40
0.01
  9
$DIMTXT
 40
2.0
  9
$DIMCEN
 40
0.1052362205
  9
$DIMTSZ
 40
0.0
  9
$DIMTOL
 70
     1
  9
$DIMLIM
 70
     0
  9
$DIMTIH
 70
     1
  9
$DIMTOH
 70
     1
  9
$DIMSE1
 70
     0
  9
$DIMSE2
 70
     0
  9
$DIMTAD
 70
     0
  9
$DIMZIN
 70
     0
  9
$DIMBLK
  1

  9
$DIMASO
 70
     1
  9
$DIMSHO
 70
     1
  9
$DIMPOST
  1
\X
  9
$DIMAPOST
  1

  9
$DIMALT
 70
     1
  9
$DIMALTD
 70
     2
  9
$DIMALTF
 40
25.3999999999999986
  9
$DIMLFAC
 40
1.0
  9
$DIMTOFL
 70
     0
  9
$DIMTVP
 40
0.0
  9
$DIMTIX
 70
     0
  9
$DIMSOXD
 70
     0
  9
$DIMSAH
 70
     0
  9
$DIMBLK1
  1

  9
$DIMBLK2
  1

  9
$DIMSTYLE
  2
STANDARD
  9
$DIMCLRD
 70
     0
  9
$DIMCLRE
 70
     0
  9
$DIMCLRT
 70
     0
  9
$DIMTFAC
 40
1.0
  9
$DIMGAP
 40
0.09
  9
$LUNITS
 70
     2
  9
$LUPREC
 70
     4
  9
$SKETCHINC
 40
0.1
  9
$FILLETRAD
 40
0.0
  9
$AUNITS
 70
     0
  9
$AUPREC
 70
     0
  9
$MENU
  1
.
  9
$ELEVATION
 40
0.0
  9
$PELEVATION
 40
0.0
  9
$THICKNESS
 40
0.0
  9
$LIMCHECK
 70
     0
  9
$BLIPMODE
 70
     0
  9
$CHAMFERA
 40
0.0
  9
$CHAMFERB
 40
0.0
  9
$SKPOLY
 70
     0
  9
$TDCREATE
 40
2458060.468368056230247
  9
$TDUPDATE
 40
2459621.6825000001117587
  9
$TDINDWG
 40
0.4550533565
  9
$TDUSRTIMER
 40
0.4550533565
  9
$USRTIMER
 70
     1
  9
$ANGBASE
 50
0.0
  9
$ANGDIR
 70
     0
  9
$PDMODE
 70
     0
  9
$PDSIZE
 40
0.3125
  9
$PLINEWID
 40
0.0
  9
$COORDS
 70
     1
  9
$SPLFRAME
 70
     0
  9
$SPLINETYPE
 70
     6
  9
$SPLINESEGS
 70
     8
  9
$ATTDIA
 70
     1
  9
$ATTREQ
 70
     1
  9
$HANDLING
 70
     1
  9
$HANDSEED
  5
8B07
  9
$SURFTAB1
 70
     6
  9
$SURFTAB2
 70
     6
  9
$SURFTYPE
 70
     6
  9
$SURFU
 70
     6
  9
$SURFV
 70
     6
  9
$UCSNAME
  2

  9
$UCSORG
 10
0.0
 20
0.0
 30
0.0
  9
$UCSXDIR
 10
1.0
 20
0.0
 30
0.0
  9
$UCSYDIR
 10
0.0
 20
1.0
 30
0.0
  9
$PUCSNAME
  2

  9
$PUCSORG
 10
0.0
 20
0.0
 30
0.0
  9
$PUCSXDIR
 10
1.0
 20
0.0
 30
0.0
  9
$PUCSYDIR
 10
0.0
 20
1.0
 30
0.0
  9
$USERI1
 70
     0
  9
$USERI2
 70
     0
  9
$USERI3
 70
     0
  9
$USERI4
 70
     0
  9
$USERI5
 70
     0
  9
$USERR1
 40
0.0
  9
$USERR2
 40
0.0
  9
$USERR3
 40
0.0
  9
$USERR4
 40
0.0
  9
$USERR5
 40
0.0
  9
$WORLDVIEW
 70
     1
  9
$SHADEDGE
 70
     3
  9
$SHADEDIF
 70
    70
  9
$TILEMODE
 70
     1
  9
$MAXACTVP
 70
    64
  9
$PLIMCHECK
 70
     0
  9
$PEXTMIN
 10
1.0000000000000000E+20
 20
1.0000000000000000E+20
 30
1.0000000000000000E+20
  9
$PEXTMAX
 10
-1.0000000000000000E+20
 20
-1.0000000000000000E+20
 30
-1.0000000000000000E+20
  9
$PLIMMIN
 10
0.0
 20
0.0
  9
$PLIMMAX
 10
12.0
 20
9.0
  9
$UNITMODE
 70
     0
  9
$VISRETAIN
 70
     1
  9
$PLINEGEN
 70
     0
  9
$PSLTSCALE
 70
     1
  0
ENDSEC
  0
SECTION
  2
TABLES
  0
TABLE
  2
VPORT
 70
     1
  0
VPORT
  2
*ACTIVE
 70
     0
 10
0.0
 20
0.0
 11
1.0
 21
1.0
 12
-0.0044246450229366
 22
-0.0000004329633967
 13
0.0
 23
0.0
 14
1.0
 24
1.0
 15
0.0
 25
0.0
 16
0.0
 26
0.0
 36
25.1115085575978512
 17
3905.412353515625
 27
34.4237174987792969
 37
0.0
 40
4.9522125863952393
 41
1.67063492063492
 42
50.0
 43
0.0
 44
0.0
 50
0.0
 51
0.0
 71
     0
 72
   100
 73
     1
 74
     1
 75
     0
 76
     0
 77
     0
 78
     0
  0
ENDTAB
  0
TABLE
  2
LTYPE
 70
     3
  0
LTYPE
  2
CONTINUOUS
 70
     0
  3
Solid line
 72
    65
 73
     0
 40
0.0
  0
LTYPE
  2
PHANTOM2
 70
     0
  3
___ _ _ ___ _ _ ___ _ _ ___ _ _
 72
    65
 73
     6
 40
1.25
 49
0.625
 49
-0.125
 49
0.125
 49
-0.125
 49
0.125
 49
-0.125
  0
ENDTAB
  0
TABLE
  2
LAYER
 70
     2
  0
LAYER
  2
0
 70
     0
 62
   255
  6
CONTINUOUS
  0
LAYER
  2
DEFPOINTS
 70
     0
 62
     7
  6
CONTINUOUS
  0
ENDTAB
  0
TABLE
  2
STYLE
 70
     1
  0
STYLE
  2
STANDARD
 70
     0
 40
0.0
 41
0.8
 50
0.0
 71
     0
 42
0.2
  3
txt
  4

  0
ENDTAB
  0
TABLE
  2
VIEW
 70
     0
  0
ENDTAB
  0
TABLE
  2
UCS
 70
     0
  0
ENDTAB
  0
TABLE
  2
APPID
 70
     9
  0
APPID
  2
ACAD
 70
     0
  0
APPID
  2
ACAD_MLEADERVER
 70
     0
  0
APPID
  2
ACAD_EXEMPT_FROM_CAD_STANDARDS
 70
     0
  0
APPID
  2
ACAD_NAV_VCDISPLAY
 70
     0
  0
APPID
  2
ACAECLAYERSTANDARD
 70
     0
  0
APPID
  2
ACCMTRANSPARENCY
 70
     0
  0
APPID
  2
ACAD_DSTYLE_DIMJAG
 70
     0
  0
APPID
  2
ACAD_DSTYLE_DIMTALN
 70
     0
  0
APPID
  2
ACDBATTR
 70
     0
  0
ENDTAB
  0
TABLE
  2
DIMSTYLE
 70
     2
  0
DIMSTYLE
  2
STANDARD
 70
     0
  3

  4

  5

  6

  7

 40
1.0
 41
0.1875
 42
0.0625
 43
0.38
 44
0.125
 45
0.0
 46
0.0
 47
0.01
 48
0.01
140
0.15625
141
0.09
142
0.0
143
25.3999999999999986
144
1.0
145
0.0
146
1.0
147
0.09
 71
     1
 72
     0
 73
     1
 74
     1
 75
     0
 76
     0
 77
     0
 78
     4
170
     0
171
     2
172
     0
173
     0
174
     0
175
     0
176
     0
177
     0
178
     0
  0
ENDTAB
  0
ENDSEC
  0
SECTION
  2
BLOCKS
  0
BLOCK
  8
0
  2
$MODEL_SPACE
 70
     0
 10
0.0
 20
0.0
 30
0.0
  3
$MODEL_SPACE
  1

  0
ENDBLK
  5
21
  8
0
  0
BLOCK
 67
     1
  8
0
  2
$PAPER_SPACE
 70
     0
 10
0.0
 20
0.0
 30
0.0
  3
$PAPER_SPACE
  1

  0
ENDBLK
  5
1D
 67
     1
  8
0
  0
ENDSEC
  0
SECTION
  2
ENTITIES
  0
ATTDEF
  5
3930
  8
DEFPOINTS
 10
3905.402948150955126
 20
34.4219316627255694
 30
0.0
 40
0.001
  1
K-8013
  3

  2
MODELNUMBER
 70
     0
1001
ACDBATTR
1070
     0
1070
     1
  0
ATTDEF
  5
3931
  8
DEFPOINTS
 10
3905.402948150955126
 20
34.4202649960589113
 30
0.0
 40
0.001
  1
WATERTILE
  3

  2
TRADENAME
 70
     0
1001
ACDBATTR
1070
     0
1070
     1
  0
ATTDEF
  5
3932
  8
DEFPOINTS
 10
3905.402948150955126
 20
34.4185983293922391
 30
0.0
 40
0.001
  1
BODY SPRAY
  3

  2
PRODUCT
 70
     0
1001
ACDBATTR
1070
     0
1070
     1
  0
CIRCLE
  5
836C
  8
0
 10
3905.4079288706020634
 20
34.4237170658159002
 30
0.0
 40
2.456634946199999
  0
CIRCLE
  5
836D
  8
0
 10
3905.4079288706020634
 20
34.4237170658159002
 30
0.0
 40
1.8542209332999999
  0
CIRCLE
  5
836E
  8
0
 10
3905.4079288706020634
 20
34.4237170658159002
 30
0.0
 40
1.657518218499999
  0
CIRCLE
  5
836F
  8
0
 10
3906.1692162400818233
 20
33.3762844457175092
 30
0.0
 40
0.0179667121499994
  0
CIRCLE
  5
8370
  8
0
 10
3906.1686453963820895
 20
33.3770858543945295
 30
0.0
 40
0.0527318813873674
  0
CIRCLE
  5
8371
  8
0
 10
3906.1632329198027946
 20
33.3841302280158985
 30
0.0
 40
0.0749934715335232
  0
CIRCLE
  5
8373
  8
0
 10
3906.5211598089667859
 20
33.7808680470263525
 30
0.0
 40
0.0749934715335232
  0
CIRCLE
  5
8374
  8
0
 10
3906.6880864640220352
 20
34.2911228201568434
 30
0.0
 40
0.0749934715335232
  0
CIRCLE
  5
8375
  8
0
 10
3906.6303065395291014
 20
34.8203520353328884
 30
0.0
 40
0.0749934715335232
  0
CIRCLE
  5
8376
  8
0
 10
3906.3635577818690763
 20
35.2843033919327524
 30
0.0
 40
0.0749934715335232
  0
CIRCLE
  5
8377
  8
0
 10
3905.9307741924171751
 20
35.597546943808311
 30
0.0
 40
0.0749934715335232
  0
CIRCLE
  5
8378
  8
0
 10
3906.5291291795360848
 20
33.7763508270337667
 30
0.0
 40
0.0179785714939512
  0
CIRCLE
  5
8379
  8
0
 10
3906.5278872536878225
 20
33.776974395953637
 30
0.0
 40
0.0527637297991033
  0
CIRCLE
  5
837A
  8
0
 10
3906.6955775109850038
 20
34.2883806484439475
 30
0.0
 40
0.0179980329846763
  0
CIRCLE
  5
837B
  8
0
 10
3906.6942402388540359
 20
34.2885078294553765
 30
0.0
 40
0.0528242933898728
  0
CIRCLE
  5
837C
  8
0
 10
3906.6381846352269349
 20
34.8234310016774131
 30
0.0
 40
0.0528202834861774
  0
CIRCLE
  5
837D
  8
0
 10
3906.6392687696479697
 20
34.823811556213748
 30
0.0
 40
0.0179910276562048
  0
CIRCLE
  5
837E
  8
0
 10
3906.3701847214160807
 20
35.2900625691060696
 30
0.0
 40
0.0179623789300816
  0
CIRCLE
  5
837F
  8
0
 10
3906.3693999992760837
 20
35.289237956193702
 30
0.0
 40
0.0527431001552376
  0
CIRCLE
  5
8380
  8
0
 10
3905.9346034628579218
 20
35.6065142942205171
 30
0.0
 40
0.0179314381695537
  0
CIRCLE
  5
8381
  8
0
 10
3905.9342266484031825
 20
35.6053718104755177
 30
0.0
 40
0.0526401076300106
  0
CIRCLE
  5
8382
  8
0
 10
3905.4079288706020634
 20
35.7087170658158968
 30
0.0
 40
0.0750000000000004
  0
CIRCLE
  5
8383
  8
0
 10
3905.4079288706020634
 20
35.7184498246659032
 30
0.0
 40
0.0179178199500001
  0
CIRCLE
  5
8384
  8
0
 10
3905.4079288706020634
 20
35.7171878529658997
 30
0.0
 40
0.0525901199500001
  0
CIRCLE
  5
8385
  8
0
 10
3904.8813136145017779
 20
35.6065142965658978
 30
0.0
 40
0.0179313376499999
  0
CIRCLE
  5
8386
  8
0
 10
3904.8816309454959992
 20
35.605370423599453
 30
0.0
 40
0.0526387122331021
  0
CIRCLE
  5
8387
  8
0
 10
3904.8852722842020739
 20
35.5976229789159007
 30
0.0
 40
0.0750000000000002
  0
CIRCLE
  5
8388
  8
0
 10
3904.4529877698028031
 20
35.2835498950159021
 30
0.0
 40
0.0750000000000002
  0
CIRCLE
  5
8389
  8
0
 10
3904.4457958015418626
 20
35.2900625676314519
 30
0.0
 40
0.0179619604080066
  0
CIRCLE
  5
838A
  8
0
 10
3904.446460159830167
 20
35.2892343459885183
 30
0.0
 40
0.0527395862229749
  0
CIRCLE
  5
838B
  8
0
 10
3904.1765167419471254
 20
34.8238115556494279
 30
0.0
 40
0.0179911729784512
  0
CIRCLE
  5
838C
  8
0
 10
3904.1776584402769004
 20
34.8234304040922495
 30
0.0
 40
0.0528186323380647
  0
CIRCLE
  5
838D
  8
0
 10
3904.1858212471020124
 20
34.8208039036158965
 30
0.0
 40
0.0750000000000002
  0
CIRCLE
  5
838E
  8
0
 10
3904.1299682350017974
 20
34.2893979905159014
 30
0.0
 40
0.0750000000000002
  0
CIRCLE
  5
838F
  8
0
 10
3904.1202887932217891
 20
34.2883806402076274
 30
0.0
 40
0.017998043369664
  0
CIRCLE
  5
8390
  8
0
 10
3904.1215438517679104
 20
34.2885125521969769
 30
0.0
 40
0.0528309600401595
  0
CIRCLE
  5
8391
  8
0
 10
3904.2867282545439593
 20
33.7763508262884571
 30
0.0
 40
0.0179785707205055
  0
CIRCLE
  5
8392
  8
0
 10
3904.2879665336031394
 20
33.7769744701680423
 30
0.0
 40
0.0527639555611371
  0
CIRCLE
  5
8393
  8
0
 10
3904.2950862267020966
 20
33.7812170658159019
 30
0.0
 40
0.0750000000000002
  0
CIRCLE
  5
8394
  8
0
 10
3904.6526248214017869
 20
33.3841302280158985
 30
0.0
 40
0.0750000000000002
  0
CIRCLE
  5
8395
  8
0
 10
3905.1407623479021822
 20
33.1667973989158966
 30
0.0
 40
0.0750000000000002
  0
CIRCLE
  5
8396
  8
0
 10
3905.6750953933019446
 20
33.1667973989158966
 30
0.0
 40
0.0750000000000002
  0
CIRCLE
  5
8397
  8
0
 10
3904.6469040492020213
 20
33.3762562607658992
 30
0.0
 40
0.0179460850499997
  0
CIRCLE
  5
8398
  8
0
 10
3904.6478647628168801
 20
33.3772720591952421
 30
0.0
 40
0.0526673515504267
  0
CIRCLE
  5
8399
  8
0
 10
3905.1390011711869192
 20
33.1585117190318073
 30
0.0
 40
0.0525901199082287
  0
CIRCLE
  5
839A
  8
0
 10
3905.6770864184509264
 20
33.157277323552627
 30
0.0
 40
0.0179213792851755
  0
CIRCLE
  5
839B
  8
0
 10
3905.6768565685551948
 20
33.1585117187314609
 30
0.0
 40
0.0525901198978329
  0
CIRCLE
  5
839C
  8
0
 10
3905.1387387935019433
 20
33.1572773241658965
 30
0.0
 40
0.0179213491500001
  0
CIRCLE
  5
8569
  8
0
 10
3905.8804288706019179
 20
33.6053230592158982
 30
0.0
 40
0.0750000000000002
  0
CIRCLE
  5
856A
  8
0
 10
3905.882579061702927
 20
33.601598818965897
 30
0.0
 40
0.0179667121499994
  0
CIRCLE
  5
856B
  8
0
 10
3905.8820082180031932
 20
33.6024002276429172
 30
0.0
 40
0.0527318813873674
  0
CIRCLE
  5
856C
  8
0
 10
3906.2263228771898866
 20
33.9512170657953689
 30
0.0
 40
0.0750000000000002
  0
CIRCLE
  5
856D
  8
0
 10
3906.2300471174307859
 20
33.9490668746790689
 30
0.0
 40
0.0179667121499994
  0
CIRCLE
  5
856E
  8
0
 10
3906.2291520479470819
 20
33.9494754931023124
 30
0.0
 40
0.0527318813873673
  0
CIRCLE
  5
856F
  8
0
 10
3906.3529288706231455
 20
34.4237170658040483
 30
0.0
 40
0.0750000000000002
  0
CIRCLE
  5
8570
  8
0
 10
3906.3572292528388061
 20
34.4237170657946407
 30
0.0
 40
0.0179667121499994
  0
CIRCLE
  5
8571
  8
0
 10
3906.3562497907169018
 20
34.4236234049875733
 30
0.0
 40
0.0527318813873674
  0
CIRCLE
  5
8572
  8
0
 10
3906.2263228772021648
 20
34.896217065815911
 30
0.0
 40
0.0750000000000002
  0
CIRCLE
  5
8573
  8
0
 10
3906.230047117452159
 20
34.8983672569159111
 30
0.0
 40
0.0179667121499994
  0
CIRCLE
  5
8574
  8
0
 10
3906.2292457087751245
 20
34.8977964132161418
 30
0.0
 40
0.0527318813873674
  0
CIRCLE
  5
8575
  8
0
 10
3905.8804288706228363
 20
35.2421110724040503
 30
0.0
 40
0.0750000000000002
  0
CIRCLE
  5
8576
  8
0
 10
3905.882579061738852
 20
35.2458353126446511
 30
0.0
 40
0.0179667121499994
  0
CIRCLE
  5
8577
  8
0
 10
3905.8821704433162267
 20
35.2449402431605421
 30
0.0
 40
0.0527318813873674
  0
CIRCLE
  5
8578
  8
0
 10
3905.4079288706138868
 20
35.368717065836428
 30
0.0
 40
0.0750000000000002
  0
CIRCLE
  5
8579
  8
0
 10
3905.4079288706229818
 20
35.3730174480527282
 30
0.0
 40
0.0179667121499994
  0
CIRCLE
  5
857A
  8
0
 10
3905.4080225314310155
 20
35.3720379859297296
 30
0.0
 40
0.0527318813873673
  0
CIRCLE
  5
857B
  8
0
 10
3904.9354288706022089
 20
35.2421110724159021
 30
0.0
 40
0.0750000000000002
  0
CIRCLE
  5
857C
  8
0
 10
3904.9332786795021093
 20
35.2458353126659034
 30
0.0
 40
0.0179667121499994
  0
CIRCLE
  5
857D
  8
0
 10
3904.9338495232018431
 20
35.2450339039888831
 30
0.0
 40
0.0527318813873673
  0
CIRCLE
  5
857E
  8
0
 10
3904.5895348640137854
 20
34.8962170658364315
 30
0.0
 40
0.0750000000000002
  0
CIRCLE
  5
857F
  8
0
 10
3904.5858106237737957
 20
34.8983672569527315
 30
0.0
 40
0.0179667121499994
  0
CIRCLE
  5
8580
  8
0
 10
3904.5867056932579544
 20
34.8979586385295022
 30
0.0
 40
0.0527318813873673
  0
CIRCLE
  5
8581
  8
0
 10
3904.4629288705818908
 20
34.423717065827752
 30
0.0
 40
0.0750000000000002
  0
CIRCLE
  5
8582
  8
0
 10
3904.4586284883657754
 20
34.4237170658371596
 30
0.0
 40
0.0179667121499994
  0
CIRCLE
  5
8583
  8
0
 10
3904.459607950489044
 20
34.423810726644227
 30
0.0
 40
0.0527318813873673
  0
CIRCLE
  5
8584
  8
0
 10
3904.5895348640028715
 20
33.9512170658158965
 30
0.0
 40
0.0750000000000002
  0
CIRCLE
  5
8585
  8
0
 10
3904.5858106237519678
 20
33.9490668747159035
 30
0.0
 40
0.0179667121499994
  0
CIRCLE
  5
8586
  8
0
 10
3904.5866120324299118
 20
33.9496377184156586
 30
0.0
 40
0.0527318813873673
  0
CIRCLE
  5
8587
  8
0
 10
3904.9354288705822
 20
33.6053230592277501
 30
0.0
 40
0.0750000000000001
  0
CIRCLE
  5
8588
  8
0
 10
3904.93327867946482
 20
33.6015988189871635
 30
0.0
 40
0.0179667121499993
  0
CIRCLE
  5
8589
  8
0
 10
3904.9336872978888096
 20
33.6024938884712583
 30
0.0
 40
0.0527318813873673
  0
CIRCLE
  5
858A
  8
0
 10
3905.4079288705897852
 20
33.4787170657953794
 30
0.0
 40
0.0750000000000001
  0
CIRCLE
  5
858B
  8
0
 10
3905.407928870581145
 20
33.4744166835790793
 30
0.0
 40
0.0179667121499993
  0
CIRCLE
  5
858C
  8
0
 10
3905.4078352097740208
 20
33.4753961457020708
 30
0.0
 40
0.0527318813873673
  0
ENDSEC
  0
EOF
