  0
SECTION
  2
HEADER
  9
$ACADVER
  1
AC1009
  9
$INSBASE
 10
4352.6931709450373091
 20
149.1921977699335002
 30
0.0
  9
$EXTMIN
 10
4350.246941129183142
 20
148.8848422516805954
 30
0.0
  9
$EXTMAX
 10
4355.1394007608887478
 20
149.1966089063853929
 30
0.0
  9
$LIMMIN
 10
0.0
 20
0.0
  9
$LIMMAX
 10
11.6929133858000007
 20
8.2677165353999982
  9
$ORTHOMODE
 70
     0
  9
$REGENMODE
 70
     1
  9
$FILLMODE
 70
     1
  9
$QTEXTMODE
 70
     0
  9
$MIRRTEXT
 70
     0
  9
$DRAGMODE
 70
     2
  9
$LTSCALE
 40
0.6431102362
  9
$OSMODE
 70
   575
  9
$ATTMODE
 70
     1
  9
$TEXTSIZE
 40
0.2
  9
$TRACEWID
 40
0.05
  9
$TEXTSTYLE
  7
STANDARD
  9
$CLAYER
  8
0
  9
$CELTYPE
  6
BYLAYER
  9
$CECOLOR
 62
   256
  9
$DIMSCALE
 40
1.0
  9
$DIMASZ
 40
0.1875
  9
$DIMEXO
 40
0.0625
  9
$DIMDLI
 40
0.4443307087
  9
$DIMRND
 40
0.0
  9
$DIMDLE
 40
0.0
  9
$DIMEXE
 40
0.125
  9
$DIMTP
 40
0.01
  9
$DIMTM
 40
0.01
  9
$DIMTXT
 40
2.0
  9
$DIMCEN
 40
0.1052362205
  9
$DIMTSZ
 40
0.0
  9
$DIMTOL
 70
     1
  9
$DIMLIM
 70
     0
  9
$DIMTIH
 70
     1
  9
$DIMTOH
 70
     1
  9
$DIMSE1
 70
     0
  9
$DIMSE2
 70
     0
  9
$DIMTAD
 70
     0
  9
$DIMZIN
 70
     0
  9
$DIMBLK
  1

  9
$DIMASO
 70
     1
  9
$DIMSHO
 70
     1
  9
$DIMPOST
  1
\X
  9
$DIMAPOST
  1

  9
$DIMALT
 70
     1
  9
$DIMALTD
 70
     2
  9
$DIMALTF
 40
25.3999999999999986
  9
$DIMLFAC
 40
1.0
  9
$DIMTOFL
 70
     0
  9
$DIMTVP
 40
0.0
  9
$DIMTIX
 70
     0
  9
$DIMSOXD
 70
     0
  9
$DIMSAH
 70
     0
  9
$DIMBLK1
  1

  9
$DIMBLK2
  1

  9
$DIMSTYLE
  2
STANDARD
  9
$DIMCLRD
 70
     0
  9
$DIMCLRE
 70
     0
  9
$DIMCLRT
 70
     0
  9
$DIMTFAC
 40
1.0
  9
$DIMGAP
 40
0.09
  9
$LUNITS
 70
     2
  9
$LUPREC
 70
     4
  9
$SKETCHINC
 40
0.1
  9
$FILLETRAD
 40
0.0
  9
$AUNITS
 70
     0
  9
$AUPREC
 70
     0
  9
$MENU
  1
.
  9
$ELEVATION
 40
0.0
  9
$PELEVATION
 40
0.0
  9
$THICKNESS
 40
0.0
  9
$LIMCHECK
 70
     0
  9
$BLIPMODE
 70
     0
  9
$CHAMFERA
 40
0.0
  9
$CHAMFERB
 40
0.0
  9
$SKPOLY
 70
     0
  9
$TDCREATE
 40
2458060.468368056230247
  9
$TDUPDATE
 40
2459580.0732754631899297
  9
$TDINDWG
 40
0.3149144676
  9
$TDUSRTIMER
 40
0.3149144676
  9
$USRTIMER
 70
     1
  9
$ANGBASE
 50
0.0
  9
$ANGDIR
 70
     0
  9
$PDMODE
 70
     0
  9
$PDSIZE
 40
0.3125
  9
$PLINEWID
 40
0.0
  9
$COORDS
 70
     1
  9
$SPLFRAME
 70
     0
  9
$SPLINETYPE
 70
     6
  9
$SPLINESEGS
 70
     8
  9
$ATTDIA
 70
     1
  9
$ATTREQ
 70
     1
  9
$HANDLING
 70
     1
  9
$HANDSEED
  5
7CD3
  9
$SURFTAB1
 70
     6
  9
$SURFTAB2
 70
     6
  9
$SURFTYPE
 70
     6
  9
$SURFU
 70
     6
  9
$SURFV
 70
     6
  9
$UCSNAME
  2

  9
$UCSORG
 10
0.0
 20
0.0
 30
0.0
  9
$UCSXDIR
 10
1.0
 20
0.0
 30
0.0
  9
$UCSYDIR
 10
0.0
 20
1.0
 30
0.0
  9
$PUCSNAME
  2

  9
$PUCSORG
 10
0.0
 20
0.0
 30
0.0
  9
$PUCSXDIR
 10
1.0
 20
0.0
 30
0.0
  9
$PUCSYDIR
 10
0.0
 20
1.0
 30
0.0
  9
$USERI1
 70
     0
  9
$USERI2
 70
     0
  9
$USERI3
 70
     0
  9
$USERI4
 70
     0
  9
$USERI5
 70
     0
  9
$USERR1
 40
0.0
  9
$USERR2
 40
0.0
  9
$USERR3
 40
0.0
  9
$USERR4
 40
0.0
  9
$USERR5
 40
0.0
  9
$WORLDVIEW
 70
     1
  9
$SHADEDGE
 70
     3
  9
$SHADEDIF
 70
    70
  9
$TILEMODE
 70
     1
  9
$MAXACTVP
 70
    64
  9
$PLIMCHECK
 70
     0
  9
$PEXTMIN
 10
1.0000000000000000E+20
 20
1.0000000000000000E+20
 30
1.0000000000000000E+20
  9
$PEXTMAX
 10
-1.0000000000000000E+20
 20
-1.0000000000000000E+20
 30
-1.0000000000000000E+20
  9
$PLIMMIN
 10
0.0
 20
0.0
  9
$PLIMMAX
 10
12.0
 20
9.0
  9
$UNITMODE
 70
     0
  9
$VISRETAIN
 70
     1
  9
$PLINEGEN
 70
     0
  9
$PSLTSCALE
 70
     1
  0
ENDSEC
  0
SECTION
  2
TABLES
  0
TABLE
  2
VPORT
 70
     1
  0
VPORT
  2
*ACTIVE
 70
     0
 10
0.0
 20
0.0
 11
1.0
 21
1.0
 12
35.4304756268186907
 22
-0.6239472748447613
 13
0.0
 23
0.0
 14
1.0
 24
1.0
 15
0.0
 25
0.0
 16
0.0
 26
0.0
 36
45.1902730778719999
 17
4317.2626953125
 27
149.6646728515625
 37
0.0
 40
2.505905713392254
 41
2.469551282051281
 42
50.0
 43
0.0
 44
0.0
 50
0.0
 51
0.0
 71
     0
 72
   100
 73
     1
 74
     1
 75
     0
 76
     0
 77
     0
 78
     0
  0
ENDTAB
  0
TABLE
  2
LTYPE
 70
     2
  0
LTYPE
  2
CONTINUOUS
 70
     0
  3
Solid line
 72
    65
 73
     0
 40
0.0
  0
LTYPE
  2
PHANTOM2
 70
     0
  3
___ _ _ ___ _ _ ___ _ _ ___ _ _
 72
    65
 73
     6
 40
1.25
 49
0.625
 49
-0.125
 49
0.125
 49
-0.125
 49
0.125
 49
-0.125
  0
ENDTAB
  0
TABLE
  2
LAYER
 70
     2
  0
LAYER
  2
0
 70
     0
 62
   255
  6
CONTINUOUS
  0
LAYER
  2
DEFPOINTS
 70
     0
 62
     7
  6
CONTINUOUS
  0
ENDTAB
  0
TABLE
  2
STYLE
 70
     1
  0
STYLE
  2
STANDARD
 70
     0
 40
0.0
 41
0.8
 50
0.0
 71
     0
 42
0.2
  3
txt
  4

  0
ENDTAB
  0
TABLE
  2
VIEW
 70
     0
  0
ENDTAB
  0
TABLE
  2
UCS
 70
     0
  0
ENDTAB
  0
TABLE
  2
APPID
 70
     9
  0
APPID
  2
ACAD
 70
     0
  0
APPID
  2
ACAD_MLEADERVER
 70
     0
  0
APPID
  2
ACAD_EXEMPT_FROM_CAD_STANDARDS
 70
     0
  0
APPID
  2
ACAD_NAV_VCDISPLAY
 70
     0
  0
APPID
  2
ACAECLAYERSTANDARD
 70
     0
  0
APPID
  2
ACCMTRANSPARENCY
 70
     0
  0
APPID
  2
ACAD_DSTYLE_DIMJAG
 70
     0
  0
APPID
  2
ACAD_DSTYLE_DIMTALN
 70
     0
  0
APPID
  2
ACDBATTR
 70
     0
  0
ENDTAB
  0
TABLE
  2
DIMSTYLE
 70
     1
  0
DIMSTYLE
  2
STANDARD
 70
     0
  3

  4

  5

  6

  7

 40
1.0
 41
0.1875
 42
0.0625
 43
0.38
 44
0.125
 45
0.0
 46
0.0
 47
0.01
 48
0.01
140
0.15625
141
0.09
142
0.0
143
25.3999999999999986
144
1.0
145
0.0
146
1.0
147
0.09
 71
     1
 72
     0
 73
     1
 74
     1
 75
     0
 76
     0
 77
     0
 78
     4
170
     0
171
     2
172
     0
173
     0
174
     0
175
     0
176
     0
177
     0
178
     0
  0
ENDTAB
  0
ENDSEC
  0
SECTION
  2
BLOCKS
  0
BLOCK
  8
0
  2
$MODEL_SPACE
 70
     0
 10
0.0
 20
0.0
 30
0.0
  3
$MODEL_SPACE
  1

  0
ENDBLK
  5
21
  8
0
  0
BLOCK
 67
     1
  8
0
  2
$PAPER_SPACE
 70
     0
 10
0.0
 20
0.0
 30
0.0
  3
$PAPER_SPACE
  1

  0
ENDBLK
  5
1D
 67
     1
  8
0
  0
ENDSEC
  0
SECTION
  2
ENTITIES
  0
ATTDEF
  5
3930
  8
DEFPOINTS
 10
4352.6931501985845898
 20
149.1956089063853028
 30
0.0
 40
0.001
  1
K-8002
  3

  2
MODELNUMBER
 70
     0
1001
ACDBATTR
1070
     0
1070
     1
  0
ATTDEF
  5
3931
  8
DEFPOINTS
 10
4352.6931502345651097
 20
149.1939422397186092
 30
0.0
 40
0.001
  1
SQUARE
  3

  2
TRADENAME
 70
     0
1001
ACDBATTR
1070
     0
1070
     1
  0
ATTDEF
  5
3932
  8
DEFPOINTS
 10
4352.693150306527059
 20
149.1922755730520009
 30
0.0
 40
0.001
  1
BODY SPRAY
  3

  2
PRODUCT
 70
     0
1001
ACDBATTR
1070
     0
1070
     1
  0
LINE
  5
7A4D
  8
0
 10
4350.246941129183142
 20
149.1921977699335002
 30
0.0
 11
4350.2531441328692381
 21
149.0144506022062103
 31
0.0
  0
LINE
  5
7A4E
  8
0
 10
4351.3579702336837727
 20
148.9069059827334911
 30
0.0
 11
4351.3566789674832762
 21
148.9261977750335006
 31
0.0
  0
LINE
  5
7A4F
  8
0
 10
4351.3636677434833473
 20
148.9033603530334915
 30
0.0
 11
4351.3609251401830988
 21
148.9261977750335006
 31
0.0
  0
LINE
  5
7A50
  8
0
 10
4351.4581789800840852
 20
148.898120221233512
 30
0.0
 11
4351.4647619135821515
 21
148.9261977750335006
 31
0.0
  0
LINE
  5
7A51
  8
0
 10
4351.7264479269833828
 20
148.9073108899335125
 30
0.0
 11
4351.7245179242827362
 21
148.9261977750335006
 31
0.0
  0
LINE
  5
7A52
  8
0
 10
4351.7334249219838966
 20
148.9014433731335032
 30
0.0
 11
4351.7290213284832134
 21
148.9261977750335006
 31
0.0
  0
LINE
  5
7A53
  8
0
 10
4351.8280707631838595
 20
148.9014919042334952
 30
0.0
 11
4351.8324395897843715
 21
148.9261977750335006
 31
0.0
  0
LINE
  5
7A54
  8
0
 10
4352.1930382505834132
 20
148.9014809645335049
 30
0.0
 11
4352.1974141769833295
 21
148.9261977750335006
 31
0.0
  0
LINE
  5
7A55
  8
0
 10
4352.0983921245842794
 20
148.9014531703334967
 30
0.0
 11
4352.0939962870834279
 21
148.9261977750335006
 31
0.0
  0
LINE
  5
7A56
  8
0
 10
4352.0949583378833267
 20
148.9065004470334941
 30
0.0
 11
4352.0922617789838114
 21
148.9261977750335006
 31
0.0
  0
LINE
  5
7A57
  8
0
 10
4352.4633656927826451
 20
148.9014613430335032
 30
0.0
 11
4352.45897602468267
 21
148.9261977750335006
 31
0.0
  0
LINE
  5
7A58
  8
0
 10
4352.5580119624837607
 20
148.9014724298334897
 30
0.0
 11
4352.5623936883830538
 21
148.9261977750335006
 31
0.0
  0
LINE
  5
7A59
  8
0
 10
4351.0971712613827549
 20
148.9261977750335006
 30
0.0
 11
4352.6931709450373091
 21
148.9261977750335006
 31
0.0
  0
LINE
  5
7A5A
  8
0
 10
4351.0235252740831129
 20
148.9365656509334883
 30
0.0
 11
4352.6931709450373091
 21
148.9365656509334883
 31
0.0
  0
LINE
  5
7A5B
  8
0
 10
4350.5906075229831913
 20
148.927278707233512
 30
0.0
 11
4351.0905181391608494
 21
148.926944808792598
 31
0.0
  0
LINE
  5
7A5C
  8
0
 10
4350.246941129183142
 20
149.1921977699335002
 30
0.0
 11
4355.1394007608887478
 21
149.1921977699335002
 31
0.0
  0
ARC
  5
7A5D
  8
0
 10
4351.4366877972834118
 20
149.3657709301334933
 30
0.0
 40
0.4809918791
 50
265.3362026373803815
 51
268.4267866071072035
  0
ARC
  5
7A5E
  8
0
 10
4350.3330607481011612
 20
149.0172804527003052
 30
0.0
 40
0.0799667020947573
 50
182.0279984771889872
 51
267.6371224592310796
  0
ARC
  5
7A5F
  8
0
 10
4351.0971712561831737
 20
148.9561977750335018
 30
0.0
 40
0.0299999999999801
 50
257.1869517520893282
 51
270.0000099312675843
  0
ARC
  5
7A60
  8
0
 10
4351.3740099865954107
 20
148.9080362311761974
 30
0.0
 40
0.0160795253352012
 50
184.0307104888985066
 51
254.7916422200964917
  0
ARC
  5
7A61
  8
0
 10
4351.7422536089370624
 20
148.9088484227314098
 30
0.0
 40
0.0158802893275015
 50
185.5560926409594913
 51
250.3083687355396876
  0
ARC
  5
7A62
  8
0
 10
4352.1108104770837599
 20
148.9086706275334961
 30
0.0
 40
0.016
 50
187.7954147682025905
 51
226.8285025566297008
  0
ARC
  5
7A63
  8
0
 10
4350.334070158232862
 20
149.0167433037464946
 30
0.0
 40
0.0809584959193492
 50
181.6228029628404954
 51
267.4047176403601043
  0
ARC
  5
7A64
  8
0
 10
4352.5106977417199232
 20
148.8260263560565022
 30
0.0
 40
0.0638030042165165
 50
77.7933049250380577
 51
102.2202370033721053
  0
ARC
  5
7A65
  8
0
 10
4352.5106827167728625
 20
148.9531671912671129
 30
0.0
 40
0.0661731836423645
 50
258.2371456918065178
 51
281.7763962365298767
  0
ARC
  5
7A66
  8
0
 10
4352.1457981260318775
 20
148.8256493099916895
 30
0.0
 40
0.0641856956737731
 50
77.8766014588413782
 51
102.2117167329199958
  0
ARC
  5
7A67
  8
0
 10
4352.1457000549944496
 20
148.9528950174463091
 30
0.0
 40
0.0659054074594468
 50
258.1987642579603062
 51
281.8895539338057006
  0
ARC
  5
7A68
  8
0
 10
4351.7807863792540957
 20
148.8256037018909979
 30
0.0
 40
0.0642463147582691
 50
77.8447552697298306
 51
102.1589468857493017
  0
ARC
  5
7A69
  8
0
 10
4351.7807823024613754
 20
148.9517913155987117
 30
0.0
 40
0.0648100754966621
 50
257.9521002032698789
 51
282.0516019522182773
  0
ARC
  5
7A6A
  8
0
 10
4351.4044996639850069
 20
148.7853318183151998
 30
0.0
 40
0.1033083971902634
 50
79.3043586387145325
 51
94.3212361077476373
  0
ARC
  5
7A6B
  8
0
 10
4351.4159625218380825
 20
148.9911849996229023
 30
0.0
 40
0.104624065525484
 50
259.3993126559927873
 51
274.2262820904726937
  0
ARC
  5
7A6C
  8
0
 10
4350.5840771517687244
 20
152.6750955588759098
 30
0.0
 40
3.7478225410500539
 50
266.1189452180540798
 51
270.0998347425634165
  0
ARC
  5
7A6D
  8
0
 10
4350.8570391249013483
 20
302.2908946254005969
 30
0.0
 40
153.3544193456677931
 50
269.8030007405868105
 51
270.0622020259199871
  0
ARC
  5
7A6E
  8
0
 10
4351.3797570117203577
 20
148.905299526583093
 30
0.0
 40
0.0162057072183025
 50
186.8724757261944092
 51
232.0541048620586082
  0
ARC
  5
7A6F
  8
0
 10
4351.3824669847826954
 20
148.9097139959351921
 30
0.0
 40
0.0213611371259611
 50
233.6032094744444976
 51
260.7388326055202015
  0
ARC
  5
7A70
  8
0
 10
4351.4110606526819538
 20
149.0743111705046999
 30
0.0
 40
0.1884224666392245
 50
260.212303816162887
 51
265.8969560436663073
  0
ARC
  5
7A71
  8
0
 10
4351.430405658714335
 20
149.0878152539033863
 30
0.0
 40
0.2029730022228406
 50
268.0453325844342203
 51
272.5825826954769013
  0
ARC
  5
7A72
  8
0
 10
4351.4389955934530008
 20
148.9113686264738021
 30
0.0
 40
0.0263260874430484
 50
271.2099192207303986
 51
292.9584176792450876
  0
ARC
  5
7A73
  8
0
 10
4351.4423286667206412
 20
148.9018635552430112
 30
0.0
 40
0.0162863434561925
 50
295.2053299838656812
 51
346.7120557524104925
  0
ARC
  5
7A74
  8
0
 10
4351.7496009078313364
 20
148.9043231996525947
 30
0.0
 40
0.01643033532629
 50
190.0946600110243025
 51
219.3889360590171975
  0
ARC
  5
7A75
  8
0
 10
4351.7510677514956114
 20
148.9057730698062016
 30
0.0
 40
0.0184850284124908
 50
219.9769656756656104
 51
251.2909546059339903
  0
ARC
  5
7A76
  8
0
 10
4351.7614010427387257
 20
148.941696472334911
 30
0.0
 40
0.0558517320314313
 50
253.0717201443098929
 51
264.6979922791118156
  0
ARC
  5
7A77
  8
0
 10
4351.7828732755369856
 20
149.205712750402796
 30
0.0
 40
0.32073674038536
 50
265.2368060341394767
 51
269.9428346870828932
  0
ARC
  5
7A78
  8
0
 10
4351.7841962938318829
 20
149.0724103721094025
 30
0.0
 40
0.1874414035884074
 50
269.4977652689208867
 51
277.9254159937169106
  0
ARC
  5
7A79
  8
0
 10
4351.8073780581407846
 20
148.9116322547411073
 30
0.0
 40
0.0250151116084687
 50
276.1119384505154244
 51
304.0050449843399747
  0
ARC
  5
7A7A
  8
0
 10
4351.8116883617130952
 20
148.904435725240802
 30
0.0
 40
0.0166447937816708
 50
305.5597009505523829
 51
349.8130035115481746
  0
ARC
  5
7A7B
  8
0
 10
4352.1146030277632235
 20
148.9043426256309886
 30
0.0
 40
0.0164664001482724
 50
190.1063498820790016
 51
222.4390010063040108
  0
ARC
  5
7A7C
  8
0
 10
4352.1158831705051853
 20
148.9056687476715126
 30
0.0
 40
0.0183063743653066
 50
222.7983901130542108
 51
246.9565024039310117
  0
ARC
  5
7A7D
  8
0
 10
4352.1253134174612569
 20
148.9345262760112121
 30
0.0
 40
0.0486231079418232
 50
250.0428482538850119
 51
266.2758313172091107
  0
ARC
  5
7A7E
  8
0
 10
4352.1442900254905908
 20
149.1279332879402091
 30
0.0
 40
0.2429379315881299
 50
264.7723518005735173
 51
270.161023900017085
  0
ARC
  5
7A7F
  8
0
 10
4352.1466915397431876
 20
149.1348681032031038
 30
0.0
 40
0.2498776987039549
 50
269.6058926171725147
 51
275.0561314079532167
  0
ARC
  5
7A80
  8
0
 10
4352.1660414738780673
 20
148.9339892828855909
 30
0.0
 40
0.0481008463628328
 50
273.1846558335515738
 51
290.7184980501372138
  0
ARC
  5
7A81
  8
0
 10
4352.176366394291108
 20
148.9045803076676009
 30
0.0
 40
0.0169574974587298
 50
293.2432957253889754
 51
349.4687804936525026
  0
ARC
  5
7A82
  8
0
 10
4352.4797132049170614
 20
148.9044049779527086
 30
0.0
 40
0.0166104226160639
 50
190.2076494232904906
 51
232.6925141617417125
  0
ARC
  5
7A83
  8
0
 10
4352.4823514430599971
 20
148.908272695070508
 30
0.0
 40
0.0212872172815438
 50
233.3539902141980917
 51
258.6056302876507971
  0
ARC
  5
7A84
  8
0
 10
4352.498401793694029
 20
148.9881001728053889
 30
0.0
 40
0.1027122728634191
 50
258.6261524829243967
 51
267.3323248098546969
  0
ARC
  5
7A85
  8
0
 10
4352.5105935832380055
 20
149.1789403870475894
 30
0.0
 40
0.2939315972870046
 50
266.6897629050939145
 51
273.6400645440170933
  0
ARC
  5
7A86
  8
0
 10
4352.5246872780062404
 20
148.9758639036647878
 30
0.0
 40
0.0903776219432193
 50
272.8968752077428803
 51
281.7804481126602241
  0
ARC
  5
7A87
  8
0
 10
4352.5389484228580841
 20
148.9084518456510864
 30
0.0
 40
0.0214747832187468
 50
281.2527459467519861
 51
305.9679436227253859
  0
ARC
  5
7A88
  8
0
 10
4352.5416721765132024
 20
148.9044053649726038
 30
0.0
 40
0.0166009250961507
 50
306.562179667810085
 51
349.8239692613943816
  0
LINE
  5
7A89
  8
0
 10
4355.1394007608887478
 20
149.1921977699335002
 30
0.0
 11
4355.1331977572026517
 21
149.0144506022062103
 31
0.0
  0
LINE
  5
7A8A
  8
0
 10
4354.0283716563890266
 20
148.9069059827334911
 30
0.0
 11
4354.0296629225904326
 21
148.9261977750335006
 31
0.0
  0
LINE
  5
7A8B
  8
0
 10
4354.022674146589452
 20
148.9033603530334915
 30
0.0
 11
4354.0254167498897004
 21
148.9261977750335006
 31
0.0
  0
LINE
  5
7A8C
  8
0
 10
4353.9281629099896236
 20
148.898120221233512
 30
0.0
 11
4353.9215799764888288
 21
148.9261977750335006
 31
0.0
  0
LINE
  5
7A8D
  8
0
 10
4353.6598939630894165
 20
148.9073108899335125
 30
0.0
 11
4353.6618239657891536
 21
148.9261977750335006
 31
0.0
  0
LINE
  5
7A8E
  8
0
 10
4353.6529169680889026
 20
148.9014433731335032
 30
0.0
 11
4353.6573205615886764
 21
148.9261977750335006
 31
0.0
  0
LINE
  5
7A8F
  8
0
 10
4353.5582711268880303
 20
148.9014919042334952
 30
0.0
 11
4353.5539023002902468
 21
148.9261977750335006
 31
0.0
  0
LINE
  5
7A90
  8
0
 10
4353.1933036394893861
 20
148.9014809645335049
 30
0.0
 11
4353.1889277130885603
 21
148.9261977750335006
 31
0.0
  0
LINE
  5
7A91
  8
0
 10
4353.2879497654903389
 20
148.9014531703334967
 30
0.0
 11
4353.2923456029893714
 21
148.9261977750335006
 31
0.0
  0
LINE
  5
7A92
  8
0
 10
4353.291383552188563
 20
148.9065004470334941
 30
0.0
 11
4353.2940801110889879
 21
148.9261977750335006
 31
0.0
  0
LINE
  5
7A93
  8
0
 10
4355.0601043418892004
 20
148.9362241627335095
 30
0.0
 11
4355.0559375919892773
 21
148.9358678468335029
 31
0.0
  0
LINE
  5
7A94
  8
0
 10
4352.9229761972892447
 20
148.9014613430335032
 30
0.0
 11
4352.9273658653892198
 21
148.9261977750335006
 31
0.0
  0
LINE
  5
7A95
  8
0
 10
4352.8283299275881291
 20
148.9014724298334897
 30
0.0
 11
4352.8239482016879265
 21
148.9261977750335006
 31
0.0
  0
LINE
  5
7A96
  8
0
 10
4354.2891706286891349
 20
148.9261977750335006
 30
0.0
 11
4352.6931709450373091
 21
148.9261977750335006
 31
0.0
  0
LINE
  5
7A97
  8
0
 10
4354.3628166159896864
 20
148.9365656509334883
 30
0.0
 11
4352.6931709450373091
 21
148.9365656509334883
 31
0.0
  0
LINE
  5
7A98
  8
0
 10
4354.7957343670886985
 20
148.927278707233512
 30
0.0
 11
4354.2958237509110404
 21
148.926944808792598
 31
0.0
  0
ARC
  5
7A99
  8
0
 10
4353.9496540927893875
 20
149.3657709301334933
 30
0.0
 40
0.4809918791
 50
271.5732133928927965
 51
274.6637973626196185
  0
ARC
  5
7A9A
  8
0
 10
4355.0532811419707286
 20
149.0172804527003052
 30
0.0
 40
0.0799667020947573
 50
272.3628775407689204
 51
357.9720015228110128
  0
ARC
  5
7A9B
  8
0
 10
4354.2891706338887161
 20
148.9561977750335018
 30
0.0
 40
0.0299999999999801
 50
269.999990068732302
 51
282.8130482479106718
  0
ARC
  5
7A9C
  8
0
 10
4354.012331903478298
 20
148.9080362311761974
 30
0.0
 40
0.0160795253352012
 50
285.2083577799031104
 51
355.9692895110998165
  0
ARC
  5
7A9D
  8
0
 10
4353.6440882811348274
 20
148.9088484227314098
 30
0.0
 40
0.0158802893275015
 50
289.6916312644603977
 51
354.4439073590405087
  0
ARC
  5
7A9E
  8
0
 10
4353.2755314129890394
 20
148.9086706275334961
 30
0.0
 40
0.016
 50
313.1714974433701855
 51
352.2045852317972958
  0
ARC
  5
7A9F
  8
0
 10
4355.0523888390171123
 20
149.0166952169662977
 30
0.0
 40
0.0808400863057275
 50
275.4767340528321142
 51
358.4089145711540141
  0
ARC
  5
7AA0
  8
0
 10
4352.8756441483528761
 20
148.8260263560565022
 30
0.0
 40
0.0638030042165165
 50
77.7797629966278805
 51
102.2066950749622976
  0
ARC
  5
7AA1
  8
0
 10
4352.8756591732990273
 20
148.9531671912671129
 30
0.0
 40
0.0661731836423645
 50
258.2236037634701233
 51
281.7628543081934822
  0
ARC
  5
7AA2
  8
0
 10
4353.2405437640409218
 20
148.8256493099916895
 30
0.0
 40
0.0641856956737731
 50
77.7882832670799189
 51
102.1233985411585934
  0
ARC
  5
7AA3
  8
0
 10
4353.2406418350774402
 20
148.9528950174463091
 30
0.0
 40
0.0659054074594468
 50
258.1104460661942994
 51
281.8012357420398075
  0
ARC
  5
7AA4
  8
0
 10
4353.6055555108168846
 20
148.8256037018909979
 30
0.0
 40
0.0642463147582691
 50
77.8410531142506557
 51
102.1552447302701978
  0
ARC
  5
7AA5
  8
0
 10
4353.6055595876114239
 20
148.9517913155987117
 30
0.0
 40
0.0648100754966621
 50
257.9483980477817227
 51
282.0478997967301211
  0
ARC
  5
7AA6
  8
0
 10
4353.9818422260877924
 20
148.7853318183151998
 30
0.0
 40
0.1033083971902634
 50
85.6787638922523627
 51
100.6956413612854959
  0
ARC
  5
7AA7
  8
0
 10
4353.9703793682338073
 20
148.9911849996229023
 30
0.0
 40
0.104624065525484
 50
265.7737179095273063
 51
280.6006873440072127
  0
ARC
  5
7AA8
  8
0
 10
4354.8022647383031654
 20
152.6750955588759098
 30
0.0
 40
3.7478225410500539
 50
269.9001652574365835
 51
273.8810547819459202
  0
ARC
  5
7AA9
  8
0
 10
4354.529302765171451
 20
302.2908946254005969
 30
0.0
 40
153.3544193456677931
 50
269.9377979740800129
 51
270.1969992594133032
  0
ARC
  5
7AAA
  8
0
 10
4354.0065848783524416
 20
148.905299526583093
 30
0.0
 40
0.0162057072183025
 50
307.9458951379414202
 51
353.1275242738055908
  0
ARC
  5
7AAB
  8
0
 10
4354.0038749052901039
 20
148.9097139959351921
 30
0.0
 40
0.0213611371259611
 50
279.2611673944797985
 51
306.3967905255565256
  0
ARC
  5
7AAC
  8
0
 10
4353.9752812373908455
 20
149.0743111705046999
 30
0.0
 40
0.1884224666392245
 50
274.1030439563336927
 51
279.787696183837113
  0
ARC
  5
7AAD
  8
0
 10
4353.9559362313575548
 20
149.0878152539033863
 30
0.0
 40
0.2029730022228406
 50
267.4174173045230987
 51
271.9546674155657797
  0
ARC
  5
7AAE
  8
0
 10
4353.9473462966197985
 20
148.9113686264738021
 30
0.0
 40
0.0263260874430484
 50
247.0415823207547987
 51
268.7900807792694877
  0
ARC
  5
7AAF
  8
0
 10
4353.9440132233512486
 20
148.9018635552430112
 30
0.0
 40
0.0162863434561925
 50
193.2879442475878875
 51
244.7946700161350009
  0
ARC
  5
7AB0
  8
0
 10
4353.6367409822405534
 20
148.9043231996525947
 30
0.0
 40
0.01643033532629
 50
320.6110639409827172
 51
349.9053399889756975
  0
ARC
  5
7AB1
  8
0
 10
4353.6352741385762783
 20
148.9057730698062016
 30
0.0
 40
0.0184850284124908
 50
288.7090453940659813
 51
320.0230343243343896
  0
ARC
  5
7AB2
  8
0
 10
4353.6249408473331641
 20
148.941696472334911
 30
0.0
 40
0.0558517320314313
 50
275.3020077208881844
 51
286.9282798556901071
  0
ARC
  5
7AB3
  8
0
 10
4353.6034686145358137
 20
149.205712750402796
 30
0.0
 40
0.32073674038536
 50
270.0571653129169931
 51
274.7631939658604097
  0
ARC
  5
7AB4
  8
0
 10
4353.6021455962409163
 20
149.0724103721094025
 30
0.0
 40
0.1874414035884074
 50
262.0745840062832031
 51
270.5022347310791133
  0
ARC
  5
7AB5
  8
0
 10
4353.5789638319320147
 20
148.9116322547411073
 30
0.0
 40
0.0250151116084687
 50
235.9949550156599969
 51
263.8880615494845756
  0
ARC
  5
7AB6
  8
0
 10
4353.5746535283578851
 20
148.904435725240802
 30
0.0
 40
0.0166447937816708
 50
190.1869964884517969
 51
234.4402990494475887
  0
ARC
  5
7AB7
  8
0
 10
4353.2717388623086663
 20
148.9043426256309886
 30
0.0
 40
0.0164664001482724
 50
317.5609989936959892
 51
349.8936501179210268
  0
ARC
  5
7AB8
  8
0
 10
4353.2704587195667045
 20
148.9056687476715126
 30
0.0
 40
0.0183063743653066
 50
293.0434975960690167
 51
317.2016098869456755
  0
ARC
  5
7AB9
  8
0
 10
4353.2610284726106329
 20
148.9345262760112121
 30
0.0
 40
0.0486231079418232
 50
273.7241686827907756
 51
289.9571517461150165
  0
ARC
  5
7ABA
  8
0
 10
4353.242051864581299
 20
149.1279332879402091
 30
0.0
 40
0.2429379315881299
 50
269.838976099982915
 51
275.2276481994264827
  0
ARC
  5
7ABB
  8
0
 10
4353.2396503503296117
 20
149.1348681032031038
 30
0.0
 40
0.2498776987039549
 50
264.9438685920467265
 51
270.3941073828274853
  0
ARC
  5
7ABC
  8
0
 10
4353.220300416192913
 20
148.9339892828855909
 30
0.0
 40
0.0481008463628328
 50
249.2815019498627862
 51
266.8153441664484262
  0
ARC
  5
7ABD
  8
0
 10
4353.2099754957798723
 20
148.9045803076676009
 30
0.0
 40
0.0169574974587298
 50
190.5312195063474121
 51
246.7567042746109962
  0
ARC
  5
7ABE
  8
0
 10
4352.9066286851557379
 20
148.9044049779527086
 30
0.0
 40
0.0166104226160639
 50
307.3074858382582875
 51
349.7923505767093957
  0
ARC
  5
7ABF
  8
0
 10
4352.9039904470128022
 20
148.908272695070508
 30
0.0
 40
0.0212872172815438
 50
281.3943697123492029
 51
306.646009785801823
  0
ARC
  5
7AC0
  8
0
 10
4352.8879400963778608
 20
148.9881001728053889
 30
0.0
 40
0.1027122728634191
 50
272.6676751901451894
 51
281.3738475170754896
  0
ARC
  5
7AC1
  8
0
 10
4352.8757483068347938
 20
149.1789403870475894
 30
0.0
 40
0.2939315972870046
 50
266.3599354559829067
 51
273.3102370949060855
  0
ARC
  5
7AC2
  8
0
 10
4352.8616546120656494
 20
148.9758639036647878
 30
0.0
 40
0.0903776219432193
 50
258.2195518873397759
 51
267.1031247922571197
  0
ARC
  5
7AC3
  8
0
 10
4352.8473934672138057
 20
148.9084518456510864
 30
0.0
 40
0.0214747832187468
 50
234.0320563772746141
 51
258.7472540532480139
  0
ARC
  5
7AC4
  8
0
 10
4352.8446697135577779
 20
148.9044053649726038
 30
0.0
 40
0.0166009250961507
 50
190.1760307386055899
 51
233.4378203321898866
  0
ENDSEC
  0
EOF
