  0
SECTION
  2
HEADER
  9
$ACADVER
  1
AC1009
  9
$INSBASE
 10
15.1307800831674903
 20
4.0860687014507651
 30
0.0
  9
$EXTMIN
 10
13.4571041565307397
 20
3.743407505830028
 30
-0.0015258207003583
  9
$EXTMAX
 10
16.8045212863830287
 20
4.428431007549821
 30
0.0000000349246037
  9
$LIMMIN
 10
0.0
 20
0.0
  9
$LIMMAX
 10
11.6929133858000007
 20
8.2677165353999982
  9
$ORTHOMODE
 70
     0
  9
$REGENMODE
 70
     1
  9
$FILLMODE
 70
     1
  9
$QTEXTMODE
 70
     0
  9
$MIRRTEXT
 70
     0
  9
$DRAGMODE
 70
     2
  9
$LTSCALE
 40
0.6431102362
  9
$OSMODE
 70
  4095
  9
$ATTMODE
 70
     1
  9
$TEXTSIZE
 40
0.2
  9
$TRACEWID
 40
0.05
  9
$TEXTSTYLE
  7
STANDARD
  9
$CLAYER
  8
0
  9
$CELTYPE
  6
BYLAYER
  9
$CECOLOR
 62
   256
  9
$DIMSCALE
 40
1.0
  9
$DIMASZ
 40
0.1875
  9
$DIMEXO
 40
0.0625
  9
$DIMDLI
 40
0.4443307087
  9
$DIMRND
 40
0.0
  9
$DIMDLE
 40
0.0
  9
$DIMEXE
 40
0.125
  9
$DIMTP
 40
0.01
  9
$DIMTM
 40
0.01
  9
$DIMTXT
 40
1.0
  9
$DIMCEN
 40
0.1052362205
  9
$DIMTSZ
 40
0.0
  9
$DIMTOL
 70
     1
  9
$DIMLIM
 70
     0
  9
$DIMTIH
 70
     1
  9
$DIMTOH
 70
     1
  9
$DIMSE1
 70
     0
  9
$DIMSE2
 70
     0
  9
$DIMTAD
 70
     0
  9
$DIMZIN
 70
     0
  9
$DIMBLK
  1

  9
$DIMASO
 70
     1
  9
$DIMSHO
 70
     1
  9
$DIMPOST
  1
\X
  9
$DIMAPOST
  1

  9
$DIMALT
 70
     1
  9
$DIMALTD
 70
     2
  9
$DIMALTF
 40
25.3999999999999986
  9
$DIMLFAC
 40
1.0
  9
$DIMTOFL
 70
     0
  9
$DIMTVP
 40
0.0
  9
$DIMTIX
 70
     0
  9
$DIMSOXD
 70
     0
  9
$DIMSAH
 70
     0
  9
$DIMBLK1
  1

  9
$DIMBLK2
  1

  9
$DIMSTYLE
  2
STANDARD
  9
$DIMCLRD
 70
     0
  9
$DIMCLRE
 70
     0
  9
$DIMCLRT
 70
     0
  9
$DIMTFAC
 40
1.0
  9
$DIMGAP
 40
0.09
  9
$LUNITS
 70
     2
  9
$LUPREC
 70
     4
  9
$SKETCHINC
 40
0.1
  9
$FILLETRAD
 40
0.0
  9
$AUNITS
 70
     0
  9
$AUPREC
 70
     0
  9
$MENU
  1
.
  9
$ELEVATION
 40
0.0
  9
$PELEVATION
 40
0.0
  9
$THICKNESS
 40
0.0
  9
$LIMCHECK
 70
     0
  9
$BLIPMODE
 70
     0
  9
$CHAMFERA
 40
0.0
  9
$CHAMFERB
 40
0.0
  9
$SKPOLY
 70
     0
  9
$TDCREATE
 40
2458171.6019560191780329
  9
$TDUPDATE
 40
2459853.781261574011296
  9
$TDINDWG
 40
0.0765424537
  9
$TDUSRTIMER
 40
0.0765424537
  9
$USRTIMER
 70
     1
  9
$ANGBASE
 50
0.0
  9
$ANGDIR
 70
     0
  9
$PDMODE
 70
     0
  9
$PDSIZE
 40
0.3125
  9
$PLINEWID
 40
0.0
  9
$COORDS
 70
     1
  9
$SPLFRAME
 70
     0
  9
$SPLINETYPE
 70
     6
  9
$SPLINESEGS
 70
     8
  9
$ATTDIA
 70
     1
  9
$ATTREQ
 70
     1
  9
$HANDLING
 70
     1
  9
$HANDSEED
  5
ABC
  9
$SURFTAB1
 70
     6
  9
$SURFTAB2
 70
     6
  9
$SURFTYPE
 70
     6
  9
$SURFU
 70
     6
  9
$SURFV
 70
     6
  9
$UCSNAME
  2

  9
$UCSORG
 10
0.0
 20
0.0
 30
0.0
  9
$UCSXDIR
 10
1.0
 20
0.0
 30
0.0
  9
$UCSYDIR
 10
0.0
 20
1.0
 30
0.0
  9
$PUCSNAME
  2

  9
$PUCSORG
 10
0.0
 20
0.0
 30
0.0
  9
$PUCSXDIR
 10
1.0
 20
0.0
 30
0.0
  9
$PUCSYDIR
 10
0.0
 20
1.0
 30
0.0
  9
$USERI1
 70
     0
  9
$USERI2
 70
     0
  9
$USERI3
 70
     0
  9
$USERI4
 70
     0
  9
$USERI5
 70
     0
  9
$USERR1
 40
0.0
  9
$USERR2
 40
0.0
  9
$USERR3
 40
0.0
  9
$USERR4
 40
0.0
  9
$USERR5
 40
0.0
  9
$WORLDVIEW
 70
     1
  9
$SHADEDGE
 70
     3
  9
$SHADEDIF
 70
    70
  9
$TILEMODE
 70
     1
  9
$MAXACTVP
 70
    64
  9
$PLIMCHECK
 70
     0
  9
$PEXTMIN
 10
1.0000000000000000E+20
 20
1.0000000000000000E+20
 30
1.0000000000000000E+20
  9
$PEXTMAX
 10
-1.0000000000000000E+20
 20
-1.0000000000000000E+20
 30
-1.0000000000000000E+20
  9
$PLIMMIN
 10
0.0
 20
0.0
  9
$PLIMMAX
 10
12.0
 20
9.0
  9
$UNITMODE
 70
     0
  9
$VISRETAIN
 70
     1
  9
$PLINEGEN
 70
     0
  9
$PSLTSCALE
 70
     1
  0
ENDSEC
  0
SECTION
  2
TABLES
  0
TABLE
  2
VPORT
 70
     1
  0
VPORT
  2
*ACTIVE
 70
     0
 10
0.0
 20
0.0
 11
1.0
 21
1.0
 12
0.000032638289392
 22
-0.0001494610229216
 13
0.0
 23
0.0
 14
1.0
 24
1.0
 15
0.0
 25
0.0
 16
-0.0000000000000018
 26
0.0
 36
9.6133084339373305
 17
15.1307800831674903
 27
4.0860687177128456
 37
0.0
 40
1.5646805846064229
 41
2.1471354166666661
 42
50.0
 43
0.0
 44
0.0
 50
0.0
 51
0.0
 71
     0
 72
   100
 73
     1
 74
     1
 75
     0
 76
     0
 77
     0
 78
     0
  0
ENDTAB
  0
TABLE
  2
LTYPE
 70
     2
  0
LTYPE
  2
CONTINUOUS
 70
     0
  3
Solid line
 72
    65
 73
     0
 40
0.0
  0
LTYPE
  2
PHANTOM2
 70
     0
  3
___ _ _ ___ _ _ ___ _ _ ___ _ _
 72
    65
 73
     6
 40
1.25
 49
0.625
 49
-0.125
 49
0.125
 49
-0.125
 49
0.125
 49
-0.125
  0
ENDTAB
  0
TABLE
  2
LAYER
 70
     2
  0
LAYER
  2
0
 70
     0
 62
   255
  6
CONTINUOUS
  0
LAYER
  2
DEFPOINTS
 70
     0
 62
     7
  6
CONTINUOUS
  0
ENDTAB
  0
TABLE
  2
STYLE
 70
     1
  0
STYLE
  2
STANDARD
 70
     0
 40
0.0
 41
0.8
 50
0.0
 71
     0
 42
0.2
  3
txt
  4

  0
ENDTAB
  0
TABLE
  2
VIEW
 70
     0
  0
ENDTAB
  0
TABLE
  2
UCS
 70
     0
  0
ENDTAB
  0
TABLE
  2
APPID
 70
     9
  0
APPID
  2
ACAD
 70
     0
  0
APPID
  2
ACAD_MLEADERVER
 70
     0
  0
APPID
  2
ACAD_EXEMPT_FROM_CAD_STANDARDS
 70
     0
  0
APPID
  2
ACAD_DSTYLE_DIMJAG
 70
     0
  0
APPID
  2
ACAD_DSTYLE_DIMTALN
 70
     0
  0
APPID
  2
ACAD_NAV_VCDISPLAY
 70
     0
  0
APPID
  2
ACAECLAYERSTANDARD
 70
     0
  0
APPID
  2
ACCMTRANSPARENCY
 70
     0
  0
APPID
  2
ACDBATTR
 70
     0
  0
ENDTAB
  0
TABLE
  2
DIMSTYLE
 70
     1
  0
DIMSTYLE
  2
STANDARD
 70
     0
  3

  4

  5

  6

  7

 40
1.0
 41
0.1875
 42
0.0625
 43
0.38
 44
0.125
 45
0.0
 46
0.0
 47
0.01
 48
0.01
140
0.15625
141
0.09
142
0.0
143
25.3999999999999986
144
1.0
145
0.0
146
1.0
147
0.09
 71
     1
 72
     0
 73
     1
 74
     1
 75
     0
 76
     0
 77
     0
 78
     4
170
     0
171
     2
172
     0
173
     0
174
     0
175
     0
176
     0
177
     0
178
     0
  0
ENDTAB
  0
ENDSEC
  0
SECTION
  2
BLOCKS
  0
BLOCK
  8
0
  2
$MODEL_SPACE
 70
     0
 10
0.0
 20
0.0
 30
0.0
  3
$MODEL_SPACE
  1

  0
ENDBLK
  5
21
  8
0
  0
BLOCK
 67
     1
  8
0
  2
$PAPER_SPACE
 70
     0
 10
0.0
 20
0.0
 30
0.0
  3
$PAPER_SPACE
  1

  0
ENDBLK
  5
1D
 67
     1
  8
0
  0
ENDSEC
  0
SECTION
  2
ENTITIES
  0
LINE
  5
4C2
  8
0
 10
13.5281060744174901
 20
4.408903346899999
 30
0.0
 11
16.7334540919174906
 21
4.408903346899999
 31
0.0
  0
ARC
  5
4C9
  8
0
 10
14.8008588233175207
 20
4.0860687011999977
 30
0.0
 40
1.343307086600025
 50
167.0612793249700871
 51
192.9387206750286055
  0
ARC
  5
4CA
  8
0
 10
13.6307237901474707
 20
3.9566789451260602
 30
0.0
 40
0.4714868752754709
 50
76.4707385784789579
 51
103.5132565674949063
  0
ARC
  5
4CB
  8
0
 10
13.5284371255302904
 20
4.3681380787928701
 30
0.0
 40
0.0407666123032741
 50
90.465283695966221
 51
156.1697490930147012
  0
ARC
  5
4CC
  8
0
 10
13.5297818741741391
 20
4.3767777139527189
 30
0.0
 40
0.0394310427308742
 50
103.5382379529378056
 51
165.2048269373360938
  0
ARC
  5
4D5
  8
0
 10
13.7316674948871693
 20
4.376487257365949
 30
0.0
 40
0.0397130973044337
 50
54.7118311486432205
 51
76.372354338322566
  0
LINE
  5
4D6
  8
0
 10
13.5281060744174901
 20
3.7632340554999999
 30
0.0
 11
16.7334540919174906
 21
3.7632340554999999
 31
0.0
  0
ARC
  5
4D7
  8
0
 10
13.6307274766174906
 20
4.2154895918999999
 30
0.0
 40
0.4715180094
 50
256.4871919174000254
 51
283.5279404253000166
  0
ARC
  5
4D8
  8
0
 10
13.5284371255302904
 20
3.8039993236071319
 30
0.0
 40
0.0407666123032764
 50
203.8302509069872883
 51
269.5347163040331111
  0
ARC
  5
4D9
  8
0
 10
13.5297818741741391
 20
3.7953596884472791
 30
0.0
 40
0.0394310427308716
 50
194.7951730626622009
 51
256.4617620470644965
  0
ARC
  5
4DA
  8
0
 10
13.7316432287295402
 20
3.7956923911669112
 30
0.0
 40
0.0397615995619418
 50
283.6472762520621131
 51
305.2815436285188184
  0
ARC
  5
4DB
  8
0
 10
15.4607013430174707
 20
4.0860687011999977
 30
0.0
 40
1.343307086600025
 50
347.0612793249713945
 51
12.9387206750298702
  0
ARC
  5
4DC
  8
0
 10
16.6308363761643392
 20
3.9566791110446871
 30
0.0
 40
0.471486713955571
 50
76.4867387183457907
 51
103.5292661356800039
  0
ARC
  5
4DD
  8
0
 10
16.7331230408046885
 20
4.3681380787928701
 30
0.0
 40
0.0407666123032741
 50
23.8302509069852491
 51
89.5347163040337648
  0
ARC
  5
4DE
  8
0
 10
16.7317782921608504
 20
4.3767777139527189
 30
0.0
 40
0.0394310427308742
 50
14.79517306266386
 51
76.4617620470621944
  0
ARC
  5
4DF
  8
0
 10
16.5298926714478185
 20
4.376487257365949
 30
0.0
 40
0.0397130973044337
 50
103.6276456616774055
 51
125.2881688513568008
  0
ARC
  5
4E0
  8
0
 10
16.6308326896979004
 20
4.215489443549421
 30
0.0
 40
0.4715178651606822
 50
256.4720553602421091
 51
283.5128122970584741
  0
ARC
  5
4E1
  8
0
 10
16.7331230408046885
 20
3.8039993236071319
 30
0.0
 40
0.0407666123032764
 50
270.4652836959667752
 51
336.1697490930126833
  0
ARC
  5
4E2
  8
0
 10
16.7317782921608504
 20
3.7953596884472791
 30
0.0
 40
0.0394310427308716
 50
283.5382379529355035
 51
345.2048269373378275
  0
ARC
  5
4E3
  8
0
 10
16.5299169376054493
 20
3.7956923911669112
 30
0.0
 40
0.0397615995619418
 50
234.7184563714810963
 51
256.3527237479378869
  0
ATTDEF
  5
7D1
  8
DEFPOINTS
 10
15.1247857059857207
 20
4.0841182454851399
 30
0.0
 40
0.001
  1
K-78386
  3

  2
MODELNUMBER
 70
     0
1001
ACDBATTR
1070
     0
1070
     1
  0
ATTDEF
  5
7D2
  8
DEFPOINTS
 10
15.1247857059857207
 20
4.0824515788184748
 30
0.0
 40
0.001
  1
COMPONENTS
  3

  2
TRADENAME
 70
     0
1001
ACDBATTR
1070
     0
1070
     1
  0
ATTDEF
  5
7D3
  8
DEFPOINTS
 10
15.1247857059857207
 20
4.0807849121518096
 30
0.0
 40
0.001
  1
DRAWER PULL
  3

  2
PRODUCT
 70
     0
1001
ACDBATTR
1070
     0
1070
     1
  0
ENDSEC
  0
EOF
