  0
SECTION
  2
HEADER
  9
$ACADVER
  1
AC1009
  9
$INSBASE
 10
26.8406927423942712
 20
6.1706277363405384
 30
0.0
  9
$EXTMIN
 10
25.7217637220926214
 20
5.4225351183526298
 30
-0.0015258207003583
  9
$EXTMAX
 10
26.8590244042279416
 20
6.9187374742061847
 30
0.0000000349246037
  9
$LIMMIN
 10
0.0
 20
0.0
  9
$LIMMAX
 10
11.6929133858000007
 20
8.2677165353999982
  9
$ORTHOMODE
 70
     0
  9
$REGENMODE
 70
     1
  9
$FILLMODE
 70
     1
  9
$QTEXTMODE
 70
     0
  9
$MIRRTEXT
 70
     0
  9
$DRAGMODE
 70
     2
  9
$LTSCALE
 40
0.6431102362
  9
$OSMODE
 70
  4095
  9
$ATTMODE
 70
     1
  9
$TEXTSIZE
 40
0.2
  9
$TRACEWID
 40
0.05
  9
$TEXTSTYLE
  7
STANDARD
  9
$CLAYER
  8
0
  9
$CELTYPE
  6
BYLAYER
  9
$CECOLOR
 62
   256
  9
$DIMSCALE
 40
1.0
  9
$DIMASZ
 40
0.1875
  9
$DIMEXO
 40
0.0625
  9
$DIMDLI
 40
0.4443307087
  9
$DIMRND
 40
0.0
  9
$DIMDLE
 40
0.0
  9
$DIMEXE
 40
0.125
  9
$DIMTP
 40
0.01
  9
$DIMTM
 40
0.01
  9
$DIMTXT
 40
1.0
  9
$DIMCEN
 40
0.1052362205
  9
$DIMTSZ
 40
0.0
  9
$DIMTOL
 70
     1
  9
$DIMLIM
 70
     0
  9
$DIMTIH
 70
     1
  9
$DIMTOH
 70
     1
  9
$DIMSE1
 70
     0
  9
$DIMSE2
 70
     0
  9
$DIMTAD
 70
     0
  9
$DIMZIN
 70
     0
  9
$DIMBLK
  1

  9
$DIMASO
 70
     1
  9
$DIMSHO
 70
     1
  9
$DIMPOST
  1
\X
  9
$DIMAPOST
  1

  9
$DIMALT
 70
     1
  9
$DIMALTD
 70
     2
  9
$DIMALTF
 40
25.3999999999999986
  9
$DIMLFAC
 40
1.0
  9
$DIMTOFL
 70
     0
  9
$DIMTVP
 40
0.0
  9
$DIMTIX
 70
     0
  9
$DIMSOXD
 70
     0
  9
$DIMSAH
 70
     0
  9
$DIMBLK1
  1

  9
$DIMBLK2
  1

  9
$DIMSTYLE
  2
STANDARD
  9
$DIMCLRD
 70
     0
  9
$DIMCLRE
 70
     0
  9
$DIMCLRT
 70
     0
  9
$DIMTFAC
 40
1.0
  9
$DIMGAP
 40
0.09
  9
$LUNITS
 70
     2
  9
$LUPREC
 70
     4
  9
$SKETCHINC
 40
0.1
  9
$FILLETRAD
 40
0.0
  9
$AUNITS
 70
     0
  9
$AUPREC
 70
     0
  9
$MENU
  1
.
  9
$ELEVATION
 40
0.0
  9
$PELEVATION
 40
0.0
  9
$THICKNESS
 40
0.0
  9
$LIMCHECK
 70
     0
  9
$BLIPMODE
 70
     0
  9
$CHAMFERA
 40
0.0
  9
$CHAMFERB
 40
0.0
  9
$SKPOLY
 70
     0
  9
$TDCREATE
 40
2458171.5897337971255183
  9
$TDUPDATE
 40
2459853.7768402779474854
  9
$TDINDWG
 40
0.0243528935
  9
$TDUSRTIMER
 40
0.0243528935
  9
$USRTIMER
 70
     1
  9
$ANGBASE
 50
0.0
  9
$ANGDIR
 70
     0
  9
$PDMODE
 70
     0
  9
$PDSIZE
 40
0.3125
  9
$PLINEWID
 40
0.0
  9
$COORDS
 70
     1
  9
$SPLFRAME
 70
     0
  9
$SPLINETYPE
 70
     6
  9
$SPLINESEGS
 70
     8
  9
$ATTDIA
 70
     1
  9
$ATTREQ
 70
     1
  9
$HANDLING
 70
     1
  9
$HANDSEED
  5
830
  9
$SURFTAB1
 70
     6
  9
$SURFTAB2
 70
     6
  9
$SURFTYPE
 70
     6
  9
$SURFU
 70
     6
  9
$SURFV
 70
     6
  9
$UCSNAME
  2

  9
$UCSORG
 10
0.0
 20
0.0
 30
0.0
  9
$UCSXDIR
 10
1.0
 20
0.0
 30
0.0
  9
$UCSYDIR
 10
0.0
 20
1.0
 30
0.0
  9
$PUCSNAME
  2

  9
$PUCSORG
 10
0.0
 20
0.0
 30
0.0
  9
$PUCSXDIR
 10
1.0
 20
0.0
 30
0.0
  9
$PUCSYDIR
 10
0.0
 20
1.0
 30
0.0
  9
$USERI1
 70
     0
  9
$USERI2
 70
     0
  9
$USERI3
 70
     0
  9
$USERI4
 70
     0
  9
$USERI5
 70
     0
  9
$USERR1
 40
0.0
  9
$USERR2
 40
0.0
  9
$USERR3
 40
0.0
  9
$USERR4
 40
0.0
  9
$USERR5
 40
0.0
  9
$WORLDVIEW
 70
     1
  9
$SHADEDGE
 70
     3
  9
$SHADEDIF
 70
    70
  9
$TILEMODE
 70
     1
  9
$MAXACTVP
 70
    64
  9
$PLIMCHECK
 70
     0
  9
$PEXTMIN
 10
1.0000000000000000E+20
 20
1.0000000000000000E+20
 30
1.0000000000000000E+20
  9
$PEXTMAX
 10
-1.0000000000000000E+20
 20
-1.0000000000000000E+20
 30
-1.0000000000000000E+20
  9
$PLIMMIN
 10
0.0
 20
0.0
  9
$PLIMMAX
 10
12.0
 20
9.0
  9
$UNITMODE
 70
     0
  9
$VISRETAIN
 70
     1
  9
$PLINEGEN
 70
     0
  9
$PSLTSCALE
 70
     1
  0
ENDSEC
  0
SECTION
  2
TABLES
  0
TABLE
  2
VPORT
 70
     1
  0
VPORT
  2
*ACTIVE
 70
     0
 10
0.0
 20
0.0
 11
1.0
 21
1.0
 12
0.0000004628967503
 22
0.0000085599388679
 13
0.0
 23
0.0
 14
1.0
 24
1.0
 15
0.0
 25
0.0
 16
0.0
 26
0.0
 36
5.2862885360230507
 17
26.2903936002635312
 27
6.1706277363405402
 37
0.0
 40
1.507876236393374
 41
2.1471354166666661
 42
50.0
 43
0.0
 44
0.0
 50
0.0
 51
0.0
 71
     0
 72
   100
 73
     1
 74
     1
 75
     0
 76
     0
 77
     0
 78
     0
  0
ENDTAB
  0
TABLE
  2
LTYPE
 70
     3
  0
LTYPE
  2
CONTINUOUS
 70
     0
  3
Solid line
 72
    65
 73
     0
 40
0.0
  0
LTYPE
  2
PHANTOM2
 70
     0
  3
___ _ _ ___ _ _ ___ _ _ ___ _ _
 72
    65
 73
     6
 40
1.25
 49
0.625
 49
-0.125
 49
0.125
 49
-0.125
 49
0.125
 49
-0.125
  0
ENDTAB
  0
TABLE
  2
LAYER
 70
     2
  0
LAYER
  2
0
 70
     0
 62
   255
  6
CONTINUOUS
  0
LAYER
  2
DEFPOINTS
 70
     0
 62
     7
  6
CONTINUOUS
  0
ENDTAB
  0
TABLE
  2
STYLE
 70
     1
  0
STYLE
  2
STANDARD
 70
     0
 40
0.0
 41
0.8
 50
0.0
 71
     0
 42
0.2
  3
txt
  4

  0
ENDTAB
  0
TABLE
  2
VIEW
 70
     0
  0
ENDTAB
  0
TABLE
  2
UCS
 70
     0
  0
ENDTAB
  0
TABLE
  2
APPID
 70
     9
  0
APPID
  2
ACAD
 70
     0
  0
APPID
  2
ACAD_MLEADERVER
 70
     0
  0
APPID
  2
ACAD_EXEMPT_FROM_CAD_STANDARDS
 70
     0
  0
APPID
  2
ACAD_DSTYLE_DIMJAG
 70
     0
  0
APPID
  2
ACAD_DSTYLE_DIMTALN
 70
     0
  0
APPID
  2
ACAD_NAV_VCDISPLAY
 70
     0
  0
APPID
  2
ACAECLAYERSTANDARD
 70
     0
  0
APPID
  2
ACCMTRANSPARENCY
 70
     0
  0
APPID
  2
ACDBATTR
 70
     0
  0
ENDTAB
  0
TABLE
  2
DIMSTYLE
 70
     2
  0
DIMSTYLE
  2
STANDARD
 70
     0
  3

  4

  5

  6

  7

 40
1.0
 41
0.1875
 42
0.0625
 43
0.38
 44
0.125
 45
0.0
 46
0.0
 47
0.01
 48
0.01
140
0.15625
141
0.09
142
0.0
143
25.3999999999999986
144
1.0
145
0.0
146
1.0
147
0.09
 71
     1
 72
     0
 73
     1
 74
     1
 75
     0
 76
     0
 77
     0
 78
     4
170
     0
171
     2
172
     0
173
     0
174
     0
175
     0
176
     0
177
     0
178
     0
  0
ENDTAB
  0
ENDSEC
  0
SECTION
  2
BLOCKS
  0
BLOCK
  8
0
  2
$MODEL_SPACE
 70
     0
 10
0.0
 20
0.0
 30
0.0
  3
$MODEL_SPACE
  1

  0
ENDBLK
  5
21
  8
0
  0
BLOCK
 67
     1
  8
0
  2
$PAPER_SPACE
 70
     0
 10
0.0
 20
0.0
 30
0.0
  3
$PAPER_SPACE
  1

  0
ENDBLK
  5
1D
 67
     1
  8
0
  0
ENDSEC
  0
SECTION
  2
ENTITIES
  0
LINE
  5
46F
  8
0
 10
25.8368053332942686
 20
6.9186592324405378
 30
0.0
 11
25.7516083922942691
 21
6.918659232440536
 31
0.0
  0
LINE
  5
470
  8
0
 10
26.8406927423942712
 20
6.4836198622405377
 30
0.0
 11
26.8406927423942712
 21
5.85763561034054
 31
0.0
  0
LINE
  5
471
  8
0
 10
26.83085022269427
 20
6.493462381940537
 30
0.0
 11
26.0369479502942696
 21
6.493462381940537
 31
0.0
  0
LINE
  5
472
  8
0
 10
25.9218803591942688
 20
5.7563188708405377
 30
0.0
 11
25.8463942992942712
 21
5.430219091840538
 31
0.0
  0
LINE
  5
473
  8
0
 10
25.9218803591942688
 20
6.5849366017405391
 30
0.0
 11
25.8463942992942712
 21
6.9110363807405388
 31
0.0
  0
LINE
  5
474
  8
0
 10
26.83085022269427
 20
5.847793090640538
 30
0.0
 11
26.0369479502942696
 21
5.847793090640538
 31
0.0
  0
LINE
  5
475
  8
0
 10
25.9218803591942688
 20
6.5849366017405391
 30
0.0
 11
25.9218803591942688
 21
5.7563188708405377
 31
0.0
  0
LINE
  5
476
  8
0
 10
25.8368053332942686
 20
6.9186592324405378
 30
0.0
 11
25.8368053332942686
 21
5.4225962402405381
 31
0.0
  0
LINE
  5
477
  8
0
 10
25.7516083922942691
 20
5.4225962402405381
 30
0.0
 11
25.7516083922942691
 21
6.918659232440536
 31
0.0
  0
LINE
  5
478
  8
0
 10
25.8368053332942686
 20
5.4225962402405381
 30
0.0
 11
25.7516083922942691
 21
5.4225962402405381
 31
0.0
  0
ARC
  5
479
  8
0
 10
39.9450234510942721
 20
6.1706277363405393
 30
0.0
 40
14.2224409449000007
 50
177.0227715558000057
 51
182.9772284441999091
  0
ARC
  5
47A
  8
0
 10
26.0369479502942696
 20
6.6115726182405394
 30
0.0
 40
0.1181102362
 50
193.0333563258998879
 51
270.0
  0
ARC
  5
47B
  8
0
 10
26.0369479502942696
 20
5.7296828544405392
 30
0.0
 40
0.1181102362
 50
90.0
 51
166.9666436740999984
  0
ARC
  5
47C
  8
0
 10
25.7516083922942691
 20
5.4324387599405393
 30
0.0
 40
0.0098425197
 50
182.977228443600012
 51
270.0
  0
ARC
  5
47D
  8
0
 10
25.751608392472221
 20
6.9088167125585649
 30
0.0
 40
0.0098425198819752
 50
90.0000010359336358
 51
177.0227711336634115
  0
ARC
  5
47E
  8
0
 10
25.8368053330881189
 20
6.9088167125103483
 30
0.0
 40
0.0098425199301913
 50
13.0333567932313397
 51
89.9999988000022597
  0
ARC
  5
47F
  8
0
 10
25.8368053332942686
 20
5.4324387599405393
 30
0.0
 40
0.0098425197
 50
270.0
 51
346.9666436745000055
  0
ARC
  5
480
  8
0
 10
26.83085022269427
 20
5.85763561034054
 30
0.0
 40
0.0098425197
 50
270.0
 51
0.0
  0
ARC
  5
481
  8
0
 10
26.83085022269427
 20
6.4836198622405377
 30
0.0
 40
0.0098425197
 50
0.0
 51
90.0
  0
ATTDEF
  5
5C7
  8
DEFPOINTS
 10
26.8475380276661291
 20
6.1721508272445407
 30
0.0
 40
0.001
  1
K-78385
  3

  2
MODELNUMBER
 70
     0
1001
ACDBATTR
1070
     0
1070
     1
  0
ATTDEF
  5
5C8
  8
DEFPOINTS
 10
26.8475380276661291
 20
6.1704841605778764
 30
0.0
 40
0.001
  1
COMPONENTS
  3

  2
TRADENAME
 70
     0
1001
ACDBATTR
1070
     0
1070
     1
  0
ATTDEF
  5
5C9
  8
DEFPOINTS
 10
26.8475380276661291
 20
6.1688174939112113
 30
0.0
 40
0.001
  1
CABINET KNOB
  3

  2
PRODUCT
 70
     0
1001
ACDBATTR
1070
     0
1070
     1
  0
ENDSEC
  0
EOF
