  0
SECTION
  2
HEADER
  9
$ACADVER
  1
AC1009
  9
$INSBASE
 10
337.5437254418354769
 20
35.1137147703150418
 30
0.0
  9
$EXTMIN
 10
331.3534939450776164
 20
33.931689119921721
 30
-0.0000000349181948
  9
$EXTMAX
 10
337.5862028967353012
 20
38.194786223694237
 30
0.0000000814935746
  9
$LIMMIN
 10
0.0
 20
0.0
  9
$LIMMAX
 10
11.6929133858000007
 20
8.2677165353999982
  9
$ORTHOMODE
 70
     1
  9
$REGENMODE
 70
     1
  9
$FILLMODE
 70
     1
  9
$QTEXTMODE
 70
     0
  9
$MIRRTEXT
 70
     0
  9
$DRAGMODE
 70
     2
  9
$LTSCALE
 40
0.6431102362
  9
$OSMODE
 70
  4095
  9
$ATTMODE
 70
     1
  9
$TEXTSIZE
 40
0.2
  9
$TRACEWID
 40
0.05
  9
$TEXTSTYLE
  7
STANDARD
  9
$CLAYER
  8
0
  9
$CELTYPE
  6
BYLAYER
  9
$CECOLOR
 62
   256
  9
$DIMSCALE
 40
1.0
  9
$DIMASZ
 40
0.1875
  9
$DIMEXO
 40
0.0625
  9
$DIMDLI
 40
0.4443307087
  9
$DIMRND
 40
0.0
  9
$DIMDLE
 40
0.0
  9
$DIMEXE
 40
0.125
  9
$DIMTP
 40
0.01
  9
$DIMTM
 40
0.01
  9
$DIMTXT
 40
1.0
  9
$DIMCEN
 40
0.1052362205
  9
$DIMTSZ
 40
0.0
  9
$DIMTOL
 70
     1
  9
$DIMLIM
 70
     0
  9
$DIMTIH
 70
     1
  9
$DIMTOH
 70
     1
  9
$DIMSE1
 70
     0
  9
$DIMSE2
 70
     0
  9
$DIMTAD
 70
     0
  9
$DIMZIN
 70
     0
  9
$DIMBLK
  1

  9
$DIMASO
 70
     1
  9
$DIMSHO
 70
     1
  9
$DIMPOST
  1
\X
  9
$DIMAPOST
  1

  9
$DIMALT
 70
     1
  9
$DIMALTD
 70
     2
  9
$DIMALTF
 40
25.3999999999999986
  9
$DIMLFAC
 40
1.0
  9
$DIMTOFL
 70
     0
  9
$DIMTVP
 40
0.0
  9
$DIMTIX
 70
     0
  9
$DIMSOXD
 70
     0
  9
$DIMSAH
 70
     0
  9
$DIMBLK1
  1

  9
$DIMBLK2
  1

  9
$DIMSTYLE
  2
STANDARD
  9
$DIMCLRD
 70
     0
  9
$DIMCLRE
 70
     0
  9
$DIMCLRT
 70
     0
  9
$DIMTFAC
 40
1.0
  9
$DIMGAP
 40
0.09
  9
$LUNITS
 70
     2
  9
$LUPREC
 70
     4
  9
$SKETCHINC
 40
0.1
  9
$FILLETRAD
 40
0.0
  9
$AUNITS
 70
     0
  9
$AUPREC
 70
     0
  9
$MENU
  1
.
  9
$ELEVATION
 40
0.0
  9
$PELEVATION
 40
0.0
  9
$THICKNESS
 40
0.0
  9
$LIMCHECK
 70
     0
  9
$BLIPMODE
 70
     0
  9
$CHAMFERA
 40
0.0
  9
$CHAMFERB
 40
0.0
  9
$SKPOLY
 70
     0
  9
$TDCREATE
 40
2458306.6094560190103948
  9
$TDUPDATE
 40
2459860.5524189821444452
  9
$TDINDWG
 40
0.05206125
  9
$TDUSRTIMER
 40
0.05206125
  9
$USRTIMER
 70
     1
  9
$ANGBASE
 50
0.0
  9
$ANGDIR
 70
     0
  9
$PDMODE
 70
     0
  9
$PDSIZE
 40
0.3125
  9
$PLINEWID
 40
0.0
  9
$COORDS
 70
     1
  9
$SPLFRAME
 70
     0
  9
$SPLINETYPE
 70
     6
  9
$SPLINESEGS
 70
     8
  9
$ATTDIA
 70
     1
  9
$ATTREQ
 70
     1
  9
$HANDLING
 70
     1
  9
$HANDSEED
  5
1868
  9
$SURFTAB1
 70
     6
  9
$SURFTAB2
 70
     6
  9
$SURFTYPE
 70
     6
  9
$SURFU
 70
     6
  9
$SURFV
 70
     6
  9
$UCSNAME
  2

  9
$UCSORG
 10
0.0
 20
0.0
 30
0.0
  9
$UCSXDIR
 10
1.0
 20
0.0
 30
0.0
  9
$UCSYDIR
 10
0.0
 20
1.0
 30
0.0
  9
$PUCSNAME
  2

  9
$PUCSORG
 10
0.0
 20
0.0
 30
0.0
  9
$PUCSXDIR
 10
1.0
 20
0.0
 30
0.0
  9
$PUCSYDIR
 10
0.0
 20
1.0
 30
0.0
  9
$USERI1
 70
     0
  9
$USERI2
 70
     0
  9
$USERI3
 70
     0
  9
$USERI4
 70
     0
  9
$USERI5
 70
     0
  9
$USERR1
 40
0.0
  9
$USERR2
 40
0.0
  9
$USERR3
 40
0.0
  9
$USERR4
 40
0.0
  9
$USERR5
 40
0.0
  9
$WORLDVIEW
 70
     1
  9
$SHADEDGE
 70
     3
  9
$SHADEDIF
 70
    70
  9
$TILEMODE
 70
     1
  9
$MAXACTVP
 70
    64
  9
$PLIMCHECK
 70
     0
  9
$PEXTMIN
 10
1.0000000000000000E+20
 20
1.0000000000000000E+20
 30
1.0000000000000000E+20
  9
$PEXTMAX
 10
-1.0000000000000000E+20
 20
-1.0000000000000000E+20
 30
-1.0000000000000000E+20
  9
$PLIMMIN
 10
0.0
 20
0.0
  9
$PLIMMAX
 10
12.0
 20
9.0
  9
$UNITMODE
 70
     0
  9
$VISRETAIN
 70
     1
  9
$PLINEGEN
 70
     0
  9
$PSLTSCALE
 70
     1
  0
ENDSEC
  0
SECTION
  2
TABLES
  0
TABLE
  2
VPORT
 70
     1
  0
VPORT
  2
*ACTIVE
 70
     0
 10
0.0
 20
0.0
 11
1.0
 21
1.0
 12
0.0067223123527354
 22
0.0007040038679449
 13
0.0
 23
0.0
 14
1.0
 24
1.0
 15
0.0
 25
0.0
 16
0.0
 26
0.0
 36
21.1829750619338206
 17
334.4631261085538085
 27
36.0625336679400306
 37
0.0
 40
4.2963592398227641
 41
2.1471354166666661
 42
50.0
 43
0.0
 44
0.0
 50
0.0
 51
0.0
 71
     0
 72
   100
 73
     1
 74
     1
 75
     0
 76
     0
 77
     0
 78
     0
  0
ENDTAB
  0
TABLE
  2
LTYPE
 70
     2
  0
LTYPE
  2
CONTINUOUS
 70
     0
  3
Solid line
 72
    65
 73
     0
 40
0.0
  0
LTYPE
  2
PHANTOM2
 70
     0
  3
___ _ _ ___ _ _ ___ _ _ ___ _ _
 72
    65
 73
     6
 40
1.25
 49
0.625
 49
-0.125
 49
0.125
 49
-0.125
 49
0.125
 49
-0.125
  0
ENDTAB
  0
TABLE
  2
LAYER
 70
     2
  0
LAYER
  2
0
 70
     0
 62
   255
  6
CONTINUOUS
  0
LAYER
  2
DEFPOINTS
 70
     0
 62
     7
  6
CONTINUOUS
  0
ENDTAB
  0
TABLE
  2
STYLE
 70
     1
  0
STYLE
  2
STANDARD
 70
     0
 40
0.0
 41
0.8
 50
0.0
 71
     0
 42
0.2
  3
txt
  4

  0
ENDTAB
  0
TABLE
  2
VIEW
 70
     0
  0
ENDTAB
  0
TABLE
  2
UCS
 70
     0
  0
ENDTAB
  0
TABLE
  2
APPID
 70
     9
  0
APPID
  2
ACAD
 70
     0
  0
APPID
  2
ACAD_MLEADERVER
 70
     0
  0
APPID
  2
ACAD_EXEMPT_FROM_CAD_STANDARDS
 70
     0
  0
APPID
  2
ACAD_DSTYLE_DIMJAG
 70
     0
  0
APPID
  2
ACAD_DSTYLE_DIMTALN
 70
     0
  0
APPID
  2
ACAD_NAV_VCDISPLAY
 70
     0
  0
APPID
  2
ACAECLAYERSTANDARD
 70
     0
  0
APPID
  2
ACCMTRANSPARENCY
 70
     0
  0
APPID
  2
ACDBATTR
 70
     0
  0
ENDTAB
  0
TABLE
  2
DIMSTYLE
 70
     1
  0
DIMSTYLE
  2
STANDARD
 70
     0
  3

  4

  5

  6

  7

 40
1.0
 41
0.1875
 42
0.0625
 43
0.38
 44
0.125
 45
0.0
 46
0.0
 47
0.01
 48
0.01
140
0.15625
141
0.09
142
0.0
143
25.3999999999999986
144
1.0
145
0.0
146
1.0
147
0.09
 71
     1
 72
     0
 73
     1
 74
     1
 75
     0
 76
     0
 77
     0
 78
     4
170
     0
171
     2
172
     0
173
     0
174
     0
175
     0
176
     0
177
     0
178
     0
  0
ENDTAB
  0
ENDSEC
  0
SECTION
  2
BLOCKS
  0
BLOCK
  8
0
  2
$MODEL_SPACE
 70
     0
 10
0.0
 20
0.0
 30
0.0
  3
$MODEL_SPACE
  1

  0
ENDBLK
  5
21
  8
0
  0
BLOCK
 67
     1
  8
0
  2
$PAPER_SPACE
 70
     0
 10
0.0
 20
0.0
 30
0.0
  3
$PAPER_SPACE
  1

  0
ENDBLK
  5
1D
 67
     1
  8
0
  0
ENDSEC
  0
SECTION
  2
ENTITIES
  0
ATTDEF
  5
659
  8
DEFPOINTS
 10
337.5549309747053144
 20
35.115381436981707
 30
0.0
 40
0.001
  1
K-78384
  3

  2
MODELNUMBER
 70
     0
1001
ACDBATTR
1070
     0
1070
     1
  0
ATTDEF
  5
65A
  8
DEFPOINTS
 10
337.5549309747053144
 20
35.1137147703150418
 30
0.0
 40
0.001
  1
COMPONENTS
  3

  2
TRADENAME
 70
     0
1001
ACDBATTR
1070
     0
1070
     1
  0
ATTDEF
  5
65B
  8
DEFPOINTS
 10
337.5549309747053144
 20
35.1120481036483767
 30
0.0
 40
0.001
  1
TOILET TISSUE HOLDER
  3

  2
PRODUCT
 70
     0
1001
ACDBATTR
1070
     0
1070
     1
  0
LINE
  5
1630
  8
0
 10
333.579159310035493
 20
38.1137147703150418
 30
0.0
 11
333.611220585565718
 21
35.6705960939565188
 31
0.0
  0
LINE
  5
1631
  8
0
 10
334.8783746614789152
 20
35.6452108333150406
 30
0.0
 11
337.1336413214198728
 21
35.6452108333150406
 31
0.0
  0
LINE
  5
1632
  8
0
 10
334.6421506387354725
 20
35.8814309783150378
 30
0.0
 11
334.6421506387354725
 21
38.1137147703150418
 31
0.0
  0
LINE
  5
1633
  8
0
 10
337.2805454470355926
 20
33.9627694762650307
 30
0.0
 11
337.1325263107356136
 21
34.5763131871150406
 31
0.0
  0
LINE
  5
1634
  8
0
 10
337.132541383535397
 20
35.6511163445162182
 30
0.0
 11
337.2805442436355179
 21
36.2646600954650324
 31
0.0
  0
CIRCLE
  5
1635
  8
0
 10
334.1106545757355093
 20
35.1137147703150418
 30
0.0
 40
0.7480314961
  0
CIRCLE
  5
1636
  8
0
 10
334.1106545757355093
 20
35.1137147703150418
 30
0.0
 40
0.5
  0
LINE
  5
1637
  8
0
 10
337.5437254418354769
 20
36.2948171325650506
 30
0.0
 11
337.3188095801355075
 21
36.2948171325650506
 31
0.0
  0
LINE
  5
1638
  8
0
 10
337.3188095801355075
 20
33.9326124080650402
 30
0.0
 11
337.5437254418354769
 21
33.9326124080650402
 31
0.0
  0
LINE
  5
1639
  8
0
 10
337.5437254418354769
 20
33.9326124080650402
 30
0.0
 11
337.5437254418354769
 21
36.2948171325650506
 31
0.0
  0
ARC
  5
163A
  8
0
 10
337.318859684913491
 20
36.2553981835382473
 30
0.0
 40
0.0394189808704524
 50
90.072827684046004
 51
166.4106929348415065
  0
ARC
  5
163B
  8
0
 10
337.3188635867787184
 20
33.9720347694052265
 30
0.0
 40
0.0394223983333617
 50
193.5931621920628913
 51
269.9215077260508906
  0
LINE
  5
163C
  8
0
 10
337.3188095801355075
 20
36.2948171325650506
 30
0.0
 11
337.3188095801355075
 21
33.9326124080650402
 31
0.0
  0
ARC
  5
163D
  8
0
 10
336.1057077709004943
 20
35.4568070602765673
 30
0.0
 40
1.045056632904916
 50
8.5900144379374481
 51
10.71546451342161
  0
ARC
  5
163E
  8
0
 10
339.1623837859567061
 20
35.1139950339382807
 30
0.0
 40
2.0839434807802331
 50
166.1486210184158949
 51
193.8595306650381076
  0
ARC
  5
163F
  8
0
 10
335.9324289256085763
 20
34.8014767282010808
 30
0.0
 40
1.2210374089367211
 50
349.3736443250754178
 51
351.2060317202789861
  0
LINE
  5
1640
  8
0
 10
334.637022369367628
 20
34.5822187073150431
 30
0.0
 11
337.1336192828376284
 21
34.5822187073150431
 31
0.0
  0
ARC
  5
1641
  8
0
 10
334.8778035124536814
 20
35.8808636976891577
 30
0.0
 40
0.2356535565166306
 50
179.8620737257913902
 51
270.1388668227281755
  0
LINE
  5
1642
  8
0
 10
331.3606545757355093
 20
38.1255257939150383
 30
0.0
 11
331.3606545757355093
 21
38.1806439041150369
 31
0.0
  0
LINE
  5
1643
  8
0
 10
331.3724655993356123
 20
38.1137147703150418
 30
0.0
 11
336.84884355213552
 21
38.1137147703150418
 31
0.0
  0
LINE
  5
1644
  8
0
 10
336.84884355213552
 20
38.1924549277150405
 30
0.0
 11
331.3724655993356123
 21
38.1924549278150423
 31
0.0
  0
LINE
  5
1645
  8
0
 10
336.8606545757355093
 20
38.1806439041150369
 30
0.0
 11
336.8606545757355093
 21
38.1255257939150383
 31
0.0
  0
ARC
  5
1646
  8
0
 10
336.84884355213552
 20
38.1806439041150369
 30
0.0
 40
0.0118110236
 50
0.0
 51
90.0
  0
ARC
  5
1647
  8
0
 10
336.84884355213552
 20
38.1255257939150383
 30
0.0
 40
0.0118110236
 50
270.0
 51
0.0
  0
ARC
  5
1648
  8
0
 10
331.3724655993356123
 20
38.1806439041150369
 30
0.0
 40
0.0118110236
 50
90.0
 51
180.0
  0
ARC
  5
1649
  8
0
 10
331.3724655993356123
 20
38.1255257939150383
 30
0.0
 40
0.0118110236
 50
180.0
 51
270.0
  0
ENDSEC
  0
EOF
