  0
SECTION
  2
HEADER
  9
$ACADVER
  1
AC1009
  9
$INSBASE
 10
46.7104585125313889
 20
14.1411551395000004
 30
0.0
  9
$EXTMIN
 10
38.7104585125313889
 20
11.1726512025000009
 30
0.0
  9
$EXTMAX
 10
54.7104585125314102
 20
14.1483383002953005
 30
0.0
  9
$LIMMIN
 10
0.0
 20
0.0
  9
$LIMMAX
 10
11.6929133858000007
 20
8.2677165353999982
  9
$ORTHOMODE
 70
     0
  9
$REGENMODE
 70
     1
  9
$FILLMODE
 70
     1
  9
$QTEXTMODE
 70
     0
  9
$MIRRTEXT
 70
     0
  9
$DRAGMODE
 70
     2
  9
$LTSCALE
 40
0.6431102362
  9
$OSMODE
 70
  4095
  9
$ATTMODE
 70
     1
  9
$TEXTSIZE
 40
0.2
  9
$TRACEWID
 40
0.05
  9
$TEXTSTYLE
  7
STANDARD
  9
$CLAYER
  8
0
  9
$CELTYPE
  6
BYLAYER
  9
$CECOLOR
 62
   256
  9
$DIMSCALE
 40
1.0
  9
$DIMASZ
 40
0.1875
  9
$DIMEXO
 40
0.0625
  9
$DIMDLI
 40
0.4443307087
  9
$DIMRND
 40
0.0
  9
$DIMDLE
 40
0.0
  9
$DIMEXE
 40
0.125
  9
$DIMTP
 40
0.01
  9
$DIMTM
 40
0.01
  9
$DIMTXT
 40
1.0
  9
$DIMCEN
 40
0.1052362205
  9
$DIMTSZ
 40
0.0
  9
$DIMTOL
 70
     1
  9
$DIMLIM
 70
     0
  9
$DIMTIH
 70
     1
  9
$DIMTOH
 70
     1
  9
$DIMSE1
 70
     0
  9
$DIMSE2
 70
     0
  9
$DIMTAD
 70
     0
  9
$DIMZIN
 70
     0
  9
$DIMBLK
  1

  9
$DIMASO
 70
     1
  9
$DIMSHO
 70
     1
  9
$DIMPOST
  1
\X
  9
$DIMAPOST
  1

  9
$DIMALT
 70
     1
  9
$DIMALTD
 70
     2
  9
$DIMALTF
 40
25.3999999999999986
  9
$DIMLFAC
 40
1.0
  9
$DIMTOFL
 70
     0
  9
$DIMTVP
 40
0.0
  9
$DIMTIX
 70
     0
  9
$DIMSOXD
 70
     0
  9
$DIMSAH
 70
     0
  9
$DIMBLK1
  1

  9
$DIMBLK2
  1

  9
$DIMSTYLE
  2
STANDARD
  9
$DIMCLRD
 70
     0
  9
$DIMCLRE
 70
     0
  9
$DIMCLRT
 70
     0
  9
$DIMTFAC
 40
1.0
  9
$DIMGAP
 40
0.09
  9
$LUNITS
 70
     2
  9
$LUPREC
 70
     4
  9
$SKETCHINC
 40
0.1
  9
$FILLETRAD
 40
0.0
  9
$AUNITS
 70
     0
  9
$AUPREC
 70
     0
  9
$MENU
  1
.
  9
$ELEVATION
 40
0.0
  9
$PELEVATION
 40
0.0
  9
$THICKNESS
 40
0.0
  9
$LIMCHECK
 70
     0
  9
$BLIPMODE
 70
     0
  9
$CHAMFERA
 40
0.0
  9
$CHAMFERB
 40
0.0
  9
$SKPOLY
 70
     0
  9
$TDCREATE
 40
2458171.4784143520519137
  9
$TDUPDATE
 40
2459860.5395717602223158
  9
$TDINDWG
 40
0.0241803009
  9
$TDUSRTIMER
 40
0.0241803009
  9
$USRTIMER
 70
     1
  9
$ANGBASE
 50
0.0
  9
$ANGDIR
 70
     0
  9
$PDMODE
 70
     0
  9
$PDSIZE
 40
0.3125
  9
$PLINEWID
 40
0.0
  9
$COORDS
 70
     1
  9
$SPLFRAME
 70
     0
  9
$SPLINETYPE
 70
     6
  9
$SPLINESEGS
 70
     8
  9
$ATTDIA
 70
     1
  9
$ATTREQ
 70
     1
  9
$HANDLING
 70
     1
  9
$HANDSEED
  5
891
  9
$SURFTAB1
 70
     6
  9
$SURFTAB2
 70
     6
  9
$SURFTYPE
 70
     6
  9
$SURFU
 70
     6
  9
$SURFV
 70
     6
  9
$UCSNAME
  2

  9
$UCSORG
 10
0.0
 20
0.0
 30
0.0
  9
$UCSXDIR
 10
1.0
 20
0.0
 30
0.0
  9
$UCSYDIR
 10
0.0
 20
1.0
 30
0.0
  9
$PUCSNAME
  2

  9
$PUCSORG
 10
0.0
 20
0.0
 30
0.0
  9
$PUCSXDIR
 10
1.0
 20
0.0
 30
0.0
  9
$PUCSYDIR
 10
0.0
 20
1.0
 30
0.0
  9
$USERI1
 70
     0
  9
$USERI2
 70
     0
  9
$USERI3
 70
     0
  9
$USERI4
 70
     0
  9
$USERI5
 70
     0
  9
$USERR1
 40
0.0
  9
$USERR2
 40
0.0
  9
$USERR3
 40
0.0
  9
$USERR4
 40
0.0
  9
$USERR5
 40
0.0
  9
$WORLDVIEW
 70
     1
  9
$SHADEDGE
 70
     3
  9
$SHADEDIF
 70
    70
  9
$TILEMODE
 70
     1
  9
$MAXACTVP
 70
    64
  9
$PLIMCHECK
 70
     0
  9
$PEXTMIN
 10
1.0000000000000000E+20
 20
1.0000000000000000E+20
 30
1.0000000000000000E+20
  9
$PEXTMAX
 10
-1.0000000000000000E+20
 20
-1.0000000000000000E+20
 30
-1.0000000000000000E+20
  9
$PLIMMIN
 10
0.0
 20
0.0
  9
$PLIMMAX
 10
12.0
 20
9.0
  9
$UNITMODE
 70
     0
  9
$VISRETAIN
 70
     1
  9
$PLINEGEN
 70
     0
  9
$PSLTSCALE
 70
     1
  0
ENDSEC
  0
SECTION
  2
TABLES
  0
TABLE
  2
VPORT
 70
     1
  0
VPORT
  2
*ACTIVE
 70
     0
 10
0.0
 20
0.0
 11
1.0
 21
1.0
 12
0.0013902873719474
 22
0.0001242660332181
 13
0.0
 23
0.0
 14
1.0
 24
1.0
 15
0.0
 25
0.0
 16
-0.0000000000000071
 26
0.0
 36
45.8036555472544791
 17
46.7104585125314031
 27
12.6604947513976498
 37
0.0
 40
7.4831560791731873
 41
2.1471354166666661
 42
50.0
 43
0.0
 44
0.0
 50
0.0
 51
0.0
 71
     0
 72
   100
 73
     1
 74
     1
 75
     0
 76
     0
 77
     0
 78
     0
  0
ENDTAB
  0
TABLE
  2
LTYPE
 70
     2
  0
LTYPE
  2
CONTINUOUS
 70
     0
  3
Solid line
 72
    65
 73
     0
 40
0.0
  0
LTYPE
  2
PHANTOM2
 70
     0
  3
___ _ _ ___ _ _ ___ _ _ ___ _ _
 72
    65
 73
     6
 40
1.25
 49
0.625
 49
-0.125
 49
0.125
 49
-0.125
 49
0.125
 49
-0.125
  0
ENDTAB
  0
TABLE
  2
LAYER
 70
     2
  0
LAYER
  2
0
 70
     0
 62
   255
  6
CONTINUOUS
  0
LAYER
  2
DEFPOINTS
 70
     0
 62
     7
  6
CONTINUOUS
  0
ENDTAB
  0
TABLE
  2
STYLE
 70
     1
  0
STYLE
  2
STANDARD
 70
     0
 40
0.0
 41
0.8
 50
0.0
 71
     0
 42
0.2
  3
txt
  4

  0
ENDTAB
  0
TABLE
  2
VIEW
 70
     0
  0
ENDTAB
  0
TABLE
  2
UCS
 70
     0
  0
ENDTAB
  0
TABLE
  2
APPID
 70
    10
  0
APPID
  2
ACAD
 70
     0
  0
APPID
  2
ACAD_MLEADERVER
 70
     0
  0
APPID
  2
ACAD_EXEMPT_FROM_CAD_STANDARDS
 70
     0
  0
APPID
  2
ACAD_DSTYLE_DIMJAG
 70
     0
  0
APPID
  2
ACAD_DSTYLE_DIMTALN
 70
     0
  0
APPID
  2
ACAD_NAV_VCDISPLAY
 70
     0
  0
APPID
  2
ACAECLAYERSTANDARD
 70
     0
  0
APPID
  2
ACCMTRANSPARENCY
 70
     0
  0
APPID
  2
DCO15
 70
     0
  0
APPID
  2
ACDBATTR
 70
     0
  0
ENDTAB
  0
TABLE
  2
DIMSTYLE
 70
     1
  0
DIMSTYLE
  2
STANDARD
 70
     0
  3

  4

  5

  6

  7

 40
1.0
 41
0.1875
 42
0.0625
 43
0.38
 44
0.125
 45
0.0
 46
0.0
 47
0.01
 48
0.01
140
0.15625
141
0.09
142
0.0
143
25.3999999999999986
144
1.0
145
0.0
146
1.0
147
0.09
 71
     1
 72
     0
 73
     1
 74
     1
 75
     0
 76
     0
 77
     0
 78
     4
170
     0
171
     2
172
     0
173
     0
174
     0
175
     0
176
     0
177
     0
178
     0
  0
ENDTAB
  0
ENDSEC
  0
SECTION
  2
BLOCKS
  0
BLOCK
  8
0
  2
$MODEL_SPACE
 70
     0
 10
0.0
 20
0.0
 30
0.0
  3
$MODEL_SPACE
  1

  0
ENDBLK
  5
21
  8
0
  0
BLOCK
 67
     1
  8
0
  2
$PAPER_SPACE
 70
     0
 10
0.0
 20
0.0
 30
0.0
  3
$PAPER_SPACE
  1

  0
ENDBLK
  5
1D
 67
     1
  8
0
  0
ENDSEC
  0
SECTION
  2
ENTITIES
  0
LINE
  5
4E8
  8
0
 10
38.7104585125313889
 20
11.1844622261000008
 30
0.0
 11
38.7104585125313889
 21
12.1450921473999998
 31
0.0
  0
LINE
  5
4E9
  8
0
 10
54.6986474889313996
 20
11.1726512025000009
 30
0.0
 11
38.7222695362313871
 21
11.1726512025000009
 31
0.0
  0
LINE
  5
4EA
  8
0
 10
46.2852673566017927
 20
12.1569031709999997
 30
0.0
 11
38.7222695362313871
 21
12.1569031709999997
 31
0.0
  0
LINE
  5
4EB
  8
0
 10
47.1356496383998333
 20
12.1569031709999997
 30
0.0
 11
54.6986474889313996
 21
12.1569031709999997
 31
0.0
  0
LINE
  5
4EC
  8
0
 10
54.7104585125314031
 20
11.1844622261000008
 30
0.0
 11
54.7104585125314031
 21
12.1450921473999998
 31
0.0
  0
ARC
  5
4F1
  8
0
 10
38.7222695362313871
 20
11.1844622261000008
 30
0.0
 40
0.0118110236
 50
180.0
 51
270.0
  0
ARC
  5
4F2
  8
0
 10
38.7222695362313871
 20
12.1450921473999998
 30
0.0
 40
0.0118110236
 50
90.0
 51
180.0
  0
ARC
  5
4F3
  8
0
 10
54.6986474889313996
 20
12.1450921473999998
 30
0.0
 40
0.0118110236
 50
0.0
 51
90.0
  0
ARC
  5
4F4
  8
0
 10
54.6986474889313996
 20
11.1844622261000008
 30
0.0
 40
0.0118110236
 50
270.0
 51
0.0
  0
LINE
  5
4F6
  8
0
 10
45.5293847669314005
 20
14.1411551395000004
 30
0.0
 11
45.5293847669314005
 21
13.9162392778000008
 31
0.0
  0
LINE
  5
4F7
  8
0
 10
46.4033711383521208
 20
12.2749744445289792
 30
0.0
 11
46.4033718984314021
 21
13.6873129568230798
 31
0.0
  0
LINE
  5
4F8
  8
0
 10
47.0175451267313917
 20
12.2819056831480307
 30
0.0
 11
47.0175451267313917
 21
13.6875351797314
 31
0.0
  0
LINE
  5
4F9
  8
0
 10
47.891589491331402
 20
13.9162404878999997
 30
0.0
 11
47.891589491331402
 21
14.1411551395000004
 31
0.0
  0
LINE
  5
4FA
  8
0
 10
46.3976018104313894
 20
13.6760136071999998
 30
0.0
 11
45.559541327431397
 21
13.8779741391000009
 31
0.0
  0
LINE
  5
4FB
  8
0
 10
47.891589491331402
 20
13.9162404878999997
 30
0.0
 11
45.5293847669314005
 21
13.9162392778000008
 31
0.0
  0
LINE
  5
4FC
  8
0
 10
47.891589491331402
 20
14.1411551395000004
 30
0.0
 11
45.5293847669314005
 21
14.1411551395000004
 31
0.0
  0
LINE
  5
4FD
  8
0
 10
47.0235078537314024
 20
13.6758582700000009
 30
0.0
 11
47.8614324232314132
 21
13.8779751447000006
 31
0.0
  0
ARC
  5
4FE
  8
0
 10
47.1357962253603802
 20
12.2753365064592703
 30
0.0
 40
0.1184334261758329
 50
176.8203285986600974
 51
269.9290840720672122
  0
ARC
  5
4FF
  8
0
 10
47.8519851763903006
 20
13.9164366810817093
 30
0.0
 40
0.0396048008922944
 50
283.8002632989681047
 51
359.7161685703713943
  0
ARC
  5
500
  8
0
 10
45.5689968003450687
 20
13.9164416340953192
 30
0.0
 40
0.0396125502743264
 50
180.2926903727812089
 51
256.1902377898560985
  0
ARC
  5
501
  8
0
 10
46.6502509356788835
 20
13.5541195935595002
 30
0.0
 40
0.2805168997577657
 50
139.9298771221990023
 51
154.2443812221654866
  0
ARC
  5
502
  8
0
 10
46.4459431587463101
 20
13.7086518309323608
 30
0.0
 40
0.0280282825050881
 50
82.7965485844486722
 51
111.6921403507013935
  0
ARC
  5
503
  8
0
 10
46.7104738559080985
 20
18.9715705702269197
 30
0.0
 40
5.241614610899032
 50
267.1456674334025934
 51
272.8552487136465174
  0
ARC
  5
504
  8
0
 10
46.9750758033864102
 20
13.7085098163527803
 30
0.0
 40
0.0281717720767725
 50
68.3965732726189088
 51
97.1410326762857466
  0
ARC
  5
505
  8
0
 10
46.7710578656546403
 20
13.5543074294414101
 30
0.0
 40
0.2801885138981578
 50
25.7101097080325687
 51
40.0783961655463798
  0
ARC
  5
506
  8
0
 10
46.2850444333557931
 20
12.2752299418483393
 30
0.0
 40
0.1183269808377172
 50
270.1079429950531221
 51
359.8762840955789102
  0
ATTDEF
  5
660
  8
DEFPOINTS
 10
46.7085353171882218
 20
14.1473383002952993
 30
0.0
 40
0.001
  1
K-78379
  3

  2
MODELNUMBER
 70
     0
1001
ACDBATTR
1070
     0
1070
     1
  0
ATTDEF
  5
661
  8
DEFPOINTS
 10
46.7085353171882218
 20
14.1456716336286394
 30
0.0
 40
0.001
  1
COMPONENTS
  3

  2
TRADENAME
 70
     0
1001
ACDBATTR
1070
     0
1070
     1
  0
ATTDEF
  5
662
  8
DEFPOINTS
 10
46.7085353171882218
 20
14.1440049669619707
 30
0.0
 40
0.001
  1
TOWEL BAR
  3

  2
PRODUCT
 70
     0
1001
ACDBATTR
1070
     0
1070
     1
  0
LINE
  5
77B
  8
0
 10
46.0096711289813882
 20
11.1726512025000009
 30
0.0
 11
46.0096711289813882
 21
12.1569031709999997
 31
0.0
  0
LINE
  5
77C
  8
0
 10
47.4112459320813926
 20
11.1726512025000009
 30
0.0
 11
47.4112459320813784
 21
12.1569031709999997
 31
0.0
  0
ENDSEC
  0
EOF
