  0
SECTION
  2
HEADER
  9
$ACADVER
  1
AC1009
  9
$INSBASE
 10
305.97138033996362
 20
-2.8803517128117599
 30
0.0
  9
$EXTMIN
 10
292.79566593709728
 20
-8.0469502766570571
 30
0.0
  9
$EXTMAX
 10
319.14709474283001
 20
-1.705957679567617
 30
0.0
  9
$LIMMIN
 10
0.0
 20
0.0
  9
$LIMMAX
 10
11.692913385800001
 20
8.2677165353999982
  9
$ORTHOMODE
 70
     1
  9
$REGENMODE
 70
     1
  9
$FILLMODE
 70
     1
  9
$QTEXTMODE
 70
     0
  9
$MIRRTEXT
 70
     0
  9
$DRAGMODE
 70
     2
  9
$LTSCALE
 40
0.6431102362
  9
$OSMODE
 70
  3071
  9
$ATTMODE
 70
     1
  9
$TEXTSIZE
 40
0.2
  9
$TRACEWID
 40
0.05
  9
$TEXTSTYLE
  7
STANDARD
  9
$CLAYER
  8
0
  9
$CELTYPE
  6
BYLAYER
  9
$CECOLOR
 62
   256
  9
$DIMSCALE
 40
1.0
  9
$DIMASZ
 40
0.1875
  9
$DIMEXO
 40
0.0625
  9
$DIMDLI
 40
0.4443307087
  9
$DIMRND
 40
0.0
  9
$DIMDLE
 40
0.0
  9
$DIMEXE
 40
0.125
  9
$DIMTP
 40
0.01
  9
$DIMTM
 40
0.01
  9
$DIMTXT
 40
1.0
  9
$DIMCEN
 40
0.1052362205
  9
$DIMTSZ
 40
0.0
  9
$DIMTOL
 70
     1
  9
$DIMLIM
 70
     0
  9
$DIMTIH
 70
     1
  9
$DIMTOH
 70
     1
  9
$DIMSE1
 70
     0
  9
$DIMSE2
 70
     0
  9
$DIMTAD
 70
     0
  9
$DIMZIN
 70
     0
  9
$DIMBLK
  1

  9
$DIMASO
 70
     1
  9
$DIMSHO
 70
     1
  9
$DIMPOST
  1
\X
  9
$DIMAPOST
  1

  9
$DIMALT
 70
     1
  9
$DIMALTD
 70
     2
  9
$DIMALTF
 40
25.399999999999999
  9
$DIMLFAC
 40
1.0
  9
$DIMTOFL
 70
     0
  9
$DIMTVP
 40
0.0
  9
$DIMTIX
 70
     0
  9
$DIMSOXD
 70
     0
  9
$DIMSAH
 70
     0
  9
$DIMBLK1
  1

  9
$DIMBLK2
  1

  9
$DIMSTYLE
  2
STANDARD
  9
$DIMCLRD
 70
     0
  9
$DIMCLRE
 70
     0
  9
$DIMCLRT
 70
     0
  9
$DIMTFAC
 40
1.0
  9
$DIMGAP
 40
0.09
  9
$LUNITS
 70
     2
  9
$LUPREC
 70
     4
  9
$SKETCHINC
 40
0.1
  9
$FILLETRAD
 40
0.0
  9
$AUNITS
 70
     0
  9
$AUPREC
 70
     0
  9
$MENU
  1
.
  9
$ELEVATION
 40
0.0
  9
$PELEVATION
 40
0.0
  9
$THICKNESS
 40
0.0
  9
$LIMCHECK
 70
     0
  9
$BLIPMODE
 70
     0
  9
$CHAMFERA
 40
0.0
  9
$CHAMFERB
 40
0.0
  9
$SKPOLY
 70
     0
  9
$TDCREATE
 40
2458306.609456806
  9
$TDUPDATE
 40
2458325.518462176
  9
$TDINDWG
 40
0.0424827894
  9
$TDUSRTIMER
 40
0.0424827894
  9
$USRTIMER
 70
     1
  9
$ANGBASE
 50
0.0
  9
$ANGDIR
 70
     0
  9
$PDMODE
 70
     0
  9
$PDSIZE
 40
0.3125
  9
$PLINEWID
 40
0.0
  9
$COORDS
 70
     1
  9
$SPLFRAME
 70
     0
  9
$SPLINETYPE
 70
     6
  9
$SPLINESEGS
 70
     8
  9
$ATTDIA
 70
     1
  9
$ATTREQ
 70
     1
  9
$HANDLING
 70
     1
  9
$HANDSEED
  5
13D0
  9
$SURFTAB1
 70
     6
  9
$SURFTAB2
 70
     6
  9
$SURFTYPE
 70
     6
  9
$SURFU
 70
     6
  9
$SURFV
 70
     6
  9
$UCSNAME
  2

  9
$UCSORG
 10
0.0
 20
0.0
 30
0.0
  9
$UCSXDIR
 10
1.0
 20
0.0
 30
0.0
  9
$UCSYDIR
 10
0.0
 20
1.0
 30
0.0
  9
$PUCSNAME
  2

  9
$PUCSORG
 10
0.0
 20
0.0
 30
0.0
  9
$PUCSXDIR
 10
1.0
 20
0.0
 30
0.0
  9
$PUCSYDIR
 10
0.0
 20
1.0
 30
0.0
  9
$USERI1
 70
     0
  9
$USERI2
 70
     0
  9
$USERI3
 70
     0
  9
$USERI4
 70
     0
  9
$USERI5
 70
     0
  9
$USERR1
 40
0.0
  9
$USERR2
 40
0.0
  9
$USERR3
 40
0.0
  9
$USERR4
 40
0.0
  9
$USERR5
 40
0.0
  9
$WORLDVIEW
 70
     1
  9
$SHADEDGE
 70
     3
  9
$SHADEDIF
 70
    70
  9
$TILEMODE
 70
     1
  9
$MAXACTVP
 70
    64
  9
$PLIMCHECK
 70
     0
  9
$PEXTMIN
 10
1.0000000000000000E+020
 20
1.0000000000000000E+020
 30
1.0000000000000000E+020
  9
$PEXTMAX
 10
-1.0000000000000000E+020
 20
-1.0000000000000000E+020
 30
-1.0000000000000000E+020
  9
$PLIMMIN
 10
0.0
 20
0.0
  9
$PLIMMAX
 10
12.0
 20
9.0
  9
$UNITMODE
 70
     0
  9
$VISRETAIN
 70
     1
  9
$PLINEGEN
 70
     0
  9
$PSLTSCALE
 70
     1
  0
ENDSEC
  0
SECTION
  2
TABLES
  0
TABLE
  2
VPORT
 70
     1
  0
VPORT
  2
*ACTIVE
 70
     0
 10
0.0
 20
0.0
 11
1.0
 21
1.0
 12
0.0
 22
0.0
 13
0.0
 23
0.0
 14
1.0
 24
1.0
 15
0.0
 25
0.0
 16
0.0
 26
0.0
 36
76.319077281624828
 17
305.97138033996367
 27
-4.8764196273646352
 37
0.0
 40
27.1181559399569
 41
2.1006711409395971
 42
50.0
 43
0.0
 44
0.0
 50
0.0
 51
0.0
 71
     0
 72
   100
 73
     1
 74
     1
 75
     0
 76
     0
 77
     0
 78
     0
  0
ENDTAB
  0
TABLE
  2
LTYPE
 70
     2
  0
LTYPE
  2
CONTINUOUS
 70
     0
  3
Solid line
 72
    65
 73
     0
 40
0.0
  0
LTYPE
  2
PHANTOM2
 70
     0
  3
___ _ _ ___ _ _ ___ _ _ ___ _ _
 72
    65
 73
     6
 40
1.25
 49
0.625
 49
-0.125
 49
0.125
 49
-0.125
 49
0.125
 49
-0.125
  0
ENDTAB
  0
TABLE
  2
LAYER
 70
     2
  0
LAYER
  2
0
 70
     0
 62
   255
  6
CONTINUOUS
  0
LAYER
  2
DEFPOINTS
 70
     0
 62
     7
  6
CONTINUOUS
  0
ENDTAB
  0
TABLE
  2
STYLE
 70
     1
  0
STYLE
  2
STANDARD
 70
     0
 40
0.0
 41
0.8
 50
0.0
 71
     0
 42
0.2
  3
txt
  4

  0
ENDTAB
  0
TABLE
  2
VIEW
 70
     0
  0
ENDTAB
  0
TABLE
  2
UCS
 70
     0
  0
ENDTAB
  0
TABLE
  2
APPID
 70
     9
  0
APPID
  2
ACAD
 70
     0
  0
APPID
  2
ACAD_MLEADERVER
 70
     0
  0
APPID
  2
ACAD_EXEMPT_FROM_CAD_STANDARDS
 70
     0
  0
APPID
  2
ACAD_DSTYLE_DIMJAG
 70
     0
  0
APPID
  2
ACAD_DSTYLE_DIMTALN
 70
     0
  0
APPID
  2
ACAD_NAV_VCDISPLAY
 70
     0
  0
APPID
  2
ACAECLAYERSTANDARD
 70
     0
  0
APPID
  2
ACCMTRANSPARENCY
 70
     0
  0
APPID
  2
ACDBATTR
 70
     0
  0
ENDTAB
  0
TABLE
  2
DIMSTYLE
 70
     1
  0
DIMSTYLE
  2
STANDARD
 70
     0
  3

  4

  5

  6

  7

 40
1.0
 41
0.1875
 42
0.0625
 43
0.38
 44
0.125
 45
0.0
 46
0.0
 47
0.01
 48
0.01
140
0.15625
141
0.09
142
0.0
143
25.399999999999999
144
1.0
145
0.0
146
1.0
147
0.09
 71
     1
 72
     0
 73
     1
 74
     1
 75
     0
 76
     0
 77
     0
 78
     4
170
     0
171
     2
172
     0
173
     0
174
     0
175
     0
176
     0
177
     0
178
     0
  0
ENDTAB
  0
ENDSEC
  0
SECTION
  2
BLOCKS
  0
BLOCK
  8
0
  2
$MODEL_SPACE
 70
     0
 10
0.0
 20
0.0
 30
0.0
  3
$MODEL_SPACE
  1

  0
ENDBLK
  5
21
  8
0
  0
BLOCK
 67
     1
  8
0
  2
$PAPER_SPACE
 70
     0
 10
0.0
 20
0.0
 30
0.0
  3
$PAPER_SPACE
  1

  0
ENDBLK
  5
1D
 67
     1
  8
0
  0
ENDSEC
  0
SECTION
  2
ENTITIES
  0
ATTDEF
  5
659
  8
DEFPOINTS
 10
305.96611182316411
 20
-2.8820106637800378
 30
0.0
 40
0.001
  1
K-78376
  3

  2
MODELNUMBER
 70
     0
1001
ACDBATTR
1070
     0
1070
     1
  0
ATTDEF
  5
65A
  8
DEFPOINTS
 10
305.96611182316411
 20
-2.8836773304467029
 30
0.0
 40
0.001
  1
COMPONENTS
  3

  2
TRADENAME
 70
     0
1001
ACDBATTR
1070
     0
1070
     1
  0
ATTDEF
  5
65B
  8
DEFPOINTS
 10
305.96611182316411
 20
-2.8853439971133681
 30
0.0
 40
0.001
  1
HOTELIER
  3

  2
PRODUCT
 70
     0
1001
ACDBATTR
1070
     0
1070
     1
  0
ATTDEF
  5
65C
  8
DEFPOINTS
 10
305.96611182316411
 20
-2.8870106637800328
 30
0.0
 40
0.001
  1
METAL
  3

  2
MATERIAL
 70
     0
1001
ACDBATTR
1070
     0
1070
     1
  0
LINE
  5
1249
  8
0
 10
293.7058212102973
 20
-3.3779663815235002
 30
0.0
 11
293.70150718965391
 21
-6.4021792198562544
 31
0.0
  0
ARC
  5
124A
  8
0
 10
294.2270395008768
 20
-3.3611517820496619
 30
0.0
 40
0.0197205510145554
 50
286.51816549883978
 51
324.94794578526762
  0
LINE
  5
124B
  8
0
 10
294.2431833474277
 20
-3.3724776970617651
 30
0.0
 11
317.6995773324997
 21
-3.3724776970617629
 31
0.0
  0
LINE
  5
124C
  8
0
 10
293.73773511943
 20
-2.3882257285617641
 30
0.0
 11
318.20502556049729
 21
-2.3882257285617641
 31
0.0
  0
ARC
  5
124D
  8
0
 10
293.9715884182238
 20
-3.2657847836617639
 30
0.0
 40
0.9228346456999998
 50
73.567408327402063
 51
106.43259167260111
  0
ARC
  5
124E
  8
0
 10
293.75852438034713
 20
-3.334765525309523
 30
0.0
 40
0.0589501423936912
 50
184.06046567689771
 51
234.6557022277737
  0
ARC
  5
124F
  8
0
 10
293.71609904560728
 20
-3.3611774899290801
 30
0.0
 40
0.0196850394875888
 50
188.9942929137666
 51
253.5674083105736
  0
ARC
  5
1250
  8
0
 10
296.7610406650237
 20
-2.8803786886617639
 30
0.0
 40
3.095472325599999
 50
171.48006268509991
 51
188.51911060589981
  0
ARC
  5
1251
  8
0
 10
296.75387188272367
 20
-2.8803517127617648
 30
0.0
 40
3.0952755906
 50
171.00570714220029
 51
188.99429285779971
  0
ARC
  5
1252
  8
0
 10
293.73869348602852
 20
-2.4276140310056711
 30
0.0
 40
0.0393999598470569
 50
91.393802878977027
 51
171.47518394118541
  0
ARC
  5
1253
  8
0
 10
294.22707779082378
 20
-2.3995259355617651
 30
0.0
 40
0.0196850394
 50
35.033166245323351
 51
73.567408327402063
  0
ARC
  5
1254
  8
0
 10
293.71609904552378
 20
-2.3995259355617651
 30
0.0
 40
0.0196850394
 50
106.4325916724993
 51
171.00570714220029
  0
ARC
  5
1255
  8
0
 10
293.97155981957383
 20
-2.8803517128117639
 30
0.0
 40
1.181102362249999
 50
24.624318351051951
 51
256.95121080193292
  0
ARC
  5
1256
  8
0
 10
293.97155981957383
 20
-2.8803517128117639
 30
0.0
 40
1.181102362249999
 50
283.40417656768608
 51
335.37568164894788
  0
ARC
  5
1257
  8
0
 10
317.97120086035358
 20
-2.8803517128117639
 30
0.0
 40
1.181102362249999
 50
204.6243183510519
 51
256.59582343231068
  0
ARC
  5
1258
  8
0
 10
317.97120086035358
 20
-2.8803517128117639
 30
0.0
 40
1.181102362249999
 50
283.0487891980639
 51
155.3756816489479
  0
LINE
  5
1259
  8
0
 10
294.67215745732381
 20
-2.3882257285617641
 30
0.0
 11
294.67215745732381
 21
-3.3724776970617638
 31
0.0
  0
LINE
  5
125A
  8
0
 10
317.27060322260348
 20
-2.3882257285617641
 30
0.0
 11
317.27060322260348
 21
-3.3724776970617638
 31
0.0
  0
LINE
  5
125B
  8
0
 10
294.2431833474277
 20
-7.3646013423450567
 30
0.0
 11
317.6995773324997
 21
-7.3646013423450567
 31
0.0
  0
LINE
  5
125C
  8
0
 10
294.39058083015959
 20
-6.3803493738450561
 30
0.0
 11
317.5521798497677
 21
-6.3803493738450561
 31
0.0
  0
ARC
  5
125D
  8
0
 10
293.71609904552378
 20
-7.353301135245057
 30
0.0
 40
0.0196850394
 50
188.99429285779959
 51
253.5674083275006
  0
ARC
  5
125E
  8
0
 10
296.7610406650237
 20
-6.8725023339450573
 30
0.0
 40
3.095472325599999
 50
171.2606860960133
 51
188.5191106058997
  0
ARC
  5
125F
  8
0
 10
296.75387188272367
 20
-6.8724753580450582
 30
0.0
 40
3.0952755906
 50
171.00570714220029
 51
188.99429285779959
  0
ARC
  5
1260
  8
0
 10
293.71609904552378
 20
-6.3916495808450584
 30
0.0
 40
0.0196850394
 50
137.69250509445581
 51
171.00570714220029
  0
ARC
  5
1261
  8
0
 10
293.97155981957383
 20
-6.8724753580950573
 30
0.0
 40
1.181102362249999
 50
24.624318351051951
 51
75.56525568595643
  0
ARC
  5
1262
  8
0
 10
293.97155981957383
 20
-6.8724753580950573
 30
0.0
 40
1.181102362249999
 50
103.1689709798847
 51
335.37568164894788
  0
ARC
  5
1263
  8
0
 10
317.97120086035358
 20
-6.8724753580950573
 30
0.0
 40
1.181102362249999
 50
204.6243183510519
 51
76.831029020115366
  0
ARC
  5
1264
  8
0
 10
317.97120086035358
 20
-6.8724753580950573
 30
0.0
 40
1.181102362249999
 50
104.4347443140437
 51
155.3756816489479
  0
LINE
  5
1265
  8
0
 10
294.67215745732381
 20
-6.3803493738450561
 30
0.0
 11
294.67215745732381
 21
-7.3646013423450567
 31
0.0
  0
LINE
  5
1266
  8
0
 10
317.27060322260348
 20
-6.3803493738450561
 30
0.0
 11
317.27060322260348
 21
-7.3646013423450567
 31
0.0
  0
LINE
  5
1267
  8
0
 10
294.23745772201028
 20
-3.3778957600934469
 30
0.0
 11
294.27246854984799
 21
-6.2632620121126541
 31
0.0
  0
ARC
  5
1268
  8
0
 10
293.9715884182238
 20
-2.1171476587674531
 30
0.0
 40
1.2896103972955759
 50
258.32080602539168
 51
281.67919397460821
  0
ARC
  5
1269
  8
0
 10
294.39060812890801
 20
-6.2622050700391094
 30
0.0
 40
0.1181443069598091
 50
180.51258608423279
 51
269.98676108148771
  0
ARC
  5
126A
  8
0
 10
294.2270395008768
 20
-7.3532754273329539
 30
0.0
 40
0.0197205510145554
 50
286.51816549883978
 51
324.94794578526762
  0
ARC
  5
126B
  8
0
 10
293.9715884182238
 20
-6.1092713040507451
 30
0.0
 40
1.2896103972955759
 50
258.32080602539168
 51
281.67919397460821
  0
ARC
  5
126C
  8
0
 10
293.75852438034713
 20
-7.3268891705928318
 30
0.0
 40
0.0589501423936912
 50
184.06046567689771
 51
234.6557022277737
  0
LINE
  5
126D
  8
0
 10
318.23693946962999
 20
-3.3779663815235002
 30
0.0
 11
318.24125349027349
 21
-6.4021792198562544
 31
0.0
  0
ARC
  5
126E
  8
0
 10
317.71572117905049
 20
-3.3611517820496619
 30
0.0
 40
0.0197205510145554
 50
215.05205421473229
 51
253.48183450116019
  0
ARC
  5
126F
  8
0
 10
317.9711722617036
 20
-3.2657847836617639
 30
0.0
 40
0.9228346456999998
 50
73.567408327398908
 51
106.43259167259789
  0
ARC
  5
1270
  8
0
 10
318.18423629958022
 20
-3.334765525309523
 30
0.0
 40
0.0589501423936912
 50
305.3442977722263
 51
355.93953432310218
  0
ARC
  5
1271
  8
0
 10
318.22666163432001
 20
-3.3611774899290801
 30
0.0
 40
0.0196850394875888
 50
286.43259168942637
 51
351.00570708623331
  0
ARC
  5
1272
  8
0
 10
315.18172001490348
 20
-2.8803786886617639
 30
0.0
 40
3.095472325599999
 50
351.48088939410019
 51
8.5199373149000692
  0
ARC
  5
1273
  8
0
 10
315.1888887972035
 20
-2.8803517127617648
 30
0.0
 40
3.0952755906
 50
351.00570714220021
 51
8.9942928577997048
  0
ARC
  5
1274
  8
0
 10
318.20406719389882
 20
-2.4276140310056711
 30
0.0
 40
0.0393999598470569
 50
8.5248160588145705
 51
88.606197121022959
  0
ARC
  5
1275
  8
0
 10
317.7156828891035
 20
-2.3995259355617651
 30
0.0
 40
0.0196850394
 50
106.43259167259789
 51
144.96683375467481
  0
ARC
  5
1276
  8
0
 10
318.22666163440351
 20
-2.3995259355617651
 30
0.0
 40
0.0196850394
 50
8.9942928577997048
 51
73.567408327500615
  0
ARC
  5
1277
  8
0
 10
318.22666163440351
 20
-7.353301135245057
 30
0.0
 40
0.0196850394
 50
286.43259167249943
 51
351.00570714220032
  0
ARC
  5
1278
  8
0
 10
315.18172001490348
 20
-6.8725023339450573
 30
0.0
 40
3.095472325599999
 50
351.4808893941003
 51
8.7393139039866394
  0
ARC
  5
1279
  8
0
 10
315.1888887972035
 20
-6.8724753580450582
 30
0.0
 40
3.0952755906
 50
351.00570714220032
 51
8.9942928577997048
  0
ARC
  5
127A
  8
0
 10
318.22666163440351
 20
-6.3916495808450584
 30
0.0
 40
0.0196850394
 50
8.9942928577997048
 51
42.307494905544111
  0
LINE
  5
127B
  8
0
 10
317.70530295791701
 20
-3.3778957600934469
 30
0.0
 11
317.6702921300793
 21
-6.2632620121126541
 31
0.0
  0
ARC
  5
127C
  8
0
 10
317.9711722617036
 20
-2.1171476587674531
 30
0.0
 40
1.2896103972955759
 50
258.32080602539168
 51
281.67919397460832
  0
ARC
  5
127D
  8
0
 10
317.55215255101928
 20
-6.2622050700391094
 30
0.0
 40
0.1181443069598091
 50
270.01323891851229
 51
359.48741391576709
  0
ARC
  5
127E
  8
0
 10
317.71572117905049
 20
-7.3532754273329539
 30
0.0
 40
0.0197205510145554
 50
215.05205421473229
 51
253.48183450116019
  0
ARC
  5
127F
  8
0
 10
317.9711722617036
 20
-6.1092713040507451
 30
0.0
 40
1.2896103972955759
 50
258.32080602539168
 51
281.67919397460832
  0
ARC
  5
1280
  8
0
 10
318.18423629958022
 20
-7.3268891705928318
 30
0.0
 40
0.0589501423936912
 50
305.3442977722263
 51
355.93953432310218
  0
ENDSEC
  0
EOF
