  0
SECTION
  2
HEADER
  9
$ACADVER
  1
AC1009
  9
$INSBASE
 10
43.833826668023917
 20
3.5763129591795071
 30
0.0
  9
$EXTMIN
 10
33.662518316486548
 20
2.4027518999207218
 30
0.0
  9
$EXTMAX
 10
54.005132350207418
 20
4.7498628555201039
 30
0.0
  9
$LIMMIN
 10
0.0
 20
0.0
  9
$LIMMAX
 10
11.692913385800001
 20
8.2677165353999982
  9
$ORTHOMODE
 70
     0
  9
$REGENMODE
 70
     1
  9
$FILLMODE
 70
     1
  9
$QTEXTMODE
 70
     0
  9
$MIRRTEXT
 70
     0
  9
$DRAGMODE
 70
     2
  9
$LTSCALE
 40
0.6431102362
  9
$OSMODE
 70
  3071
  9
$ATTMODE
 70
     1
  9
$TEXTSIZE
 40
0.2
  9
$TRACEWID
 40
0.05
  9
$TEXTSTYLE
  7
STANDARD
  9
$CLAYER
  8
0
  9
$CELTYPE
  6
BYLAYER
  9
$CECOLOR
 62
   256
  9
$DIMSCALE
 40
1.0
  9
$DIMASZ
 40
0.1875
  9
$DIMEXO
 40
0.0625
  9
$DIMDLI
 40
0.4443307087
  9
$DIMRND
 40
0.0
  9
$DIMDLE
 40
0.0
  9
$DIMEXE
 40
0.125
  9
$DIMTP
 40
0.01
  9
$DIMTM
 40
0.01
  9
$DIMTXT
 40
1.0
  9
$DIMCEN
 40
0.1052362205
  9
$DIMTSZ
 40
0.0
  9
$DIMTOL
 70
     1
  9
$DIMLIM
 70
     0
  9
$DIMTIH
 70
     1
  9
$DIMTOH
 70
     1
  9
$DIMSE1
 70
     0
  9
$DIMSE2
 70
     0
  9
$DIMTAD
 70
     0
  9
$DIMZIN
 70
     0
  9
$DIMBLK
  1

  9
$DIMASO
 70
     1
  9
$DIMSHO
 70
     1
  9
$DIMPOST
  1
\X
  9
$DIMAPOST
  1

  9
$DIMALT
 70
     1
  9
$DIMALTD
 70
     2
  9
$DIMALTF
 40
25.399999999999999
  9
$DIMLFAC
 40
1.0
  9
$DIMTOFL
 70
     0
  9
$DIMTVP
 40
0.0
  9
$DIMTIX
 70
     0
  9
$DIMSOXD
 70
     0
  9
$DIMSAH
 70
     0
  9
$DIMBLK1
  1

  9
$DIMBLK2
  1

  9
$DIMSTYLE
  2
STANDARD
  9
$DIMCLRD
 70
     0
  9
$DIMCLRE
 70
     0
  9
$DIMCLRT
 70
     0
  9
$DIMTFAC
 40
1.0
  9
$DIMGAP
 40
0.09
  9
$LUNITS
 70
     2
  9
$LUPREC
 70
     4
  9
$SKETCHINC
 40
0.1
  9
$FILLETRAD
 40
0.0
  9
$AUNITS
 70
     0
  9
$AUPREC
 70
     0
  9
$MENU
  1
.
  9
$ELEVATION
 40
0.0
  9
$PELEVATION
 40
0.0
  9
$THICKNESS
 40
0.0
  9
$LIMCHECK
 70
     0
  9
$BLIPMODE
 70
     0
  9
$CHAMFERA
 40
0.0
  9
$CHAMFERB
 40
0.0
  9
$SKPOLY
 70
     0
  9
$TDCREATE
 40
2458171.397700035
  9
$TDUPDATE
 40
2458295.7464573379
  9
$TDINDWG
 40
0.0736344329
  9
$TDUSRTIMER
 40
0.0736344329
  9
$USRTIMER
 70
     1
  9
$ANGBASE
 50
0.0
  9
$ANGDIR
 70
     0
  9
$PDMODE
 70
     0
  9
$PDSIZE
 40
0.3125
  9
$PLINEWID
 40
0.0
  9
$COORDS
 70
     1
  9
$SPLFRAME
 70
     0
  9
$SPLINETYPE
 70
     6
  9
$SPLINESEGS
 70
     8
  9
$ATTDIA
 70
     1
  9
$ATTREQ
 70
     1
  9
$HANDLING
 70
     1
  9
$HANDSEED
  5
938
  9
$SURFTAB1
 70
     6
  9
$SURFTAB2
 70
     6
  9
$SURFTYPE
 70
     6
  9
$SURFU
 70
     6
  9
$SURFV
 70
     6
  9
$UCSNAME
  2

  9
$UCSORG
 10
0.0
 20
0.0
 30
0.0
  9
$UCSXDIR
 10
1.0
 20
0.0
 30
0.0
  9
$UCSYDIR
 10
0.0
 20
1.0
 30
0.0
  9
$PUCSNAME
  2

  9
$PUCSORG
 10
0.0
 20
0.0
 30
0.0
  9
$PUCSXDIR
 10
1.0
 20
0.0
 30
0.0
  9
$PUCSYDIR
 10
0.0
 20
1.0
 30
0.0
  9
$USERI1
 70
     0
  9
$USERI2
 70
     0
  9
$USERI3
 70
     0
  9
$USERI4
 70
     0
  9
$USERI5
 70
     0
  9
$USERR1
 40
0.0
  9
$USERR2
 40
0.0
  9
$USERR3
 40
0.0
  9
$USERR4
 40
0.0
  9
$USERR5
 40
0.0
  9
$WORLDVIEW
 70
     1
  9
$SHADEDGE
 70
     3
  9
$SHADEDIF
 70
    70
  9
$TILEMODE
 70
     1
  9
$MAXACTVP
 70
    64
  9
$PLIMCHECK
 70
     0
  9
$PEXTMIN
 10
1.0000000000000000E+020
 20
1.0000000000000000E+020
 30
1.0000000000000000E+020
  9
$PEXTMAX
 10
-1.0000000000000000E+020
 20
-1.0000000000000000E+020
 30
-1.0000000000000000E+020
  9
$PLIMMIN
 10
0.0
 20
0.0
  9
$PLIMMAX
 10
12.0
 20
9.0
  9
$UNITMODE
 70
     0
  9
$VISRETAIN
 70
     1
  9
$PLINEGEN
 70
     0
  9
$PSLTSCALE
 70
     1
  0
ENDSEC
  0
SECTION
  2
TABLES
  0
TABLE
  2
VPORT
 70
     1
  0
VPORT
  2
*ACTIVE
 70
     0
 10
0.0
 20
0.0
 11
1.0
 21
1.0
 12
0.0
 22
0.0
 13
0.0
 23
0.0
 14
1.0
 24
1.0
 15
0.0
 25
0.0
 16
-0.0000000000000142
 26
0.0
 36
57.692494189999508
 17
43.833778164788448
 27
3.576312605267407
 37
0.0
 40
20.500523977452861
 41
2.1006711409395971
 42
50.0
 43
0.0
 44
0.0
 50
0.0
 51
0.0
 71
     0
 72
   100
 73
     1
 74
     1
 75
     0
 76
     0
 77
     0
 78
     0
  0
ENDTAB
  0
TABLE
  2
LTYPE
 70
     2
  0
LTYPE
  2
CONTINUOUS
 70
     0
  3
Solid line
 72
    65
 73
     0
 40
0.0
  0
LTYPE
  2
PHANTOM2
 70
     0
  3
___ _ _ ___ _ _ ___ _ _ ___ _ _
 72
    65
 73
     6
 40
1.25
 49
0.625
 49
-0.125
 49
0.125
 49
-0.125
 49
0.125
 49
-0.125
  0
ENDTAB
  0
TABLE
  2
LAYER
 70
     2
  0
LAYER
  2
0
 70
     0
 62
   255
  6
CONTINUOUS
  0
LAYER
  2
DEFPOINTS
 70
     0
 62
     7
  6
CONTINUOUS
  0
ENDTAB
  0
TABLE
  2
STYLE
 70
     1
  0
STYLE
  2
STANDARD
 70
     0
 40
0.0
 41
0.8
 50
0.0
 71
     0
 42
0.2
  3
txt
  4

  0
ENDTAB
  0
TABLE
  2
VIEW
 70
     0
  0
ENDTAB
  0
TABLE
  2
UCS
 70
     0
  0
ENDTAB
  0
TABLE
  2
APPID
 70
    10
  0
APPID
  2
ACAD
 70
     0
  0
APPID
  2
ACAD_MLEADERVER
 70
     0
  0
APPID
  2
ACAD_EXEMPT_FROM_CAD_STANDARDS
 70
     0
  0
APPID
  2
ACAD_DSTYLE_DIMJAG
 70
     0
  0
APPID
  2
ACAD_DSTYLE_DIMTALN
 70
     0
  0
APPID
  2
ACAD_NAV_VCDISPLAY
 70
     0
  0
APPID
  2
ACAECLAYERSTANDARD
 70
     0
  0
APPID
  2
ACCMTRANSPARENCY
 70
     0
  0
APPID
  2
DCO15
 70
     0
  0
APPID
  2
ACDBATTR
 70
     0
  0
ENDTAB
  0
TABLE
  2
DIMSTYLE
 70
     1
  0
DIMSTYLE
  2
STANDARD
 70
     0
  3

  4

  5

  6

  7

 40
1.0
 41
0.1875
 42
0.0625
 43
0.38
 44
0.125
 45
0.0
 46
0.0
 47
0.01
 48
0.01
140
0.15625
141
0.09
142
0.0
143
25.399999999999999
144
1.0
145
0.0
146
1.0
147
0.09
 71
     1
 72
     0
 73
     1
 74
     1
 75
     0
 76
     0
 77
     0
 78
     4
170
     0
171
     2
172
     0
173
     0
174
     0
175
     0
176
     0
177
     0
178
     0
  0
ENDTAB
  0
ENDSEC
  0
SECTION
  2
BLOCKS
  0
BLOCK
  8
0
  2
$MODEL_SPACE
 70
     0
 10
0.0
 20
0.0
 30
0.0
  3
$MODEL_SPACE
  1

  0
ENDBLK
  5
21
  8
0
  0
BLOCK
 67
     1
  8
0
  2
$PAPER_SPACE
 70
     0
 10
0.0
 20
0.0
 30
0.0
  3
$PAPER_SPACE
  1

  0
ENDBLK
  5
1D
 67
     1
  8
0
  0
ENDSEC
  0
SECTION
  2
ENTITIES
  0
LINE
  5
58A
  8
0
 10
53.066753090536189
 20
3.084155852799999
 30
0.0
 11
34.600900245511667
 21
3.0841139456974598
 31
0.0
  0
LINE
  5
58B
  8
0
 10
53.06674597061167
 20
4.068407821300001
 30
0.0
 11
34.600907365436193
 21
4.068407821300001
 31
0.0
  0
ARC
  5
59D
  8
0
 10
34.833830228036192
 20
3.1908487661999998
 30
0.0
 40
0.9228346456999998
 50
73.567408327400102
 51
106.4325916725999
  0
ARC
  5
59E
  8
0
 10
34.600859107936188
 20
3.1234744006000001
 30
0.0
 40
0.0393604764
 50
199.28859983059999
 51
270.05988265640008
  0
ARC
  5
59F
  8
0
 10
35.089319600636188
 20
3.0954560598
 30
0.0
 40
0.0196850394
 50
286.43259167259993
 51
324.8218093755649
  0
ARC
  5
5A0
  8
0
 10
34.578340855336187
 20
3.0954560598
 30
0.0
 40
0.0196850394
 50
188.99429285779999
 51
253.56740832749989
  0
ARC
  5
5A1
  8
0
 10
37.616113692536189
 20
3.5762818369999989
 30
0.0
 40
3.0952755906
 50
171.0057071421999
 51
188.99429285779999
  0
ARC
  5
5A2
  8
0
 10
34.833830228036192
 20
3.9617149078999998
 30
0.0
 40
0.9228346456999998
 50
253.5674083274001
 51
286.43259167259993
  0
ARC
  5
5A3
  8
0
 10
34.600911691355392
 20
4.0290351073949564
 30
0.0
 40
0.0393727141426911
 50
90.006295144193146
 51
166.04584314391411
  0
ARC
  5
5A4
  8
0
 10
35.089319600636188
 20
4.0571076142000004
 30
0.0
 40
0.0196850394
 50
35.033166597476701
 51
73.567408327400102
  0
ARC
  5
5A5
  8
0
 10
34.578340855336187
 20
4.0571076142000004
 30
0.0
 40
0.0196850394
 50
106.4325916725001
 51
171.0057071421999
  0
ARC
  5
5C3
  8
0
 10
34.833102315881298
 20
3.5763129591795071
 30
0.0
 40
1.180403049257434
 50
24.638215598266129
 51
335.3563806751576
  0
ARC
  5
5C4
  8
0
 10
37.587396033245923
 20
3.5777830789440448
 30
0.0
 40
3.0595862503076341
 50
171.3388144925718
 51
188.78554410429811
  0
ARC
  5
5C5
  8
0
 10
52.833823108011671
 20
3.1908487661999998
 30
0.0
 40
0.9228346456999998
 50
73.567408327400102
 51
106.4325916725999
  0
ARC
  5
5C6
  8
0
 10
53.066889114696082
 20
3.1234029466594389
 30
0.0
 40
0.0392473295780693
 50
269.80142263411682
 51
340.76410045296382
  0
ARC
  5
5C7
  8
0
 10
52.578333735411668
 20
3.0954560598
 30
0.0
 40
0.0196850394
 50
215.0372364860871
 51
253.5674083274001
  0
ARC
  5
5C8
  8
0
 10
53.089312480711683
 20
3.0954560598
 30
0.0
 40
0.0196850394
 50
286.43259167250011
 51
351.00570714219992
  0
ARC
  5
5C9
  8
0
 10
50.051539643511667
 20
3.5762818369999989
 30
0.0
 40
3.0952755906
 50
351.00570714219992
 51
8.99429285780006
  0
ARC
  5
5CA
  8
0
 10
52.833823108011671
 20
3.9617149078999998
 30
0.0
 40
0.9228346456999998
 50
253.5674083274001
 51
286.43259167259993
  0
ARC
  5
5CB
  8
0
 10
53.066741644692478
 20
4.0290351073949564
 30
0.0
 40
0.0393727141426911
 50
13.9541568560859
 51
89.993704855806868
  0
ARC
  5
5CC
  8
0
 10
52.578333735411668
 20
4.0571076142000004
 30
0.0
 40
0.0196850394
 50
106.4325916725999
 51
144.96683339930601
  0
ARC
  5
5CD
  8
0
 10
53.089312480711683
 20
4.0571076142000004
 30
0.0
 40
0.0196850394
 50
8.99429285780006
 51
73.567408327499834
  0
ARC
  5
5CE
  8
0
 10
52.834551020166572
 20
3.5763129591795071
 30
0.0
 40
1.180403049257434
 50
204.64169771082561
 51
155.36178440173379
  0
ARC
  5
5CF
  8
0
 10
50.08025730280194
 20
3.5777830789440448
 30
0.0
 40
3.0595862503076341
 50
351.2144558957018
 51
8.6611855074281419
  0
ATTDEF
  5
710
  8
DEFPOINTS
 10
43.827855669614017
 20
3.5738183258951568
 30
0.0
 40
0.001
  1
K-78372
  3

  2
MODELNUMBER
 70
     0
1001
ACDBATTR
1070
     0
1070
     1
  0
ATTDEF
  5
711
  8
DEFPOINTS
 10
43.827855669614017
 20
3.5721516592284921
 30
0.0
 40
0.001
  1
COMPONENTS
  3

  2
TRADENAME
 70
     0
1001
ACDBATTR
1070
     0
1070
     1
  0
ATTDEF
  5
712
  8
DEFPOINTS
 10
43.827855669614017
 20
3.5704849925618261
 30
0.0
 40
0.001
  1
TOWEL BAR
  3

  2
PRODUCT
 70
     0
1001
ACDBATTR
1070
     0
1070
     1
  0
ATTDEF
  5
713
  8
DEFPOINTS
 10
43.827855669614017
 20
3.5688183258951609
 30
0.0
 40
0.001
  1
PREMIUM MATERIALS
  3

  2
MATERIAL
 70
     0
1001
ACDBATTR
1070
     0
1070
     1
  0
ENDSEC
  0
EOF
