  0
SECTION
  2
HEADER
  9
$ACADVER
  1
AC1009
  9
$INSBASE
 10
120.4781603722726
 20
9.0786138795822353
 30
0.0
  9
$EXTMIN
 10
119.1080819629514
 20
9.0786138795822353
 30
0.0
  9
$EXTMAX
 10
121.84823878169369
 20
10.810875285116341
 30
0.0
  9
$LIMMIN
 10
0.0
 20
0.0
  9
$LIMMAX
 10
11.692913385800001
 20
8.2677165353999982
  9
$ORTHOMODE
 70
     1
  9
$REGENMODE
 70
     1
  9
$FILLMODE
 70
     1
  9
$QTEXTMODE
 70
     0
  9
$MIRRTEXT
 70
     0
  9
$DRAGMODE
 70
     2
  9
$LTSCALE
 40
0.6431102362
  9
$OSMODE
 70
  3071
  9
$ATTMODE
 70
     1
  9
$TEXTSIZE
 40
0.2
  9
$TRACEWID
 40
0.05
  9
$TEXTSTYLE
  7
STANDARD
  9
$CLAYER
  8
0
  9
$CELTYPE
  6
BYLAYER
  9
$CECOLOR
 62
   256
  9
$DIMSCALE
 40
1.0
  9
$DIMASZ
 40
0.1875
  9
$DIMEXO
 40
0.0625
  9
$DIMDLI
 40
0.4443307087
  9
$DIMRND
 40
0.0
  9
$DIMDLE
 40
0.0
  9
$DIMEXE
 40
0.125
  9
$DIMTP
 40
0.01
  9
$DIMTM
 40
0.01
  9
$DIMTXT
 40
1.0
  9
$DIMCEN
 40
0.1052362205
  9
$DIMTSZ
 40
0.0
  9
$DIMTOL
 70
     1
  9
$DIMLIM
 70
     0
  9
$DIMTIH
 70
     1
  9
$DIMTOH
 70
     1
  9
$DIMSE1
 70
     0
  9
$DIMSE2
 70
     0
  9
$DIMTAD
 70
     0
  9
$DIMZIN
 70
     0
  9
$DIMBLK
  1

  9
$DIMASO
 70
     1
  9
$DIMSHO
 70
     1
  9
$DIMPOST
  1
\X
  9
$DIMAPOST
  1

  9
$DIMALT
 70
     1
  9
$DIMALTD
 70
     2
  9
$DIMALTF
 40
25.399999999999999
  9
$DIMLFAC
 40
1.0
  9
$DIMTOFL
 70
     0
  9
$DIMTVP
 40
0.0
  9
$DIMTIX
 70
     0
  9
$DIMSOXD
 70
     0
  9
$DIMSAH
 70
     0
  9
$DIMBLK1
  1

  9
$DIMBLK2
  1

  9
$DIMSTYLE
  2
STANDARD
  9
$DIMCLRD
 70
     0
  9
$DIMCLRE
 70
     0
  9
$DIMCLRT
 70
     0
  9
$DIMTFAC
 40
1.0
  9
$DIMGAP
 40
0.09
  9
$LUNITS
 70
     2
  9
$LUPREC
 70
     4
  9
$SKETCHINC
 40
0.1
  9
$FILLETRAD
 40
0.0
  9
$AUNITS
 70
     0
  9
$AUPREC
 70
     0
  9
$MENU
  1
.
  9
$ELEVATION
 40
0.0
  9
$PELEVATION
 40
0.0
  9
$THICKNESS
 40
0.0
  9
$LIMCHECK
 70
     0
  9
$BLIPMODE
 70
     0
  9
$CHAMFERA
 40
0.0
  9
$CHAMFERB
 40
0.0
  9
$SKPOLY
 70
     0
  9
$TDCREATE
 40
2458172.4620311921
  9
$TDUPDATE
 40
2458278.6371312151
  9
$TDINDWG
 40
0.0588664815
  9
$TDUSRTIMER
 40
0.0588664815
  9
$USRTIMER
 70
     1
  9
$ANGBASE
 50
0.0
  9
$ANGDIR
 70
     0
  9
$PDMODE
 70
     0
  9
$PDSIZE
 40
0.3125
  9
$PLINEWID
 40
0.0
  9
$COORDS
 70
     1
  9
$SPLFRAME
 70
     0
  9
$SPLINETYPE
 70
     6
  9
$SPLINESEGS
 70
     8
  9
$ATTDIA
 70
     1
  9
$ATTREQ
 70
     1
  9
$HANDLING
 70
     1
  9
$HANDSEED
  5
17D4
  9
$SURFTAB1
 70
     6
  9
$SURFTAB2
 70
     6
  9
$SURFTYPE
 70
     6
  9
$SURFU
 70
     6
  9
$SURFV
 70
     6
  9
$UCSNAME
  2

  9
$UCSORG
 10
0.0
 20
0.0
 30
0.0
  9
$UCSXDIR
 10
1.0
 20
0.0
 30
0.0
  9
$UCSYDIR
 10
0.0
 20
1.0
 30
0.0
  9
$PUCSNAME
  2

  9
$PUCSORG
 10
0.0
 20
0.0
 30
0.0
  9
$PUCSXDIR
 10
1.0
 20
0.0
 30
0.0
  9
$PUCSYDIR
 10
0.0
 20
1.0
 30
0.0
  9
$USERI1
 70
     0
  9
$USERI2
 70
     0
  9
$USERI3
 70
     0
  9
$USERI4
 70
     0
  9
$USERI5
 70
     0
  9
$USERR1
 40
0.0
  9
$USERR2
 40
0.0
  9
$USERR3
 40
0.0
  9
$USERR4
 40
0.0
  9
$USERR5
 40
0.0
  9
$WORLDVIEW
 70
     1
  9
$SHADEDGE
 70
     3
  9
$SHADEDIF
 70
    70
  9
$TILEMODE
 70
     1
  9
$MAXACTVP
 70
    64
  9
$PLIMCHECK
 70
     0
  9
$PEXTMIN
 10
1.0000000000000000E+020
 20
1.0000000000000000E+020
 30
1.0000000000000000E+020
  9
$PEXTMAX
 10
-1.0000000000000000E+020
 20
-1.0000000000000000E+020
 30
-1.0000000000000000E+020
  9
$PLIMMIN
 10
0.0
 20
0.0
  9
$PLIMMAX
 10
12.0
 20
9.0
  9
$UNITMODE
 70
     0
  9
$VISRETAIN
 70
     1
  9
$PLINEGEN
 70
     0
  9
$PSLTSCALE
 70
     1
  0
ENDSEC
  0
SECTION
  2
TABLES
  0
TABLE
  2
VPORT
 70
     1
  0
VPORT
  2
*ACTIVE
 70
     0
 10
0.0
 20
0.0
 11
1.0
 21
1.0
 12
0.0
 22
0.0
 13
0.0
 23
0.0
 14
1.0
 24
1.0
 15
0.0
 25
0.0
 16
0.0
 26
0.0
 36
9.1239077875810537
 17
120.47816037232261
 27
9.944744582349287
 37
0.0
 40
3.241787927734173
 41
2.1006711409395971
 42
50.0
 43
0.0
 44
0.0
 50
0.0
 51
0.0
 71
     0
 72
   100
 73
     1
 74
     1
 75
     0
 76
     0
 77
     0
 78
     0
  0
ENDTAB
  0
TABLE
  2
LTYPE
 70
     2
  0
LTYPE
  2
CONTINUOUS
 70
     0
  3
Solid line
 72
    65
 73
     0
 40
0.0
  0
LTYPE
  2
PHANTOM2
 70
     0
  3
___ _ _ ___ _ _ ___ _ _ ___ _ _
 72
    65
 73
     6
 40
1.25
 49
0.625
 49
-0.125
 49
0.125
 49
-0.125
 49
0.125
 49
-0.125
  0
ENDTAB
  0
TABLE
  2
LAYER
 70
     2
  0
LAYER
  2
0
 70
     0
 62
   255
  6
CONTINUOUS
  0
LAYER
  2
DEFPOINTS
 70
     0
 62
     7
  6
CONTINUOUS
  0
ENDTAB
  0
TABLE
  2
STYLE
 70
     1
  0
STYLE
  2
STANDARD
 70
     0
 40
0.0
 41
0.8
 50
0.0
 71
     0
 42
0.2
  3
txt
  4

  0
ENDTAB
  0
TABLE
  2
VIEW
 70
     0
  0
ENDTAB
  0
TABLE
  2
UCS
 70
     0
  0
ENDTAB
  0
TABLE
  2
APPID
 70
     9
  0
APPID
  2
ACAD
 70
     0
  0
APPID
  2
ACAD_MLEADERVER
 70
     0
  0
APPID
  2
ACAD_EXEMPT_FROM_CAD_STANDARDS
 70
     0
  0
APPID
  2
ACAD_DSTYLE_DIMJAG
 70
     0
  0
APPID
  2
ACAD_DSTYLE_DIMTALN
 70
     0
  0
APPID
  2
ACAD_NAV_VCDISPLAY
 70
     0
  0
APPID
  2
ACAECLAYERSTANDARD
 70
     0
  0
APPID
  2
ACCMTRANSPARENCY
 70
     0
  0
APPID
  2
ACDBATTR
 70
     0
  0
ENDTAB
  0
TABLE
  2
DIMSTYLE
 70
     1
  0
DIMSTYLE
  2
STANDARD
 70
     0
  3

  4

  5

  6

  7

 40
1.0
 41
0.1875
 42
0.0625
 43
0.38
 44
0.125
 45
0.0
 46
0.0
 47
0.01
 48
0.01
140
0.15625
141
0.09
142
0.0
143
25.399999999999999
144
1.0
145
0.0
146
1.0
147
0.09
 71
     1
 72
     0
 73
     1
 74
     1
 75
     0
 76
     0
 77
     0
 78
     4
170
     0
171
     2
172
     0
173
     0
174
     0
175
     0
176
     0
177
     0
178
     0
  0
ENDTAB
  0
ENDSEC
  0
SECTION
  2
BLOCKS
  0
BLOCK
  8
0
  2
$MODEL_SPACE
 70
     0
 10
0.0
 20
0.0
 30
0.0
  3
$MODEL_SPACE
  1

  0
ENDBLK
  5
21
  8
0
  0
BLOCK
 67
     1
  8
0
  2
$PAPER_SPACE
 70
     0
 10
0.0
 20
0.0
 30
0.0
  3
$PAPER_SPACE
  1

  0
ENDBLK
  5
1D
 67
     1
  8
0
  0
ENDSEC
  0
SECTION
  2
ENTITIES
  0
ATTDEF
  5
157D
  8
DEFPOINTS
 10
120.4743040335352
 20
9.0914625726316523
 30
0.0
 40
0.001
  1
K-77974-9
  3

  2
MODELNUMBER
 70
     0
1001
ACDBATTR
1070
     0
1070
     1
  0
ATTDEF
  5
157E
  8
DEFPOINTS
 10
120.4743040335352
 20
9.0897959059649871
 30
0.0
 40
0.001
  1
COMPONENTS
  3

  2
TRADENAME
 70
     0
1001
ACDBATTR
1070
     0
1070
     1
  0
ATTDEF
  5
157F
  8
DEFPOINTS
 10
120.4743040335352
 20
9.0881292392983202
 30
0.0
 40
0.001
  1
BATHROOM SINK FAUCET HANDLES
  3

  2
PRODUCT
 70
     0
1001
ACDBATTR
1070
     0
1070
     1
  0
ATTDEF
  5
1580
  8
DEFPOINTS
 10
120.4743040335352
 20
9.0864625726316568
 30
0.0
 40
0.001
  1
METAL
  3

  2
MATERIAL
 70
     0
1001
ACDBATTR
1070
     0
1070
     1
  0
LINE
  5
16F0
  8
0
 10
119.20852595172261
 20
10.303227927082229
 30
0.0
 11
119.2161673605226
 21
10.775612565582231
 31
0.0
  0
LINE
  5
16F1
  8
0
 10
119.1418884050226
 20
10.303227927082229
 30
0.0
 11
119.1499308778226
 21
10.775612565582231
 31
0.0
  0
LINE
  5
16F2
  8
0
 10
119.1080819629514
 20
10.29906410068223
 30
0.0
 11
119.1164746230226
 21
10.77989840248223
 31
0.0
  0
LINE
  5
16F3
  8
0
 10
119.2970580100226
 20
9.2204009177822357
 30
0.0
 11
119.2970580100226
 21
9.0884563992822365
 31
0.0
  0
LINE
  5
16F4
  8
0
 10
119.4331783186225
 20
10.30322848332804
 30
0.0
 11
119.4394675764226
 21
10.775612565582231
 31
0.0
  0
LINE
  5
16F5
  8
0
 10
119.3064261116226
 20
10.303227927082229
 30
0.0
 11
119.3134782995226
 21
10.775612565582231
 31
0.0
  0
LINE
  5
16F6
  8
0
 10
119.5856613315226
 20
10.303227927082229
 30
0.0
 11
119.59103291722261
 21
10.775612565582231
 31
0.0
  0
LINE
  5
16F7
  8
0
 10
119.1164746230226
 20
10.77989840248223
 30
0.0
 11
119.1416860963226
 21
10.805109682382231
 31
0.0
  0
LINE
  5
16F8
  8
0
 10
119.7601206938226
 20
10.303227927082229
 30
0.0
 11
119.7644423375674
 21
10.775611926777801
 31
0.0
  0
LINE
  5
16F9
  8
0
 10
119.9742647317226
 20
9.4522640290822366
 30
0.0
 11
119.9716158523226
 21
9.6040182289822358
 31
0.0
  0
LINE
  5
16FA
  8
0
 10
120.1573498565226
 20
10.303227927082229
 30
0.0
 11
120.1592806835226
 21
10.775612565582231
 31
0.0
  0
LINE
  5
16FB
  8
0
 10
119.9522605760226
 20
10.303227927082229
 30
0.0
 11
119.95542575122261
 21
10.775612565582231
 31
0.0
  0
LINE
  5
16FC
  8
0
 10
120.3703385567226
 20
10.30322793928223
 30
0.0
 11
120.37098749202261
 21
10.775612614382229
 31
0.0
  0
LINE
  5
16FD
  8
0
 10
119.1420192168226
 20
10.26512668858223
 30
0.0
 11
119.1080819629514
 21
10.29906410068223
 31
0.0
  0
LINE
  5
16FE
  8
0
 10
120.58598218782259
 20
10.303227927082229
 30
0.0
 11
120.5853332525226
 21
10.775612565582231
 31
0.0
  0
LINE
  5
16FF
  8
0
 10
120.79897088792259
 20
10.303227927082229
 30
0.0
 11
120.7970400610226
 21
10.775612565582231
 31
0.0
  0
LINE
  5
1700
  8
0
 10
119.24269442282259
 20
10.225796670382231
 30
0.0
 11
119.9342119880618
 21
9.6795304748882884
 31
0.0
  0
LINE
  5
1701
  8
0
 10
120.9919398998226
 20
10.01851153978223
 30
0.0
 11
120.98773003822851
 21
10.259694347282229
 31
0.0
  0
LINE
  5
1702
  8
0
 10
121.0040601685226
 20
10.303227927082229
 30
0.0
 11
121.0008949933226
 21
10.775612565582231
 31
0.0
  0
LINE
  5
1703
  8
0
 10
120.98205601272259
 20
9.4522640290822366
 30
0.0
 11
120.9919398998226
 21
10.01851153978223
 31
0.0
  0
LINE
  5
1704
  8
0
 10
121.1962000507226
 20
10.303227927082229
 30
0.0
 11
121.1918784644226
 21
10.775612565582231
 31
0.0
  0
LINE
  5
1705
  8
0
 10
121.52314248682259
 20
10.303227927082229
 30
0.0
 11
121.5168532725905
 21
10.775611801275289
 31
0.0
  0
LINE
  5
1706
  8
0
 10
121.37065941292261
 20
10.303227927082229
 30
0.0
 11
121.3652878273226
 21
10.775612565582231
 31
0.0
  0
LINE
  5
1707
  8
0
 10
121.7477947927226
 20
10.303227927082229
 30
0.0
 11
121.74015338402261
 21
10.775612565582231
 31
0.0
  0
LINE
  5
1708
  8
0
 10
121.6498946329226
 20
10.303227927082229
 30
0.0
 11
121.64284244502259
 21
10.775612565582231
 31
0.0
  0
LINE
  5
1709
  8
0
 10
121.6592627344226
 20
9.2204009177822357
 30
0.0
 11
121.6592627344226
 21
9.0884563992822365
 31
0.0
  0
LINE
  5
170A
  8
0
 10
121.81463480102261
 20
10.265459961882231
 30
0.0
 11
121.84823878169369
 21
10.29906410068223
 31
0.0
  0
LINE
  5
170B
  8
0
 10
119.3069005297226
 20
9.0786138795822353
 30
0.0
 11
121.6494202148226
 21
9.0786138795822353
 31
0.0
  0
LINE
  5
170C
  8
0
 10
120.9614011751226
 20
9.3935745094822352
 30
0.0
 11
120.9789473040226
 21
9.3915948643822347
 31
0.0
  0
LINE
  5
170D
  8
0
 10
120.9789473040226
 20
9.3915948643822347
 30
0.0
 11
121.6439640101226
 21
9.2395910457822357
 31
0.0
  0
LINE
  5
170E
  8
0
 10
121.84823878169369
 20
10.29906410068223
 30
0.0
 11
121.8398461214226
 21
10.77989840248223
 31
0.0
  0
LINE
  5
170F
  8
0
 10
121.8144323395226
 20
10.303227927082229
 30
0.0
 11
121.8063898666226
 21
10.775612565582231
 31
0.0
  0
LINE
  5
1710
  8
0
 10
119.9949195693226
 20
9.3935745094822352
 30
0.0
 11
120.9614011751226
 21
9.3935745094822352
 31
0.0
  0
LINE
  5
1711
  8
0
 10
119.9939467730226
 20
9.4329225409822364
 30
0.0
 11
120.9623739715226
 21
9.4329225409822364
 31
0.0
  0
LINE
  5
1712
  8
0
 10
119.9949195693226
 20
9.3935745094822352
 30
0.0
 11
119.9773734404226
 21
9.3915948643822347
 31
0.0
  0
LINE
  5
1713
  8
0
 10
119.9773734404226
 20
9.3915948643822347
 30
0.0
 11
119.31235673442259
 21
9.2395910457822357
 31
0.0
  0
LINE
  5
1714
  8
0
 10
121.8398461214226
 20
10.77989840248223
 30
0.0
 11
121.81463464822259
 21
10.805109682382231
 31
0.0
  0
LINE
  5
1715
  8
0
 10
119.152245194626
 20
10.259694347282229
 30
0.0
 11
121.8006938653195
 21
10.259694347282229
 31
0.0
  0
LINE
  5
1716
  8
0
 10
119.1556270437658
 20
10.810875285116341
 30
0.0
 11
121.80069370077931
 21
10.810875285116341
 31
0.0
  0
ARC
  5
1717
  8
0
 10
120.2651343887028
 20
9.4701009598651495
 30
0.0
 40
1.3097959992160519
 50
85.364501386786898
 51
94.635525027422574
  0
ARC
  5
1718
  8
0
 10
120.05735321737259
 20
9.5652950315263325
 30
0.0
 40
1.214601886051113
 50
85.186167558644385
 51
94.813832441354805
  0
ARC
  5
1719
  8
0
 10
119.8599375965254
 20
9.7136315311200097
 30
0.0
 40
1.0662653071562109
 50
84.862059532241361
 51
95.138323755471234
  0
ARC
  5
171A
  8
0
 10
119.6777344034072
 20
9.9004306875575967
 30
0.0
 40
0.8794660126061477
 50
84.341927464635191
 51
95.657650403765729
  0
ARC
  5
171B
  8
0
 10
119.5152502468226
 20
10.10745108856664
 30
0.0
 40
0.6724453676698288
 50
83.529182584827836
 51
96.470817415171354
  0
ARC
  5
171C
  8
0
 10
119.37647293797259
 20
10.314536176582831
 30
0.0
 40
0.4653598188135488
 50
82.220123471843422
 51
97.779876528157374
  0
ARC
  5
171D
  8
0
 10
119.1442109053818
 20
10.10063468760598
 30
0.0
 40
0.1592624410838377
 50
51.802615391534992
 51
87.108380770260524
  0
ARC
  5
171E
  8
0
 10
119.8730474780501
 20
9.6022137015397533
 30
0.0
 40
0.0985848909620666
 50
1.048817723055627
 51
51.652838663870583
  0
ARC
  5
171F
  8
0
 10
120.05493202582259
 20
9.4329445881822274
 30
0.0
 40
0.0393700786999922
 50
270.0
 51
359.96791442594571
  0
ARC
  5
1720
  8
0
 10
119.3167430494226
 20
9.2204009177822357
 30
0.0
 40
0.0196850394
 50
102.87500155959999
 51
180.0
  0
ARC
  5
1721
  8
0
 10
119.9939467730226
 20
9.4526075803822351
 30
0.0
 40
0.0196850394
 50
181.0
 51
270.0
  0
ARC
  5
1722
  8
0
 10
119.3069005297226
 20
9.0884563992822365
 30
0.0
 40
0.0098425197
 50
180.0
 51
270.0
  0
ARC
  5
1723
  8
0
 10
120.26384412856881
 20
11.663424464709511
 30
0.0
 40
1.3643590623262909
 50
265.52325683060468
 51
274.47674974593428
  0
ARC
  5
1724
  8
0
 10
120.0548052162726
 20
11.56426206976132
 30
0.0
 40
1.2651966298747299
 50
265.35105708989153
 51
274.64894291010847
  0
ARC
  5
1725
  8
0
 10
119.8561906349226
 20
11.40980989903732
 30
0.0
 40
1.1107443874442759
 50
265.03820293806149
 51
274.96179706193772
  0
ARC
  5
1726
  8
0
 10
119.67289101267259
 20
11.21518888161658
 30
0.0
 40
0.916123244912341
 50
264.53624227240311
 51
275.46375772759683
  0
ARC
  5
1727
  8
0
 10
119.50942236466079
 20
10.999402570002889
 30
0.0
 40
0.7003367143837719
 50
263.7499525453452
 51
276.249629433834
  0
ARC
  5
1728
  8
0
 10
119.3698001066864
 20
10.783679343888609
 30
0.0
 40
0.4846130695323946
 50
262.48577365368709
 51
277.51472922571401
  0
ARC
  5
1729
  8
0
 10
119.1557812011889
 20
10.790765471614851
 30
0.0
 40
0.0201104043613181
 50
90.439208285954024
 51
134.4981473452367
  0
ARC
  5
172A
  8
0
 10
120.4781600675792
 20
9.4372985511863057
 30
0.0
 40
1.342598410806243
 50
85.421481773040284
 51
94.578492137953006
  0
ARC
  5
172B
  8
0
 10
120.6911866567726
 20
9.4701083337249337
 30
0.0
 40
1.3097886251562261
 50
85.364462024836186
 51
94.635537975163814
  0
ARC
  5
172C
  8
0
 10
120.8989675271726
 20
9.5652950031771677
 30
0.0
 40
1.2146019143002791
 50
85.186167670869565
 51
94.813832329130435
  0
ARC
  5
172D
  8
0
 10
121.0963867288726
 20
9.7135517178725301
 30
0.0
 40
1.0663451203978029
 50
84.862251949261179
 51
95.137748050739617
  0
ARC
  5
172E
  8
0
 10
121.2785831458726
 20
9.9003660200258263
 30
0.0
 40
0.8795306801321792
 50
84.342557762486535
 51
95.657442237513479
  0
ARC
  5
172F
  8
0
 10
121.4410671808817
 20
10.10750974823388
 30
0.0
 40
0.672386707910441
 50
83.528322242805203
 51
96.471099900385838
  0
ARC
  5
1730
  8
0
 10
121.5798506556466
 20
10.314578076726811
 30
0.0
 40
0.4653179186781519
 50
82.219772658355623
 51
97.780922505543458
  0
ARC
  5
1731
  8
0
 10
120.9013887230919
 20
9.4329445987306517
 30
0.0
 40
0.0393700892483975
 50
180.0321009167132
 51
269.9999936413268
  0
ARC
  5
1732
  8
0
 10
121.6395776951226
 20
9.2204009177822357
 30
0.0
 40
0.0196850394
 50
0.0
 51
77.124998440399992
  0
ARC
  5
1733
  8
0
 10
120.9623739715226
 20
9.4526075803822351
 30
0.0
 40
0.0196850394
 50
270.0
 51
359.0
  0
ARC
  5
1734
  8
0
 10
121.80071533262721
 20
10.279379451965889
 30
0.0
 40
0.0196851163890818
 50
269.93751693677513
 51
314.99995536299042
  0
ARC
  5
1735
  8
0
 10
121.6494202148226
 20
9.0884563992822365
 30
0.0
 40
0.0098425197
 50
270.0
 51
0.0
  0
ARC
  5
1736
  8
0
 10
120.4781604513195
 20
11.697567409004311
 30
0.0
 40
1.3985020978565801
 50
265.5782146180901
 51
274.42177888633802
  0
ARC
  5
1737
  8
0
 10
120.69247653787259
 20
11.66342639481136
 30
0.0
 40
1.364360992628135
 50
265.5232598914738
 51
274.47674010852631
  0
ARC
  5
1738
  8
0
 10
120.9015155282226
 20
11.56426204059875
 30
0.0
 40
1.2651966008121609
 50
265.35105698059482
 51
274.64894301940518
  0
ARC
  5
1739
  8
0
 10
121.1001301096226
 20
11.40980989903861
 30
0.0
 40
1.1107443874455629
 50
265.03820293806717
 51
274.96179706193283
  0
ARC
  5
173A
  8
0
 10
121.28342973182259
 20
11.215188880570279
 30
0.0
 40
0.9161232438660393
 50
264.53624226928508
 51
275.4637577307148
  0
ARC
  5
173B
  8
0
 10
121.4469009498726
 20
10.99944964931135
 30
0.0
 40
0.7003837936875546
 50
263.75058082954092
 51
276.24941917045908
  0
ARC
  5
173C
  8
0
 10
121.5865185598726
 20
10.783710988625909
 30
0.0
 40
0.484644714265636
 50
262.48601933316661
 51
277.51398066683339
  0
ARC
  5
173D
  8
0
 10
121.799844393268
 20
10.78908463246634
 30
0.0
 40
0.021807197576988
 50
47.294661842951633
 51
87.767982525872227
  0
ARC
  5
173E
  8
0
 10
119.15569938844131
 20
10.278537601166519
 30
0.0
 40
0.0191572354963156
 50
224.43055441454769
 51
259.61232693081428
  0
ARC
  5
173F
  8
0
 10
119.13316555512159
 20
10.74496101400778
 30
0.0
 40
0.0349369955661277
 50
61.322888810130323
 51
118.6778962700766
  0
ARC
  5
1740
  8
0
 10
119.18304911917259
 20
10.64978477649071
 30
0.0
 40
0.1301132215333154
 50
75.254024581905654
 51
104.7459754180943
  0
ARC
  5
1741
  8
0
 10
119.2648228300226
 20
10.50154605212165
 30
0.0
 40
0.2783519507973759
 50
79.933074831935656
 51
100.0669251680643
  0
ARC
  5
1742
  8
0
 10
119.12502130529489
 20
10.33531238859517
 30
0.0
 40
0.0362479202685998
 50
242.26944639004901
 51
297.73132221356298
  0
ARC
  5
1743
  8
0
 10
119.1752071783726
 20
10.43446574614916
 30
0.0
 40
0.1354012769917341
 50
255.75467008202389
 51
284.2453299179727
  0
ARC
  5
1744
  8
0
 10
119.2574760316726
 20
10.588900324556141
 30
0.0
 40
0.2898358656301896
 50
260.2767724584312
 51
279.72322754156801
  0
ARC
  5
1745
  8
0
 10
121.69884471282261
 20
10.58890016037134
 30
0.0
 40
0.2898357037954453
 50
260.27676698660389
 51
279.72323301339702
  0
ARC
  5
1746
  8
0
 10
121.7811135661226
 20
10.434465746551471
 30
0.0
 40
0.1354012773939779
 50
255.7546701034091
 51
284.24532989658837
  0
ARC
  5
1747
  8
0
 10
121.83129917804121
 20
10.335311715361421
 30
0.0
 40
0.0362472028156105
 50
242.2685480639833
 51
297.73160794826089
  0
ARC
  5
1748
  8
0
 10
121.6914979145226
 20
10.50154585049725
 30
0.0
 40
0.2783521493176211
 50
79.933082086453581
 51
100.0669179135472
  0
ARC
  5
1749
  8
0
 10
121.77327162532259
 20
10.64978493975357
 30
0.0
 40
0.1301130636349865
 50
75.254006303877034
 51
104.7459936961238
  0
ARC
  5
174A
  8
0
 10
121.8231554732215
 20
10.744959957270609
 30
0.0
 40
0.034938058917675
 50
61.323598450912947
 51
118.6766880479731
  0
ARC
  5
174B
  8
0
 10
118.9406736289472
 20
10.03815881931839
 30
0.0
 40
1.118624119226687
 50
337.1635297844399
 51
11.42253451954514
  0
LINE
  5
174C
  8
0
 10
119.2970580100226
 20
9.2204009177822357
 30
0.0
 11
121.6592627344226
 21
9.2204009177822357
 31
0.0
  0
ENDSEC
  0
EOF
