  0
SECTION
  2
HEADER
  9
$ACADVER
  1
AC1009
  9
$INSBASE
 10
45.10425595317173
 20
3.1150301101000002
 30
0.0
  9
$EXTMIN
 10
43.903468551521733
 20
3.115030110099998
 30
0.0
  9
$EXTMAX
 10
46.305043354721732
 20
4.6110710549
 30
0.0
  9
$LIMMIN
 10
0.0
 20
0.0
  9
$LIMMAX
 10
11.692913385800001
 20
8.2677165353999982
  9
$ORTHOMODE
 70
     0
  9
$REGENMODE
 70
     1
  9
$FILLMODE
 70
     1
  9
$QTEXTMODE
 70
     0
  9
$MIRRTEXT
 70
     0
  9
$DRAGMODE
 70
     2
  9
$LTSCALE
 40
0.6431102362
  9
$OSMODE
 70
  3071
  9
$ATTMODE
 70
     1
  9
$TEXTSIZE
 40
0.2
  9
$TRACEWID
 40
0.05
  9
$TEXTSTYLE
  7
STANDARD
  9
$CLAYER
  8
0
  9
$CELTYPE
  6
BYLAYER
  9
$CECOLOR
 62
   256
  9
$DIMSCALE
 40
1.0
  9
$DIMASZ
 40
0.1875
  9
$DIMEXO
 40
0.0625
  9
$DIMDLI
 40
0.4443307087
  9
$DIMRND
 40
0.0
  9
$DIMDLE
 40
0.0
  9
$DIMEXE
 40
0.125
  9
$DIMTP
 40
0.01
  9
$DIMTM
 40
0.01
  9
$DIMTXT
 40
1.0
  9
$DIMCEN
 40
0.1052362205
  9
$DIMTSZ
 40
0.0
  9
$DIMTOL
 70
     1
  9
$DIMLIM
 70
     0
  9
$DIMTIH
 70
     1
  9
$DIMTOH
 70
     1
  9
$DIMSE1
 70
     0
  9
$DIMSE2
 70
     0
  9
$DIMTAD
 70
     0
  9
$DIMZIN
 70
     0
  9
$DIMBLK
  1

  9
$DIMASO
 70
     1
  9
$DIMSHO
 70
     1
  9
$DIMPOST
  1
\X
  9
$DIMAPOST
  1

  9
$DIMALT
 70
     1
  9
$DIMALTD
 70
     2
  9
$DIMALTF
 40
25.399999999999999
  9
$DIMLFAC
 40
1.0
  9
$DIMTOFL
 70
     0
  9
$DIMTVP
 40
0.0
  9
$DIMTIX
 70
     0
  9
$DIMSOXD
 70
     0
  9
$DIMSAH
 70
     0
  9
$DIMBLK1
  1

  9
$DIMBLK2
  1

  9
$DIMSTYLE
  2
STANDARD
  9
$DIMCLRD
 70
     0
  9
$DIMCLRE
 70
     0
  9
$DIMCLRT
 70
     0
  9
$DIMTFAC
 40
1.0
  9
$DIMGAP
 40
0.09
  9
$LUNITS
 70
     2
  9
$LUPREC
 70
     4
  9
$SKETCHINC
 40
0.1
  9
$FILLETRAD
 40
0.0
  9
$AUNITS
 70
     0
  9
$AUPREC
 70
     0
  9
$MENU
  1
.
  9
$ELEVATION
 40
0.0
  9
$PELEVATION
 40
0.0
  9
$THICKNESS
 40
0.0
  9
$LIMCHECK
 70
     0
  9
$BLIPMODE
 70
     0
  9
$CHAMFERA
 40
0.0
  9
$CHAMFERB
 40
0.0
  9
$SKPOLY
 70
     0
  9
$TDCREATE
 40
2458172.5002992712
  9
$TDUPDATE
 40
2458282.5991301499
  9
$TDINDWG
 40
0.0273896759
  9
$TDUSRTIMER
 40
0.0273896759
  9
$USRTIMER
 70
     1
  9
$ANGBASE
 50
0.0
  9
$ANGDIR
 70
     0
  9
$PDMODE
 70
     0
  9
$PDSIZE
 40
0.3125
  9
$PLINEWID
 40
0.0
  9
$COORDS
 70
     1
  9
$SPLFRAME
 70
     0
  9
$SPLINETYPE
 70
     6
  9
$SPLINESEGS
 70
     8
  9
$ATTDIA
 70
     1
  9
$ATTREQ
 70
     1
  9
$HANDLING
 70
     1
  9
$HANDSEED
  5
A2C
  9
$SURFTAB1
 70
     6
  9
$SURFTAB2
 70
     6
  9
$SURFTYPE
 70
     6
  9
$SURFU
 70
     6
  9
$SURFV
 70
     6
  9
$UCSNAME
  2

  9
$UCSORG
 10
0.0
 20
0.0
 30
0.0
  9
$UCSXDIR
 10
1.0
 20
0.0
 30
0.0
  9
$UCSYDIR
 10
0.0
 20
1.0
 30
0.0
  9
$PUCSNAME
  2

  9
$PUCSORG
 10
0.0
 20
0.0
 30
0.0
  9
$PUCSXDIR
 10
1.0
 20
0.0
 30
0.0
  9
$PUCSYDIR
 10
0.0
 20
1.0
 30
0.0
  9
$USERI1
 70
     0
  9
$USERI2
 70
     0
  9
$USERI3
 70
     0
  9
$USERI4
 70
     0
  9
$USERI5
 70
     0
  9
$USERR1
 40
0.0
  9
$USERR2
 40
0.0
  9
$USERR3
 40
0.0
  9
$USERR4
 40
0.0
  9
$USERR5
 40
0.0
  9
$WORLDVIEW
 70
     1
  9
$SHADEDGE
 70
     3
  9
$SHADEDIF
 70
    70
  9
$TILEMODE
 70
     1
  9
$MAXACTVP
 70
    64
  9
$PLIMCHECK
 70
     0
  9
$PEXTMIN
 10
1.0000000000000000E+020
 20
1.0000000000000000E+020
 30
1.0000000000000000E+020
  9
$PEXTMAX
 10
-1.0000000000000000E+020
 20
-1.0000000000000000E+020
 30
-1.0000000000000000E+020
  9
$PLIMMIN
 10
0.0
 20
0.0
  9
$PLIMMAX
 10
12.0
 20
9.0
  9
$UNITMODE
 70
     0
  9
$VISRETAIN
 70
     1
  9
$PLINEGEN
 70
     0
  9
$PSLTSCALE
 70
     1
  0
ENDSEC
  0
SECTION
  2
TABLES
  0
TABLE
  2
VPORT
 70
     1
  0
VPORT
  2
*ACTIVE
 70
     0
 10
0.0
 20
0.0
 11
1.0
 21
1.0
 12
0.0
 22
0.0
 13
0.0
 23
0.0
 14
1.0
 24
1.0
 15
0.0
 25
0.0
 16
0.0
 26
0.0
 36
7.9117796336911779
 17
45.104255953121729
 27
3.8630505824999992
 37
0.0
 40
2.829650983548833
 41
2.0834248079034019
 42
50.0
 43
0.0
 44
0.0
 50
0.0
 51
0.0
 71
     0
 72
   100
 73
     1
 74
     1
 75
     0
 76
     0
 77
     0
 78
     0
  0
ENDTAB
  0
TABLE
  2
LTYPE
 70
     2
  0
LTYPE
  2
CONTINUOUS
 70
     0
  3
Solid line
 72
    65
 73
     0
 40
0.0
  0
LTYPE
  2
PHANTOM2
 70
     0
  3
___ _ _ ___ _ _ ___ _ _ ___ _ _
 72
    65
 73
     6
 40
1.25
 49
0.625
 49
-0.125
 49
0.125
 49
-0.125
 49
0.125
 49
-0.125
  0
ENDTAB
  0
TABLE
  2
LAYER
 70
     2
  0
LAYER
  2
0
 70
     0
 62
   255
  6
CONTINUOUS
  0
LAYER
  2
DEFPOINTS
 70
     0
 62
     7
  6
CONTINUOUS
  0
ENDTAB
  0
TABLE
  2
STYLE
 70
     1
  0
STYLE
  2
STANDARD
 70
     0
 40
0.0
 41
0.8
 50
0.0
 71
     0
 42
0.2
  3
txt
  4

  0
ENDTAB
  0
TABLE
  2
VIEW
 70
     0
  0
ENDTAB
  0
TABLE
  2
UCS
 70
     0
  0
ENDTAB
  0
TABLE
  2
APPID
 70
     9
  0
APPID
  2
ACAD
 70
     0
  0
APPID
  2
ACAD_MLEADERVER
 70
     0
  0
APPID
  2
ACAD_EXEMPT_FROM_CAD_STANDARDS
 70
     0
  0
APPID
  2
ACAD_DSTYLE_DIMJAG
 70
     0
  0
APPID
  2
ACAD_DSTYLE_DIMTALN
 70
     0
  0
APPID
  2
ACAD_NAV_VCDISPLAY
 70
     0
  0
APPID
  2
ACAECLAYERSTANDARD
 70
     0
  0
APPID
  2
ACCMTRANSPARENCY
 70
     0
  0
APPID
  2
AcDbAttr
 70
     0
  0
ENDTAB
  0
TABLE
  2
DIMSTYLE
 70
     1
  0
DIMSTYLE
  2
STANDARD
 70
     0
  3

  4

  5

  6

  7

 40
1.0
 41
0.1875
 42
0.0625
 43
0.38
 44
0.125
 45
0.0
 46
0.0
 47
0.01
 48
0.01
140
0.15625
141
0.09
142
0.0
143
25.399999999999999
144
1.0
145
0.0
146
1.0
147
0.09
 71
     1
 72
     0
 73
     1
 74
     1
 75
     0
 76
     0
 77
     0
 78
     4
170
     0
171
     2
172
     0
173
     0
174
     0
175
     0
176
     0
177
     0
178
     0
  0
ENDTAB
  0
ENDSEC
  0
SECTION
  2
BLOCKS
  0
BLOCK
  8
0
  2
$MODEL_SPACE
 70
     0
 10
0.0
 20
0.0
 30
0.0
  3
$MODEL_SPACE
  1

  0
ENDBLK
  5
21
  8
0
  0
BLOCK
 67
     1
  8
0
  2
$PAPER_SPACE
 70
     0
 10
0.0
 20
0.0
 30
0.0
  3
$PAPER_SPACE
  1

  0
ENDBLK
  5
1D
 67
     1
  8
0
  0
ENDSEC
  0
SECTION
  2
ENTITIES
  0
LINE
  5
40F
  8
0
 10
43.959798048821717
 20
4.5520159368000002
 30
0.0
 11
43.903468551521733
 21
3.3315434959000001
 31
0.0
  0
LINE
  5
410
  8
0
 10
43.928364336621733
 20
3.3066477107999992
 30
0.0
 11
43.924104019321732
 21
3.2143408338000001
 31
0.0
  0
LINE
  5
414
  8
0
 10
44.018853166921723
 20
4.6110710549
 30
0.0
 11
43.959798048821717
 21
4.5520159368000002
 31
0.0
  0
LINE
  5
415
  8
0
 10
43.903468551521733
 20
3.3315434959000001
 30
0.0
 11
43.928364336721728
 21
3.3066477107999992
 31
0.0
  0
LINE
  5
417
  8
0
 10
46.280147569621732
 20
3.3066477107999992
 30
0.0
 11
46.284407887021743
 21
3.2143408338000001
 31
0.0
  0
LINE
  5
418
  8
0
 10
46.248713857421727
 20
4.5520159368000002
 30
0.0
 11
46.305043354721732
 21
3.3315434958999992
 31
0.0
  0
LINE
  5
41A
  8
0
 10
46.305043354721732
 20
3.3315434958999992
 30
0.0
 11
46.280147569621732
 21
3.3066477107999992
 31
0.0
  0
LINE
  5
41B
  8
0
 10
46.189658739321729
 20
4.6110710549
 30
0.0
 11
46.248713857421727
 21
4.5520159368000002
 31
0.0
  0
LINE
  5
420
  8
0
 10
43.943768125721732
 20
3.1937482202999989
 30
0.0
 11
46.264743780521727
 21
3.1937482202999989
 31
0.0
  0
LINE
  5
421
  8
0
 10
43.928364336621733
 20
3.3066477107999992
 30
0.0
 11
46.280147569621732
 21
3.3066477107999992
 31
0.0
  0
LINE
  5
422
  8
0
 10
46.189658739321729
 20
4.6110710549
 30
0.0
 11
44.018853166921723
 21
4.6110710549
 31
0.0
  0
ARC
  5
427
  8
0
 10
46.264743780521727
 20
3.2134332596999999
 30
0.0
 40
0.0196850394
 50
270.0
 51
2.6425452937
  0
ARC
  5
428
  8
0
 10
43.943768125721732
 20
3.2134332596999999
 30
0.0
 40
0.0196850394
 50
177.35745470629999
 51
270.0
  0
LINE
  5
429
  8
0
 10
44.080633905921736
 20
3.1150301100999989
 30
0.0
 11
44.060948866521727
 21
3.134715149399999
 31
0.0
  0
LINE
  5
42A
  8
0
 10
44.060948866521727
 20
3.1937482202999989
 30
0.0
 11
44.060948866521727
 21
3.134715149399999
 31
0.0
  0
LINE
  5
42B
  8
0
 10
44.507147215721737
 20
3.134715149399999
 30
0.0
 11
44.661889864221727
 21
3.134715149399999
 31
0.0
  0
LINE
  5
42C
  8
0
 10
45.546622042221728
 20
3.134715149399999
 30
0.0
 11
45.70136469062173
 21
3.134715149399999
 31
0.0
  0
LINE
  5
42D
  8
0
 10
44.507147215721737
 20
3.134715149399999
 30
0.0
 11
44.50714727402174
 21
3.1937482202999989
 31
0.0
  0
LINE
  5
42E
  8
0
 10
44.661889871221739
 20
3.1937482202999989
 30
0.0
 11
44.661889864221727
 21
3.134715149399999
 31
0.0
  0
LINE
  5
42F
  8
0
 10
45.546622042221728
 20
3.134715149399999
 30
0.0
 11
45.546622035221731
 21
3.1937482202999989
 31
0.0
  0
LINE
  5
430
  8
0
 10
45.701364632321727
 20
3.1937482202999989
 30
0.0
 11
45.70136469062173
 21
3.134715149399999
 31
0.0
  0
LINE
  5
431
  8
0
 10
46.14756303982174
 20
3.1937482202999989
 30
0.0
 11
46.14756303982174
 21
3.134715149399999
 31
0.0
  0
LINE
  5
432
  8
0
 10
46.127878000421731
 20
3.1150301100999989
 30
0.0
 11
46.14756303982174
 21
3.134715149399999
 31
0.0
  0
ARC
  5
433
  8
0
 10
44.93782150958161
 20
4.5697168139635451
 30
0.0
 40
1.5588033441852289
 50
291.05957021725777
 51
292.98912107721998
  0
ARC
  5
434
  8
0
 10
45.265732580521039
 20
4.557542455227618
 30
0.0
 40
1.545659590025048
 50
247.0038094803507
 51
248.94986966970919
  0
ARC
  5
435
  8
0
 10
44.079141726842423
 20
3.6388503167266548
 30
0.0
 40
0.6613175980164902
 50
307.61914801978992
 51
310.33090905944613
  0
ARC
  5
436
  8
0
 10
46.125790278546383
 20
3.6344560393456251
 30
0.0
 40
0.6556508497430827
 50
229.6590454124472
 51
232.39435035297069
  0
LINE
  5
437
  8
0
 10
44.080633905921736
 20
3.1150301101000002
 30
0.0
 11
46.127878000421731
 21
3.1150301100999989
 31
0.0
  0
ATTDEF
  5
815
  8
DEFPOINTS
 10
45.100421495554613
 20
3.12262396990723
 30
0.0
 40
0.001
  1
METAL
  3

  2
MATERIAL
 70
     0
1001
AcDbAttr
1070
     0
1070
     1
  0
ATTDEF
  5
816
  8
DEFPOINTS
 10
45.100421495554613
 20
3.1242906365738952
 30
0.0
 40
0.001
  1
BATHROOM SINK FAUCET HANDLES
  3

  2
PRODUCT
 70
     0
1001
AcDbAttr
1070
     0
1070
     1
  0
ATTDEF
  5
817
  8
DEFPOINTS
 10
45.100421495554613
 20
3.1259573032405599
 30
0.0
 40
0.001
  1
COMPONENTS
  3

  2
TRADENAME
 70
     0
1001
AcDbAttr
1070
     0
1070
     1
  0
ATTDEF
  5
818
  8
DEFPOINTS
 10
45.100421495554613
 20
3.127623969907225
 30
0.0
 40
0.001
  1
K-77974-8
  3

  2
MODELNUMBER
 70
     0
1001
AcDbAttr
1070
     0
1070
     1
  0
ENDSEC
  0
EOF
