  0
SECTION
  2
HEADER
  9
$ACADVER
  1
AC1009
  9
$INSBASE
 10
39.00869046917969
 20
13.61779865365707
 30
0.0
  9
$EXTMIN
 10
32.729384967013353
 20
13.61115598303374
 30
0.0
  9
$EXTMAX
 10
45.287995971346028
 20
15.19975626105707
 30
0.0
  9
$LIMMIN
 10
0.0
 20
0.0
  9
$LIMMAX
 10
11.692913385800001
 20
8.2677165353999982
  9
$ORTHOMODE
 70
     1
  9
$REGENMODE
 70
     1
  9
$FILLMODE
 70
     1
  9
$QTEXTMODE
 70
     0
  9
$MIRRTEXT
 70
     0
  9
$DRAGMODE
 70
     2
  9
$LTSCALE
 40
0.6431102362
  9
$OSMODE
 70
  3071
  9
$ATTMODE
 70
     1
  9
$TEXTSIZE
 40
0.2
  9
$TRACEWID
 40
0.05
  9
$TEXTSTYLE
  7
STANDARD
  9
$CLAYER
  8
0
  9
$CELTYPE
  6
BYLAYER
  9
$CECOLOR
 62
   256
  9
$DIMSCALE
 40
1.0
  9
$DIMASZ
 40
0.1875
  9
$DIMEXO
 40
0.0625
  9
$DIMDLI
 40
0.4443307087
  9
$DIMRND
 40
0.0
  9
$DIMDLE
 40
0.0
  9
$DIMEXE
 40
0.125
  9
$DIMTP
 40
0.01
  9
$DIMTM
 40
0.01
  9
$DIMTXT
 40
1.0
  9
$DIMCEN
 40
0.1052362205
  9
$DIMTSZ
 40
0.0
  9
$DIMTOL
 70
     1
  9
$DIMLIM
 70
     0
  9
$DIMTIH
 70
     0
  9
$DIMTOH
 70
     1
  9
$DIMSE1
 70
     0
  9
$DIMSE2
 70
     0
  9
$DIMTAD
 70
     0
  9
$DIMZIN
 70
     0
  9
$DIMBLK
  1

  9
$DIMASO
 70
     1
  9
$DIMSHO
 70
     1
  9
$DIMPOST
  1
\X
  9
$DIMAPOST
  1

  9
$DIMALT
 70
     1
  9
$DIMALTD
 70
     2
  9
$DIMALTF
 40
25.399999999999999
  9
$DIMLFAC
 40
1.0
  9
$DIMTOFL
 70
     0
  9
$DIMTVP
 40
0.0
  9
$DIMTIX
 70
     0
  9
$DIMSOXD
 70
     0
  9
$DIMSAH
 70
     0
  9
$DIMBLK1
  1

  9
$DIMBLK2
  1

  9
$DIMSTYLE
  2
STANDARD
  9
$DIMCLRD
 70
     0
  9
$DIMCLRE
 70
     0
  9
$DIMCLRT
 70
     0
  9
$DIMTFAC
 40
1.0
  9
$DIMGAP
 40
0.09
  9
$LUNITS
 70
     2
  9
$LUPREC
 70
     4
  9
$SKETCHINC
 40
0.1
  9
$FILLETRAD
 40
0.0
  9
$AUNITS
 70
     0
  9
$AUPREC
 70
     0
  9
$MENU
  1
.
  9
$ELEVATION
 40
0.0
  9
$PELEVATION
 40
0.0
  9
$THICKNESS
 40
0.0
  9
$LIMCHECK
 70
     0
  9
$BLIPMODE
 70
     0
  9
$CHAMFERA
 40
0.0
  9
$CHAMFERB
 40
0.0
  9
$SKPOLY
 70
     0
  9
$TDCREATE
 40
2458172.5207663891
  9
$TDUPDATE
 40
2458278.5381858912
  9
$TDINDWG
 40
0.0474701273
  9
$TDUSRTIMER
 40
0.0474701273
  9
$USRTIMER
 70
     1
  9
$ANGBASE
 50
0.0
  9
$ANGDIR
 70
     0
  9
$PDMODE
 70
     0
  9
$PDSIZE
 40
0.3125
  9
$PLINEWID
 40
0.0
  9
$COORDS
 70
     1
  9
$SPLFRAME
 70
     0
  9
$SPLINETYPE
 70
     6
  9
$SPLINESEGS
 70
     8
  9
$ATTDIA
 70
     1
  9
$ATTREQ
 70
     1
  9
$HANDLING
 70
     1
  9
$HANDSEED
  5
B85
  9
$SURFTAB1
 70
     6
  9
$SURFTAB2
 70
     6
  9
$SURFTYPE
 70
     6
  9
$SURFU
 70
     6
  9
$SURFV
 70
     6
  9
$UCSNAME
  2

  9
$UCSORG
 10
0.0
 20
0.0
 30
0.0
  9
$UCSXDIR
 10
1.0
 20
0.0
 30
0.0
  9
$UCSYDIR
 10
0.0
 20
1.0
 30
0.0
  9
$PUCSNAME
  2

  9
$PUCSORG
 10
0.0
 20
0.0
 30
0.0
  9
$PUCSXDIR
 10
1.0
 20
0.0
 30
0.0
  9
$PUCSYDIR
 10
0.0
 20
1.0
 30
0.0
  9
$USERI1
 70
     0
  9
$USERI2
 70
     0
  9
$USERI3
 70
     0
  9
$USERI4
 70
     0
  9
$USERI5
 70
     0
  9
$USERR1
 40
0.0
  9
$USERR2
 40
0.0
  9
$USERR3
 40
0.0
  9
$USERR4
 40
0.0
  9
$USERR5
 40
0.0
  9
$WORLDVIEW
 70
     1
  9
$SHADEDGE
 70
     3
  9
$SHADEDIF
 70
    70
  9
$TILEMODE
 70
     1
  9
$MAXACTVP
 70
    64
  9
$PLIMCHECK
 70
     0
  9
$PEXTMIN
 10
1.0000000000000000E+020
 20
1.0000000000000000E+020
 30
1.0000000000000000E+020
  9
$PEXTMAX
 10
-1.0000000000000000E+020
 20
-1.0000000000000000E+020
 30
-1.0000000000000000E+020
  9
$PLIMMIN
 10
0.0
 20
0.0
  9
$PLIMMAX
 10
12.0
 20
9.0
  9
$UNITMODE
 70
     0
  9
$VISRETAIN
 70
     1
  9
$PLINEGEN
 70
     0
  9
$PSLTSCALE
 70
     1
  0
ENDSEC
  0
SECTION
  2
TABLES
  0
TABLE
  2
VPORT
 70
     1
  0
VPORT
  2
*ACTIVE
 70
     0
 10
0.0
 20
0.0
 11
1.0
 21
1.0
 12
0.0
 22
0.0
 13
0.0
 23
0.0
 14
1.0
 24
1.0
 15
0.0
 25
0.0
 16
-0.0000000000000071
 26
0.0
 36
35.627467664687572
 17
39.00869046917969
 27
14.405456122045409
 37
0.0
 40
12.659909497247209
 41
2.1006711409395971
 42
50.0
 43
0.0
 44
0.0
 50
0.0
 51
0.0
 71
     0
 72
   100
 73
     1
 74
     1
 75
     0
 76
     0
 77
     0
 78
     0
  0
ENDTAB
  0
TABLE
  2
LTYPE
 70
     3
  0
LTYPE
  2
CONTINUOUS
 70
     0
  3
Solid line
 72
    65
 73
     0
 40
0.0
  0
LTYPE
  2
PHANTOM2
 70
     0
  3
___ _ _ ___ _ _ ___ _ _ ___ _ _
 72
    65
 73
     6
 40
1.25
 49
0.625
 49
-0.125
 49
0.125
 49
-0.125
 49
0.125
 49
-0.125
  0
ENDTAB
  0
TABLE
  2
LAYER
 70
     2
  0
LAYER
  2
0
 70
     0
 62
   255
  6
CONTINUOUS
  0
LAYER
  2
DEFPOINTS
 70
     0
 62
     7
  6
CONTINUOUS
  0
ENDTAB
  0
TABLE
  2
STYLE
 70
     1
  0
STYLE
  2
STANDARD
 70
     0
 40
0.0
 41
0.8
 50
0.0
 71
     0
 42
0.2
  3
txt
  4

  0
ENDTAB
  0
TABLE
  2
VIEW
 70
     0
  0
ENDTAB
  0
TABLE
  2
UCS
 70
     0
  0
ENDTAB
  0
TABLE
  2
APPID
 70
    10
  0
APPID
  2
ACAD
 70
     0
  0
APPID
  2
ACAD_MLEADERVER
 70
     0
  0
APPID
  2
ACAD_EXEMPT_FROM_CAD_STANDARDS
 70
     0
  0
APPID
  2
ACAD_DSTYLE_DIMJAG
 70
     0
  0
APPID
  2
ACAD_DSTYLE_DIMTALN
 70
     0
  0
APPID
  2
ACAD_NAV_VCDISPLAY
 70
     0
  0
APPID
  2
ACAECLAYERSTANDARD
 70
     0
  0
APPID
  2
ACCMTRANSPARENCY
 70
     0
  0
APPID
  2
DCO15
 70
     0
  0
APPID
  2
ACDBATTR
 70
     0
  0
ENDTAB
  0
TABLE
  2
DIMSTYLE
 70
     2
  0
DIMSTYLE
  2
STANDARD
 70
     0
  3

  4

  5

  6

  7

 40
1.0
 41
0.1875
 42
0.0625
 43
0.38
 44
0.125
 45
0.0
 46
0.0
 47
0.01
 48
0.01
140
0.15625
141
0.09
142
0.0
143
25.399999999999999
144
1.0
145
0.0
146
1.0
147
0.09
 71
     1
 72
     0
 73
     1
 74
     1
 75
     0
 76
     0
 77
     0
 78
     4
170
     0
171
     2
172
     0
173
     0
174
     0
175
     0
176
     0
177
     0
178
     0
  0
ENDTAB
  0
ENDSEC
  0
SECTION
  2
BLOCKS
  0
BLOCK
  8
0
  2
$MODEL_SPACE
 70
     0
 10
0.0
 20
0.0
 30
0.0
  3
$MODEL_SPACE
  1

  0
ENDBLK
  5
21
  8
0
  0
BLOCK
 67
     1
  8
0
  2
$PAPER_SPACE
 70
     0
 10
0.0
 20
0.0
 30
0.0
  3
$PAPER_SPACE
  1

  0
ENDBLK
  5
1D
 67
     1
  8
0
  0
ENDSEC
  0
SECTION
  2
ENTITIES
  0
ATTDEF
  5
829
  8
DEFPOINTS
 10
39.002931766698723
 20
13.616155983033741
 30
0.0
 40
0.001
  1
K-77974-4
  3

  2
MODELNUMBER
 70
     0
1001
ACDBATTR
1070
     0
1070
     1
  0
ATTDEF
  5
82A
  8
DEFPOINTS
 10
39.002931766698723
 20
13.61448931636707
 30
0.0
 40
0.001
  1
COMPONENTS
  3

  2
TRADENAME
 70
     0
1001
ACDBATTR
1070
     0
1070
     1
  0
ATTDEF
  5
82B
  8
DEFPOINTS
 10
39.002931766698723
 20
13.61282264970041
 30
0.0
 40
0.001
  1
BATHROOM SINK FAUCET HANDLES
  3

  2
PRODUCT
 70
     0
1001
ACDBATTR
1070
     0
1070
     1
  0
ATTDEF
  5
82C
  8
DEFPOINTS
 10
39.002931766698723
 20
13.61115598303374
 30
0.0
 40
0.001
  1
METAL
  3

  2
MATERIAL
 70
     0
1001
ACDBATTR
1070
     0
1070
     1
  0
LINE
  5
92D
  8
0
 10
32.729384967013353
 20
15.18024300365707
 30
0.0
 11
32.729384967013353
 21
13.99179235445707
 31
0.0
  0
LINE
  5
92E
  8
0
 10
33.827588422904668
 20
13.62764117335707
 30
0.0
 11
33.827588422904668
 21
13.759585691857071
 31
0.0
  0
LINE
  5
92F
  8
0
 10
34.542892804004673
 20
13.991964136657071
 30
0.0
 11
34.551972580504682
 21
15.178764290057069
 31
0.0
  0
LINE
  5
930
  8
0
 10
35.529643607704678
 20
15.18024299785707
 30
0.0
 11
35.540013560204677
 21
13.991964136657071
 31
0.0
  0
LINE
  5
931
  8
0
 10
36.189793147304677
 20
13.62764117335707
 30
0.0
 11
36.189793147304677
 21
13.759585691857071
 31
0.0
  0
LINE
  5
932
  8
0
 10
33.837433470104678
 20
13.61779865365707
 30
0.0
 11
36.179945234104672
 21
13.61779865365707
 31
0.0
  0
LINE
  5
933
  8
0
 10
36.174494422904679
 20
13.778775819957071
 30
0.0
 11
35.509477716904676
 21
13.93077963845707
 31
0.0
  0
LINE
  5
934
  8
0
 10
35.49192823490467
 20
13.93275928355707
 30
0.0
 11
34.525452879504677
 21
13.93275928355707
 31
0.0
  0
LINE
  5
935
  8
0
 10
32.749070006413362
 20
13.97210731505707
 30
0.0
 11
35.52032927040468
 21
13.97210731505707
 31
0.0
  0
LINE
  5
936
  8
0
 10
33.842887147204671
 20
13.778775819957071
 30
0.0
 11
34.507903853304683
 21
13.93077963845707
 31
0.0
  0
LINE
  5
937
  8
0
 10
35.509959262404671
 20
15.19975626105707
 30
0.0
 11
32.749538816914402
 21
15.19975626105707
 31
0.0
  0
ARC
  5
938
  8
0
 10
34.525449114403919
 20
13.854019119008781
 30
0.0
 40
0.0787401646383132
 50
89.997260300588806
 51
102.87500126769029
  0
ARC
  5
939
  8
0
 10
35.49193245539778
 20
13.85401911720068
 30
0.0
 40
0.0787401664695004
 50
77.124998807243131
 51
90.003071068472806
  0
ARC
  5
93A
  8
0
 10
35.431919131675478
 20
13.9721293624279
 30
0.0
 40
0.0393700788708366
 50
180.032085822542
 51
269.9999997466133
  0
ARC
  5
93B
  8
0
 10
34.585462434064532
 20
13.97212937297641
 30
0.0
 40
0.0393700894193423
 50
270.00000657417092
 51
359.96789883467608
  0
ARC
  5
93C
  8
0
 10
36.170108107904682
 20
13.759585691857071
 30
0.0
 40
0.0196850394
 50
0.0
 51
77.124998440900285
  0
ARC
  5
93D
  8
0
 10
33.847273462204683
 20
13.759585691857071
 30
0.0
 40
0.0196850394
 50
102.8750015590997
 51
180.0
  0
ARC
  5
93E
  8
0
 10
32.750940981401989
 20
13.99366332944571
 30
0.0
 40
0.0216370585739191
 50
184.9606101997307
 51
265.03938980026868
  0
ARC
  5
93F
  8
0
 10
35.52032927040468
 20
13.99179235445707
 30
0.0
 40
0.0196850394
 50
270.0
 51
0.4999999999999975
  0
ARC
  5
940
  8
0
 10
36.179434988869161
 20
13.628157093174339
 30
0.0
 40
0.0103709989602354
 50
272.82004709970067
 51
357.1485645828464
  0
ARC
  5
941
  8
0
 10
33.83831324883203
 20
13.62852370593982
 30
0.0
 40
0.0107610760185377
 50
184.70419940889161
 51
265.31051249650051
  0
ARC
  5
942
  8
0
 10
32.749895110744802
 20
15.17922390583508
 30
0.0
 40
0.0205354463368917
 50
90.994142358991198
 51
177.15545517787399
  0
ARC
  5
943
  8
0
 10
35.509891796155081
 20
15.18000310801939
 30
0.0
 40
0.0197532682517302
 50
0.6958348840502299
 51
89.804308895749955
  0
ARC
  5
944
  8
0
 10
34.561527817962379
 20
13.990732085500531
 30
0.0
 40
0.0186756979857864
 50
176.2174031720956
 51
265.76772080899963
  0
ARC
  5
945
  8
0
 10
34.573646663672712
 20
15.178538468927281
 30
0.0
 40
0.0216752594453449
 50
101.79240319830851
 51
179.40305989656181
  0
LINE
  5
946
  8
0
 10
45.287995971346028
 20
15.18024300365707
 30
0.0
 11
45.287995971346028
 21
13.99179235445707
 31
0.0
  0
LINE
  5
947
  8
0
 10
44.189792515454698
 20
13.62764117335707
 30
0.0
 11
44.189792515454698
 21
13.759585691857071
 31
0.0
  0
LINE
  5
948
  8
0
 10
43.474488134354701
 20
13.991964136657071
 30
0.0
 11
43.465408357854713
 21
15.178764290057069
 31
0.0
  0
LINE
  5
949
  8
0
 10
42.487737330654703
 20
15.18024299785707
 30
0.0
 11
42.477367378154703
 21
13.991964136657071
 31
0.0
  0
LINE
  5
94A
  8
0
 10
41.827587791054697
 20
13.62764117335707
 30
0.0
 11
41.827587791054697
 21
13.759585691857071
 31
0.0
  0
LINE
  5
94B
  8
0
 10
44.179947468254703
 20
13.61779865365707
 30
0.0
 11
41.837435704254709
 21
13.61779865365707
 31
0.0
  0
LINE
  5
94C
  8
0
 10
41.842886515454701
 20
13.778775819957071
 30
0.0
 11
42.507903221454697
 21
13.93077963845707
 31
0.0
  0
LINE
  5
94D
  8
0
 10
42.525452703454697
 20
13.93275928355707
 30
0.0
 11
43.491928058854697
 21
13.93275928355707
 31
0.0
  0
LINE
  5
94E
  8
0
 10
45.268310931946019
 20
13.97210731505707
 30
0.0
 11
42.4970516679547
 21
13.97210731505707
 31
0.0
  0
LINE
  5
94F
  8
0
 10
44.174493791154703
 20
13.778775819957071
 30
0.0
 11
43.509477085054698
 21
13.93077963845707
 31
0.0
  0
LINE
  5
950
  8
0
 10
42.50742167595471
 20
15.19975626105707
 30
0.0
 11
45.267842121444971
 21
15.19975626105707
 31
0.0
  0
ARC
  5
951
  8
0
 10
43.491931823955461
 20
13.854019119008781
 30
0.0
 40
0.0787401646383132
 50
77.124998732309635
 51
90.00273969941037
  0
ARC
  5
952
  8
0
 10
42.525448482961593
 20
13.85401911720068
 30
0.0
 40
0.0787401664695004
 50
89.996928931528004
 51
102.875001192756
  0
ARC
  5
953
  8
0
 10
42.585461806683902
 20
13.9721293624279
 30
0.0
 40
0.0393700788708366
 50
270.00000025338591
 51
359.96791417745789
  0
ARC
  5
954
  8
0
 10
43.431918504294849
 20
13.97212937297641
 30
0.0
 40
0.0393700894193423
 50
180.03210116532389
 51
269.99999342582828
  0
ARC
  5
955
  8
0
 10
41.847272830454713
 20
13.759585691857071
 30
0.0
 40
0.0196850394
 50
102.8750015591005
 51
180.0
  0
ARC
  5
956
  8
0
 10
44.170107476154698
 20
13.759585691857071
 30
0.0
 40
0.0196850394
 50
0.0
 51
77.124998440899446
  0
ARC
  5
957
  8
0
 10
45.266439956957392
 20
13.99366332944571
 30
0.0
 40
0.0216370585739191
 50
274.96061019973132
 51
355.03938980026919
  0
ARC
  5
958
  8
0
 10
42.4970516679547
 20
13.99179235445707
 30
0.0
 40
0.0196850394
 50
179.5
 51
270.0
  0
ARC
  5
959
  8
0
 10
41.837945949490233
 20
13.628157093174339
 30
0.0
 40
0.0103709989602354
 50
182.85143541715351
 51
267.17995290029933
  0
ARC
  5
95A
  8
0
 10
44.179067689527351
 20
13.62852370593982
 30
0.0
 40
0.0107610760185377
 50
274.68948750349938
 51
355.29580059110828
  0
ARC
  5
95B
  8
0
 10
45.267485827614593
 20
15.17922390583508
 30
0.0
 40
0.0205354463368917
 50
2.8445448221259482
 51
89.005857641008006
  0
ARC
  5
95C
  8
0
 10
42.507489142204292
 20
15.18000310801939
 30
0.0
 40
0.0197532682517302
 50
90.195691104250045
 51
179.3041651159497
  0
ARC
  5
95D
  8
0
 10
43.455853120397002
 20
13.990732085500531
 30
0.0
 40
0.0186756979857864
 50
274.23227919100123
 51
3.7825968279044448
  0
ARC
  5
95E
  8
0
 10
43.443734274686662
 20
15.178538468927281
 30
0.0
 40
0.0216752594453449
 50
0.5969401034381212
 51
78.207596801690642
  0
LINE
  5
A35
  8
0
 10
33.827588422904668
 20
13.759585691857071
 30
0.0
 11
36.189793147304691
 21
13.759585691857071
 31
0.0
  0
LINE
  5
A36
  8
0
 10
41.827587791054697
 20
13.759585691857071
 30
0.0
 11
44.189792515454712
 21
13.759585691857071
 31
0.0
  0
ENDSEC
  0
EOF
