  0
SECTION
  2
HEADER
  9
$ACADVER
  1
AC1009
  9
$INSBASE
 10
61.8998151084765809
 20
14.4276694691135106
 30
0.0
  9
$EXTMIN
 10
60.7149982678103015
 20
14.4207692093046909
 30
-0.0015258207003583
  9
$EXTMAX
 10
63.0828426944776197
 20
24.7942801237295214
 30
0.0000000349246037
  9
$LIMMIN
 10
0.0
 20
0.0
  9
$LIMMAX
 10
11.6929133858000007
 20
8.2677165353999982
  9
$ORTHOMODE
 70
     1
  9
$REGENMODE
 70
     1
  9
$FILLMODE
 70
     1
  9
$QTEXTMODE
 70
     0
  9
$MIRRTEXT
 70
     0
  9
$DRAGMODE
 70
     2
  9
$LTSCALE
 40
0.6431102362
  9
$OSMODE
 70
  4095
  9
$ATTMODE
 70
     1
  9
$TEXTSIZE
 40
0.2
  9
$TRACEWID
 40
0.05
  9
$TEXTSTYLE
  7
STANDARD
  9
$CLAYER
  8
0
  9
$CELTYPE
  6
BYLAYER
  9
$CECOLOR
 62
   256
  9
$DIMSCALE
 40
1.0
  9
$DIMASZ
 40
0.1875
  9
$DIMEXO
 40
0.0625
  9
$DIMDLI
 40
0.4443307087
  9
$DIMRND
 40
0.0
  9
$DIMDLE
 40
0.0
  9
$DIMEXE
 40
0.125
  9
$DIMTP
 40
0.01
  9
$DIMTM
 40
0.01
  9
$DIMTXT
 40
1.0
  9
$DIMCEN
 40
0.1052362205
  9
$DIMTSZ
 40
0.0
  9
$DIMTOL
 70
     1
  9
$DIMLIM
 70
     0
  9
$DIMTIH
 70
     0
  9
$DIMTOH
 70
     1
  9
$DIMSE1
 70
     0
  9
$DIMSE2
 70
     0
  9
$DIMTAD
 70
     0
  9
$DIMZIN
 70
     0
  9
$DIMBLK
  1

  9
$DIMASO
 70
     1
  9
$DIMSHO
 70
     1
  9
$DIMPOST
  1
\X
  9
$DIMAPOST
  1

  9
$DIMALT
 70
     1
  9
$DIMALTD
 70
     2
  9
$DIMALTF
 40
25.3999999999999986
  9
$DIMLFAC
 40
1.0
  9
$DIMTOFL
 70
     0
  9
$DIMTVP
 40
0.0
  9
$DIMTIX
 70
     0
  9
$DIMSOXD
 70
     0
  9
$DIMSAH
 70
     0
  9
$DIMBLK1
  1

  9
$DIMBLK2
  1

  9
$DIMSTYLE
  2
STANDARD
  9
$DIMCLRD
 70
     0
  9
$DIMCLRE
 70
     0
  9
$DIMCLRT
 70
     0
  9
$DIMTFAC
 40
1.0
  9
$DIMGAP
 40
0.09
  9
$LUNITS
 70
     2
  9
$LUPREC
 70
     4
  9
$SKETCHINC
 40
0.1
  9
$FILLETRAD
 40
0.0
  9
$AUNITS
 70
     0
  9
$AUPREC
 70
     0
  9
$MENU
  1
.
  9
$ELEVATION
 40
0.0
  9
$PELEVATION
 40
0.0
  9
$THICKNESS
 40
0.0
  9
$LIMCHECK
 70
     0
  9
$BLIPMODE
 70
     0
  9
$CHAMFERA
 40
0.0
  9
$CHAMFERB
 40
0.0
  9
$SKPOLY
 70
     0
  9
$TDCREATE
 40
2458172.5207638889551163
  9
$TDUPDATE
 40
2459867.9940972221083939
  9
$TDINDWG
 40
0.0660412963
  9
$TDUSRTIMER
 40
0.0660412963
  9
$USRTIMER
 70
     1
  9
$ANGBASE
 50
0.0
  9
$ANGDIR
 70
     0
  9
$PDMODE
 70
     0
  9
$PDSIZE
 40
0.3125
  9
$PLINEWID
 40
0.0
  9
$COORDS
 70
     1
  9
$SPLFRAME
 70
     0
  9
$SPLINETYPE
 70
     6
  9
$SPLINESEGS
 70
     8
  9
$ATTDIA
 70
     1
  9
$ATTREQ
 70
     1
  9
$HANDLING
 70
     1
  9
$HANDSEED
  5
EB9
  9
$SURFTAB1
 70
     6
  9
$SURFTAB2
 70
     6
  9
$SURFTYPE
 70
     6
  9
$SURFU
 70
     6
  9
$SURFV
 70
     6
  9
$UCSNAME
  2

  9
$UCSORG
 10
0.0
 20
0.0
 30
0.0
  9
$UCSXDIR
 10
1.0
 20
0.0
 30
0.0
  9
$UCSYDIR
 10
0.0
 20
1.0
 30
0.0
  9
$PUCSNAME
  2

  9
$PUCSORG
 10
0.0
 20
0.0
 30
0.0
  9
$PUCSXDIR
 10
1.0
 20
0.0
 30
0.0
  9
$PUCSYDIR
 10
0.0
 20
1.0
 30
0.0
  9
$USERI1
 70
     0
  9
$USERI2
 70
     0
  9
$USERI3
 70
     0
  9
$USERI4
 70
     0
  9
$USERI5
 70
     0
  9
$USERR1
 40
0.0
  9
$USERR2
 40
0.0
  9
$USERR3
 40
0.0
  9
$USERR4
 40
0.0
  9
$USERR5
 40
0.0
  9
$WORLDVIEW
 70
     1
  9
$SHADEDGE
 70
     3
  9
$SHADEDIF
 70
    70
  9
$TILEMODE
 70
     1
  9
$MAXACTVP
 70
    64
  9
$PLIMCHECK
 70
     0
  9
$PEXTMIN
 10
1.0000000000000000E+20
 20
1.0000000000000000E+20
 30
1.0000000000000000E+20
  9
$PEXTMAX
 10
-1.0000000000000000E+20
 20
-1.0000000000000000E+20
 30
-1.0000000000000000E+20
  9
$PLIMMIN
 10
0.0
 20
0.0
  9
$PLIMMAX
 10
12.0
 20
9.0
  9
$UNITMODE
 70
     0
  9
$VISRETAIN
 70
     1
  9
$PLINEGEN
 70
     0
  9
$PSLTSCALE
 70
     1
  0
ENDSEC
  0
SECTION
  2
TABLES
  0
TABLE
  2
VPORT
 70
     1
  0
VPORT
  2
*ACTIVE
 70
     0
 10
0.0
 20
0.0
 11
1.0
 21
1.0
 12
-0.0008946273826194
 22
0.0004647742611539
 13
0.0
 23
0.0
 14
1.0
 24
1.0
 15
0.0
 25
0.0
 16
-0.0000000000000071
 26
0.0
 36
29.9165360186120388
 17
61.8998151085265818
 27
19.6070598922559505
 37
0.0
 40
10.4544485808572691
 41
2.095052083333333
 42
50.0
 43
0.0
 44
0.0
 50
0.0
 51
0.0
 71
     0
 72
   100
 73
     1
 74
     1
 75
     0
 76
     0
 77
     0
 78
     0
  0
ENDTAB
  0
TABLE
  2
LTYPE
 70
     2
  0
LTYPE
  2
CONTINUOUS
 70
     0
  3
Solid line
 72
    65
 73
     0
 40
0.0
  0
LTYPE
  2
PHANTOM2
 70
     0
  3
___ _ _ ___ _ _ ___ _ _ ___ _ _
 72
    65
 73
     6
 40
1.25
 49
0.625
 49
-0.125
 49
0.125
 49
-0.125
 49
0.125
 49
-0.125
  0
ENDTAB
  0
TABLE
  2
LAYER
 70
     2
  0
LAYER
  2
0
 70
     0
 62
   255
  6
CONTINUOUS
  0
LAYER
  2
DEFPOINTS
 70
     0
 62
     7
  6
CONTINUOUS
  0
ENDTAB
  0
TABLE
  2
STYLE
 70
     1
  0
STYLE
  2
STANDARD
 70
     0
 40
0.0
 41
0.8
 50
0.0
 71
     0
 42
0.2
  3
txt
  4

  0
ENDTAB
  0
TABLE
  2
VIEW
 70
     0
  0
ENDTAB
  0
TABLE
  2
UCS
 70
     0
  0
ENDTAB
  0
TABLE
  2
APPID
 70
    10
  0
APPID
  2
ACAD
 70
     0
  0
APPID
  2
ACAD_MLEADERVER
 70
     0
  0
APPID
  2
ACAD_EXEMPT_FROM_CAD_STANDARDS
 70
     0
  0
APPID
  2
ACAD_DSTYLE_DIMJAG
 70
     0
  0
APPID
  2
ACAD_DSTYLE_DIMTALN
 70
     0
  0
APPID
  2
ACAD_NAV_VCDISPLAY
 70
     0
  0
APPID
  2
ACAECLAYERSTANDARD
 70
     0
  0
APPID
  2
ACCMTRANSPARENCY
 70
     0
  0
APPID
  2
DCO15
 70
     0
  0
APPID
  2
ACDBATTR
 70
     0
  0
ENDTAB
  0
TABLE
  2
DIMSTYLE
 70
     1
  0
DIMSTYLE
  2
STANDARD
 70
     0
  3

  4

  5

  6

  7

 40
1.0
 41
0.1875
 42
0.0625
 43
0.38
 44
0.125
 45
0.0
 46
0.0
 47
0.01
 48
0.01
140
0.15625
141
0.09
142
0.0
143
25.3999999999999986
144
1.0
145
0.0
146
1.0
147
0.09
 71
     1
 72
     0
 73
     1
 74
     1
 75
     0
 76
     0
 77
     0
 78
     4
170
     0
171
     2
172
     0
173
     0
174
     0
175
     0
176
     0
177
     0
178
     0
  0
ENDTAB
  0
ENDSEC
  0
SECTION
  2
BLOCKS
  0
BLOCK
  8
0
  2
$MODEL_SPACE
 70
     0
 10
0.0
 20
0.0
 30
0.0
  3
$MODEL_SPACE
  1

  0
ENDBLK
  5
21
  8
0
  0
BLOCK
 67
     1
  8
0
  2
$PAPER_SPACE
 70
     0
 10
0.0
 20
0.0
 30
0.0
  3
$PAPER_SPACE
  1

  0
ENDBLK
  5
1D
 67
     1
  8
0
  0
ENDSEC
  0
SECTION
  2
ENTITIES
  0
ATTDEF
  5
829
  8
DEFPOINTS
 10
61.8945381939559667
 20
14.4255963567983798
 30
0.0
 40
0.001
  1
K-77968
  3

  2
MODELNUMBER
 70
     0
1001
ACDBATTR
1070
     0
1070
     1
  0
ATTDEF
  5
82A
  8
DEFPOINTS
 10
61.8945381939559667
 20
14.4239296901317093
 30
0.0
 40
0.001
  1
COMPONENTS
  3

  2
TRADENAME
 70
     0
1001
ACDBATTR
1070
     0
1070
     1
  0
ATTDEF
  5
82B
  8
DEFPOINTS
 10
61.8945381939559667
 20
14.4222630234650495
 30
0.0
 40
0.001
  1
BATHROOM SINK SPOUT
  3

  2
PRODUCT
 70
     0
1001
ACDBATTR
1070
     0
1070
     1
  0
LINE
  5
CE4
  8
0
 10
60.7187127462765801
 20
14.4276694691135106
 30
0.0
 11
63.0809174706765816
 21
14.4276694691135106
 31
0.0
  0
LINE
  5
CE5
  8
0
 10
63.0809174706765816
 20
14.5694017526135102
 30
0.0
 11
60.7187127462765801
 21
14.5694017526135102
 31
0.0
  0
LINE
  5
CE6
  8
0
 10
60.7337690038765814
 20
14.5885348431135107
 30
0.0
 11
61.2312557672765934
 21
14.7088895577135101
 31
0.0
  0
LINE
  5
CE7
  8
0
 10
61.2312557672765934
 20
14.7088895577135101
 30
0.0
 11
61.2335701581765832
 21
14.7091655321135093
 31
0.0
  0
LINE
  5
CE8
  8
0
 10
61.2335701581765832
 20
14.7091655321135093
 30
0.0
 11
61.2803781608765803
 21
14.7091655321135093
 31
0.0
  0
LINE
  5
CE9
  8
0
 10
62.5192520299765775
 20
14.7091655321135093
 30
0.0
 11
62.5660600587765785
 21
14.7091655321135093
 31
0.0
  0
LINE
  5
CEA
  8
0
 10
62.5683744496765826
 20
14.7088895577135101
 30
0.0
 11
62.5660600587765785
 21
14.7091655321135093
 31
0.0
  0
LINE
  5
CEB
  8
0
 10
63.0658612130765803
 20
14.5885348431135107
 30
0.0
 11
62.5683744496765826
 21
14.7088895577135101
 31
0.0
  0
LINE
  5
CEC
  8
0
 10
61.5076151000765776
 20
21.1216452292135095
 30
0.0
 11
61.5257993604765829
 21
21.1272599987135088
 31
0.0
  0
LINE
  5
CED
  8
0
 10
61.5269358767765766
 20
21.1191887675135099
 30
0.0
 11
61.5394375557765798
 21
21.1230489216135204
 31
0.0
  0
LINE
  5
CEE
  8
0
 10
60.7187127462765801
 20
14.4276694691135106
 30
0.0
 11
60.7187127462765801
 21
14.5694017526135102
 31
0.0
  0
LINE
  5
CEF
  8
0
 10
61.2748151084765809
 20
14.7091655321135093
 30
0.0
 11
61.2748151084765809
 21
24.783680908013519
 31
0.0
  0
LINE
  5
CF0
  8
0
 10
61.3269804628765769
 20
21.1134272062135118
 30
0.0
 11
61.3269804628765769
 21
21.1071105904135088
 31
0.0
  0
LINE
  5
CF1
  8
0
 10
61.5076151000765776
 20
21.1386936689135112
 30
0.0
 11
61.5076151000765776
 21
21.1216452292135095
 31
0.0
  0
LINE
  5
CF2
  8
0
 10
61.5257993604765829
 20
21.1272599987135088
 30
0.0
 11
61.5257993604765829
 21
21.1386936689135112
 31
0.0
  0
LINE
  5
CF3
  8
0
 10
61.842728494276578
 20
21.1163813828135112
 30
0.0
 11
61.842728494276578
 21
21.1230489216135204
 31
0.0
  0
LINE
  5
CF4
  8
0
 10
61.8624135336765804
 20
21.1230489216135204
 30
0.0
 11
61.8624135336765804
 21
21.1163813828135112
 31
0.0
  0
LINE
  5
CF5
  8
0
 10
61.9372166832765814
 20
21.1163813828135112
 30
0.0
 11
61.9372166832765814
 21
21.1230489216135204
 31
0.0
  0
LINE
  5
CF6
  8
0
 10
61.9569017226765766
 20
21.1230489216135204
 30
0.0
 11
61.9569017226765766
 21
21.1163813828135112
 31
0.0
  0
LINE
  5
CF7
  8
0
 10
62.273830856476593
 20
21.1386936689135112
 30
0.0
 11
62.273830856476593
 21
21.1272599987135088
 31
0.0
  0
LINE
  5
CF8
  8
0
 10
62.292015116976593
 20
21.1216452292135095
 30
0.0
 11
62.292015116976593
 21
21.1386936689135112
 31
0.0
  0
LINE
  5
CF9
  8
0
 10
62.5248151084765809
 20
24.783680908013519
 30
0.0
 11
62.5248151084765809
 21
14.7091655321135093
 31
0.0
  0
LINE
  5
CFA
  8
0
 10
63.0809174706765816
 20
14.4276694691135106
 30
0.0
 11
63.0809174706765816
 21
14.5694017526135102
 31
0.0
  0
LINE
  5
CFB
  8
0
 10
62.5149725887765797
 20
21.0716673579135083
 30
0.0
 11
61.284657628176582
 21
21.0716673579135083
 31
0.0
  0
LINE
  5
CFC
  8
0
 10
61.4687127461765925
 20
21.08184412771352
 30
0.0
 11
62.3309174707765834
 21
21.08184412771352
 31
0.0
  0
LINE
  5
CFD
  8
0
 10
61.4687127462765801
 20
21.1092988694135109
 30
0.0
 11
62.3309174705765798
 21
21.1092988694135109
 31
0.0
  0
LINE
  5
CFE
  8
0
 10
61.842728494276578
 20
21.1163813828135112
 30
0.0
 11
61.8624135336765804
 21
21.1163813828135112
 31
0.0
  0
LINE
  5
CFF
  8
0
 10
61.9372166832765814
 20
21.1163813828135112
 30
0.0
 11
61.9569017226765766
 21
21.1163813828135112
 31
0.0
  0
LINE
  5
D00
  8
0
 10
61.466744242376592
 20
21.1191887675135099
 30
0.0
 11
61.5269358767765766
 21
21.1191887675135099
 31
0.0
  0
LINE
  5
D01
  8
0
 10
62.2726943402765727
 20
21.1191887675135099
 30
0.0
 11
62.3328859746765929
 21
21.1191887675135099
 31
0.0
  0
LINE
  5
D02
  8
0
 10
61.5076151000765776
 20
21.1216452292135095
 30
0.0
 11
61.466744242376592
 21
21.1216452292135095
 31
0.0
  0
LINE
  5
D03
  8
0
 10
62.292015116976593
 20
21.1216452292135095
 30
0.0
 11
62.3328859746765929
 21
21.1216452292135095
 31
0.0
  0
LINE
  5
D04
  8
0
 10
61.5394375557765798
 20
21.1230489216135204
 30
0.0
 11
61.842728494276578
 21
21.1230489216135204
 31
0.0
  0
LINE
  5
D05
  8
0
 10
61.8624135336765804
 20
21.1230489216135204
 30
0.0
 11
61.9372166832765814
 21
21.1230489216135204
 31
0.0
  0
LINE
  5
D06
  8
0
 10
61.9569017226765766
 20
21.1230489216135204
 30
0.0
 11
62.2601926611765819
 21
21.1230489216135204
 31
0.0
  0
LINE
  5
D07
  8
0
 10
61.5257993604765829
 20
21.1272599987135088
 30
0.0
 11
62.273830856476593
 21
21.1272599987135088
 31
0.0
  0
LINE
  5
D08
  8
0
 10
62.3309174707765834
 20
21.1386936689135112
 30
0.0
 11
61.4687127461765925
 21
21.1386936689135112
 31
0.0
  0
LINE
  5
D09
  8
0
 10
61.284657628176582
 20
21.1488704387135193
 30
0.0
 11
62.5149725887765797
 21
21.1488704387135193
 31
0.0
  0
LINE
  5
D0A
  8
0
 10
62.2601926611765819
 20
21.1230489216135204
 30
0.0
 11
62.2726943402765727
 21
21.1191887675135099
 31
0.0
  0
LINE
  5
D0B
  8
0
 10
62.273830856476593
 20
21.1272599987135088
 30
0.0
 11
62.292015116976593
 21
21.1216452292135095
 31
0.0
  0
LINE
  5
D0C
  8
0
 10
61.284657628176582
 20
24.7935234277135201
 30
0.0
 11
62.5149725887765797
 21
24.7935234277135201
 31
0.0
  0
ARC
  5
D0D
  8
0
 10
63.0612324313765811
 20
14.5694017526135102
 30
0.0
 40
0.0196850394
 50
0.0
 51
76.4000000001000927
  0
ARC
  5
D0E
  8
0
 10
60.7383977856765824
 20
14.5694017526135102
 30
0.0
 40
0.0196850394
 50
103.5999999998998931
 51
180.0
  0
ARC
  5
D0F
  8
0
 10
61.284657628176582
 20
24.783680908013519
 30
0.0
 40
0.0098425197
 50
90.0
 51
180.0
  0
ARC
  5
D10
  8
0
 10
62.5149725887765797
 20
24.783680908013519
 30
0.0
 40
0.0098425197
 50
0.0
 51
90.0
  0
ARC
  5
D11
  8
0
 10
62.1411981519081635
 20
11.3776267820773906
 30
0.0
 40
3.4409535742221058
 50
94.0226052715434975
 51
104.4875142696224941
  0
ARC
  5
D12
  8
0
 10
61.6584321557142516
 20
11.3776275610841502
 30
0.0
 40
3.4409527907740078
 50
75.5124843678629958
 51
85.9773953245427549
  0
ARC
  5
D13
  8
0
 10
61.2830992124258316
 20
21.1291292492214211
 30
0.0
 40
0.0198026064500363
 50
85.486297697955294
 51
114.7294517676076993
  0
ARC
  5
D14
  8
0
 10
61.2831078568541301
 20
21.0914570383461601
 30
0.0
 40
0.0198502705970954
 50
245.3064369387855095
 51
274.477813595670284
  0
ARC
  5
D15
  8
0
 10
62.5165090453791379
 20
21.1290060693289306
 30
0.0
 40
0.019923701210846
 50
65.3613791249851488
 51
94.4228714094673904
  0
ARC
  5
D16
  8
0
 10
62.516531004527323
 20
21.0914085474056705
 30
0.0
 40
0.0198026064500967
 50
265.4862976979973723
 51
294.7294517675601924
  0
ARC
  5
D17
  8
0
 10
61.3512830735570631
 20
21.0975530175112489
 30
0.0
 40
0.0290276894161731
 50
99.8126914416450006
 51
146.8478875999797992
  0
ARC
  5
D18
  8
0
 10
61.4581739917458805
 20
20.6380459174351216
 30
0.0
 40
0.5007586608390583
 50
88.7940882896574237
 51
102.9051194199168009
  0
ARC
  5
D19
  8
0
 10
61.3512830735570631
 20
21.1229847791157788
 30
0.0
 40
0.0290276894161731
 50
213.1521124000202008
 51
260.1873085583550278
  0
ARC
  5
D1A
  8
0
 10
61.4581739917458805
 20
21.5824918791919096
 30
0.0
 40
0.5007586608390583
 50
257.0948805800832133
 51
271.2059117103426047
  0
LINE
  5
D1B
  8
0
 10
62.4726497540765919
 20
21.1134272062135118
 30
0.0
 11
62.4726497540765919
 21
21.1071105904135088
 31
0.0
  0
ARC
  5
D1C
  8
0
 10
62.4483471433961128
 20
21.0975530175112489
 30
0.0
 40
0.0290276894161731
 50
33.1521124000202008
 51
80.1873085583550136
  0
ARC
  5
D1D
  8
0
 10
62.3414562252072812
 20
20.6380459174351216
 30
0.0
 40
0.5007586608390583
 50
77.0948805800831991
 51
91.2059117103426047
  0
ARC
  5
D1E
  8
0
 10
62.4483471433961128
 20
21.1229847791157788
 30
0.0
 40
0.0290276894161731
 50
279.8126914416449722
 51
326.8478875999797992
  0
ARC
  5
D1F
  8
0
 10
62.3414562252072812
 20
21.5824918791919096
 30
0.0
 40
0.5007586608390583
 50
268.7940882896573953
 51
282.9051194199167867
  0
ARC
  5
D20
  8
0
 10
61.4522777594814613
 20
21.3901397725531091
 30
0.0
 40
0.2813213850158186
 50
249.0731497944275077
 51
273.3491653867155833
  0
ARC
  5
D21
  8
0
 10
62.347192327683743
 20
21.3911754796039091
 30
0.0
 40
0.2823460542424608
 50
266.6955523118691076
 51
290.8821325894172105
  0
ARC
  5
D22
  8
0
 10
61.4561620110507221
 20
21.4265557166848986
 30
0.0
 40
0.3075490612288712
 50
253.8720598348633928
 51
271.9718379031679092
  0
ARC
  5
D23
  8
0
 10
62.3433832203948697
 20
21.4272401579518501
 30
0.0
 40
0.308230192094572
 50
268.0483281105485958
 51
286.1077741913990735
  0
ARC
  5
D24
  8
0
 10
61.4566813353509929
 20
21.3707549968445001
 30
0.0
 40
0.2493129326745453
 50
252.5249103778403992
 51
272.313232452720797
  0
ARC
  5
D25
  8
0
 10
62.3429696012206094
 20
21.3705993125848899
 30
0.0
 40
0.2491582131931679
 50
267.6805618105714757
 51
287.4812955537278185
  0
ENDSEC
  0
EOF
