  0
SECTION
  2
HEADER
  9
$ACADVER
  1
AC1009
  9
$INSBASE
 10
19.86969972715001
 20
-1.9114613620000029
 30
0.0
  9
$EXTMIN
 10
13.007899585000001
 20
-1.922825256621592
 30
0.0
  9
$EXTMAX
 10
21.050802089449999
 20
12.224069950073
 30
0.0
  9
$LIMMIN
 10
0.0
 20
0.0
  9
$LIMMAX
 10
11.692913385800001
 20
8.2677165353999982
  9
$ORTHOMODE
 70
     1
  9
$REGENMODE
 70
     1
  9
$FILLMODE
 70
     1
  9
$QTEXTMODE
 70
     0
  9
$MIRRTEXT
 70
     0
  9
$DRAGMODE
 70
     2
  9
$LTSCALE
 40
0.6431102362
  9
$OSMODE
 70
  3071
  9
$ATTMODE
 70
     1
  9
$TEXTSIZE
 40
0.2
  9
$TRACEWID
 40
0.05
  9
$TEXTSTYLE
  7
STANDARD
  9
$CLAYER
  8
0
  9
$CELTYPE
  6
BYLAYER
  9
$CECOLOR
 62
   256
  9
$DIMSCALE
 40
1.0
  9
$DIMASZ
 40
0.1875
  9
$DIMEXO
 40
0.0625
  9
$DIMDLI
 40
0.4443307087
  9
$DIMRND
 40
0.0
  9
$DIMDLE
 40
0.0
  9
$DIMEXE
 40
0.125
  9
$DIMTP
 40
0.0
  9
$DIMTM
 40
0.0
  9
$DIMTXT
 40
1.0
  9
$DIMCEN
 40
0.1052362205
  9
$DIMTSZ
 40
0.0
  9
$DIMTOL
 70
     0
  9
$DIMLIM
 70
     0
  9
$DIMTIH
 70
     1
  9
$DIMTOH
 70
     1
  9
$DIMSE1
 70
     0
  9
$DIMSE2
 70
     0
  9
$DIMTAD
 70
     0
  9
$DIMZIN
 70
     0
  9
$DIMBLK
  1

  9
$DIMASO
 70
     1
  9
$DIMSHO
 70
     1
  9
$DIMPOST
  1
\X
  9
$DIMAPOST
  1

  9
$DIMALT
 70
     1
  9
$DIMALTD
 70
     2
  9
$DIMALTF
 40
25.399999999999999
  9
$DIMLFAC
 40
1.0
  9
$DIMTOFL
 70
     0
  9
$DIMTVP
 40
0.0
  9
$DIMTIX
 70
     0
  9
$DIMSOXD
 70
     0
  9
$DIMSAH
 70
     0
  9
$DIMBLK1
  1

  9
$DIMBLK2
  1

  9
$DIMSTYLE
  2
STANDARD
  9
$DIMCLRD
 70
     0
  9
$DIMCLRE
 70
     0
  9
$DIMCLRT
 70
     0
  9
$DIMTFAC
 40
1.0
  9
$DIMGAP
 40
0.09
  9
$LUNITS
 70
     2
  9
$LUPREC
 70
     4
  9
$SKETCHINC
 40
0.1
  9
$FILLETRAD
 40
0.0
  9
$AUNITS
 70
     0
  9
$AUPREC
 70
     0
  9
$MENU
  1
.
  9
$ELEVATION
 40
0.0
  9
$PELEVATION
 40
0.0
  9
$THICKNESS
 40
0.0
  9
$LIMCHECK
 70
     0
  9
$BLIPMODE
 70
     0
  9
$CHAMFERA
 40
0.0
  9
$CHAMFERB
 40
0.0
  9
$SKPOLY
 70
     0
  9
$TDCREATE
 40
2458302.5232868632
  9
$TDUPDATE
 40
2458342.7039338201
  9
$TDINDWG
 40
0.0983298958
  9
$TDUSRTIMER
 40
0.0983298958
  9
$USRTIMER
 70
     1
  9
$ANGBASE
 50
0.0
  9
$ANGDIR
 70
     0
  9
$PDMODE
 70
     0
  9
$PDSIZE
 40
0.3125
  9
$PLINEWID
 40
0.0
  9
$COORDS
 70
     1
  9
$SPLFRAME
 70
     0
  9
$SPLINETYPE
 70
     6
  9
$SPLINESEGS
 70
     8
  9
$ATTDIA
 70
     1
  9
$ATTREQ
 70
     1
  9
$HANDLING
 70
     1
  9
$HANDSEED
  5
2108
  9
$SURFTAB1
 70
     6
  9
$SURFTAB2
 70
     6
  9
$SURFTYPE
 70
     6
  9
$SURFU
 70
     6
  9
$SURFV
 70
     6
  9
$UCSNAME
  2

  9
$UCSORG
 10
0.0
 20
0.0
 30
0.0
  9
$UCSXDIR
 10
1.0
 20
0.0
 30
0.0
  9
$UCSYDIR
 10
0.0
 20
1.0
 30
0.0
  9
$PUCSNAME
  2

  9
$PUCSORG
 10
0.0
 20
0.0
 30
0.0
  9
$PUCSXDIR
 10
1.0
 20
0.0
 30
0.0
  9
$PUCSYDIR
 10
0.0
 20
1.0
 30
0.0
  9
$USERI1
 70
     0
  9
$USERI2
 70
     0
  9
$USERI3
 70
     0
  9
$USERI4
 70
     0
  9
$USERI5
 70
     0
  9
$USERR1
 40
0.0
  9
$USERR2
 40
0.0
  9
$USERR3
 40
0.0
  9
$USERR4
 40
0.0
  9
$USERR5
 40
0.0
  9
$WORLDVIEW
 70
     1
  9
$SHADEDGE
 70
     3
  9
$SHADEDIF
 70
    70
  9
$TILEMODE
 70
     1
  9
$MAXACTVP
 70
    48
  9
$PLIMCHECK
 70
     0
  9
$PEXTMIN
 10
1.0000000000000000E+020
 20
1.0000000000000000E+020
 30
1.0000000000000000E+020
  9
$PEXTMAX
 10
-1.0000000000000000E+020
 20
-1.0000000000000000E+020
 30
-1.0000000000000000E+020
  9
$PLIMMIN
 10
0.0
 20
0.0
  9
$PLIMMAX
 10
12.0
 20
9.0
  9
$UNITMODE
 70
     0
  9
$VISRETAIN
 70
     1
  9
$PLINEGEN
 70
     0
  9
$PSLTSCALE
 70
     1
  0
ENDSEC
  0
SECTION
  2
TABLES
  0
TABLE
  2
VPORT
 70
     1
  0
VPORT
  2
*ACTIVE
 70
     0
 10
0.0
 20
0.0
 11
1.0
 21
1.0
 12
2.8396604885660381
 22
-7.0772055672596892
 13
0.0
 23
0.0
 14
1.0
 24
1.0
 15
0.0
 25
0.0
 16
-0.0000000000000107
 26
0.0
 36
45.404275753954217
 17
17.029350757598881
 27
5.1561167240142822
 37
0.0
 40
0.0144941996009247
 41
2.0508658008657998
 42
50.0
 43
0.0
 44
0.0
 50
0.0
 51
0.0
 71
     0
 72
   100
 73
     1
 74
     1
 75
     0
 76
     0
 77
     0
 78
     0
  0
ENDTAB
  0
TABLE
  2
LTYPE
 70
     2
  0
LTYPE
  2
CONTINUOUS
 70
     0
  3
Solid line
 72
    65
 73
     0
 40
0.0
  0
LTYPE
  2
PHANTOM2
 70
     0
  3
___ _ _ ___ _ _ ___ _ _ ___ _ _
 72
    65
 73
     6
 40
1.25
 49
0.625
 49
-0.125
 49
0.125
 49
-0.125
 49
0.125
 49
-0.125
  0
ENDTAB
  0
TABLE
  2
LAYER
 70
     2
  0
LAYER
  2
0
 70
     0
 62
     7
  6
CONTINUOUS
  0
LAYER
  2
DEFPOINTS
 70
     0
 62
     7
  6
CONTINUOUS
  0
ENDTAB
  0
TABLE
  2
STYLE
 70
     1
  0
STYLE
  2
STANDARD
 70
     0
 40
0.0
 41
0.8
 50
0.0
 71
     0
 42
0.2
  3
txt
  4

  0
ENDTAB
  0
TABLE
  2
VIEW
 70
     0
  0
ENDTAB
  0
TABLE
  2
UCS
 70
     0
  0
ENDTAB
  0
TABLE
  2
APPID
 70
     8
  0
APPID
  2
ACAD
 70
     0
  0
APPID
  2
ACAD_MLEADERVER
 70
     0
  0
APPID
  2
ACAD_NAV_VCDISPLAY
 70
     0
  0
APPID
  2
ACAD_DSTYLE_DIMJAG
 70
     0
  0
APPID
  2
ACAD_DSTYLE_DIMTALN
 70
     0
  0
APPID
  2
ACAD_EXEMPT_FROM_CAD_STANDARDS
 70
     0
  0
APPID
  2
ACDBATTR
 70
     0
  0
APPID
  2
ACADANNOTATIVE
 70
     0
  0
ENDTAB
  0
TABLE
  2
DIMSTYLE
 70
     2
  0
DIMSTYLE
  2
STANDARD
 70
     0
  3

  4

  5

  6

  7

 40
1.0
 41
0.1875
 42
0.0625
 43
0.38
 44
0.125
 45
0.0
 46
0.0
 47
1.5
 48
1.5
140
0.15625
141
0.09
142
0.0
143
25.399999999999999
144
1.0
145
0.0
146
1.0
147
0.09
 71
     0
 72
     0
 73
     1
 74
     1
 75
     0
 76
     0
 77
     0
 78
     4
170
     0
171
     2
172
     0
173
     0
174
     0
175
     0
176
     0
177
     0
178
     0
  0
DIMSTYLE
  2
ANNOTATIVE
 70
     0
  3

  4

  5

  6

  7

 40
0.0
 41
0.18
 42
0.0625
 43
0.38
 44
0.18
 45
0.0
 46
0.0
 47
0.0
 48
0.0
140
0.18
141
0.09
142
0.0
143
25.399999999999999
144
1.0
145
0.0
146
1.0
147
0.09
 71
     0
 72
     0
 73
     1
 74
     1
 75
     0
 76
     0
 77
     0
 78
     0
170
     0
171
     2
172
     0
173
     0
174
     0
175
     0
176
     0
177
     0
178
     0
  0
ENDTAB
  0
ENDSEC
  0
SECTION
  2
BLOCKS
  0
BLOCK
  8
0
  2
$MODEL_SPACE
 70
     0
 10
0.0
 20
0.0
 30
0.0
  3
$MODEL_SPACE
  1

  0
ENDBLK
  5
21
  8
0
  0
BLOCK
 67
     1
  8
0
  2
$PAPER_SPACE
 70
     0
 10
0.0
 20
0.0
 30
0.0
  3
$PAPER_SPACE
  1

  0
ENDBLK
  5
1D
 67
     1
  8
0
  0
ENDSEC
  0
SECTION
  2
ENTITIES
  0
ATTDEF
  5
1C99
  8
DEFPOINTS
 10
19.865062996974729
 20
-1.917825256621597
 30
0.0
 40
0.001
  1
K-77966
  3

  2
MODELNUMBER
 70
     0
1001
ACDBATTR
1070
     0
1070
     1
  0
ATTDEF
  5
1C9A
  8
DEFPOINTS
 10
19.865062996974729
 20
-1.9194919232882619
 30
0.0
 40
0.001
  1
COMPONENTS
  3

  2
TRADENAME
 70
     0
1001
ACDBATTR
1070
     0
1070
     1
  0
ATTDEF
  5
1C9B
  8
DEFPOINTS
 10
19.865062996974729
 20
-1.9211585899549271
 30
0.0
 40
0.001
  1
BATHROOM SINK SPOUT
  3

  2
PRODUCT
 70
     0
1001
ACDBATTR
1070
     0
1070
     1
  0
ATTDEF
  5
1C9C
  8
DEFPOINTS
 10
19.865062996974729
 20
-1.922825256621592
 30
0.0
 40
0.001
  1
METAL
  3

  2
MATERIAL
 70
     0
1001
ACDBATTR
1070
     0
1070
     1
  0
LINE
  5
1CFC
  8
0
 10
21.050802089350011
 20
-1.9114613620000029
 30
0.0
 11
18.688597364949999
 21
-1.9114613620000029
 31
0.0
  0
LINE
  5
1CFD
  8
0
 10
18.688597364949999
 20
-1.9114613620000029
 30
0.0
 11
18.688597364850001
 21
-1.7697290785138891
 31
0.0
  0
ARC
  5
1CFE
  8
0
 10
18.70828240559047
 20
-1.769729078964253
 30
0.0
 40
0.0196850407404589
 50
103.5861629465185
 51
179.99999868915791
  0
LINE
  5
1CFF
  8
0
 10
18.703658244331859
 20
-1.7505948697669029
 30
0.0
 11
19.619344523496459
 21
-1.529068222294852
 31
0.0
  0
ARC
  5
1D00
  8
0
 10
19.621661621506469
 20
-1.538645957268661
 30
0.0
 40
0.0098540321907574
 50
0.0840285379638605
 51
103.6000003474863
  0
LINE
  5
1D01
  8
0
 10
19.631515643099998
 20
-1.5386315055999991
 30
0.0
 11
19.631515643099998
 21
-1.6299652007777741
 31
0.0
  0
LINE
  5
1D02
  8
0
 10
19.631515643099998
 20
-1.6299652007777741
 30
0.0
 11
20.107883811200001
 21
-1.6299652007777741
 31
0.0
  0
LINE
  5
1D03
  8
0
 10
18.688597364749999
 20
-1.7697290785138891
 30
0.0
 11
21.050802089449999
 21
-1.7697290803555989
 31
0.0
  0
LINE
  5
1D04
  8
0
 10
19.65322323189999
 20
-1.6299652052535629
 30
0.0
 11
19.6532232319
 21
8.7494704387999995
 31
0.0
  0
ARC
  5
1D05
  8
0
 10
16.611643871790559
 20
8.749419722711778
 30
0.0
 40
3.0415793605322641
 50
0.0009553647837995
 51
169.73018778711591
  0
LINE
  5
1D06
  8
0
 10
13.61879332566507
 20
9.291684063206441
 30
0.0
 11
13.4340344635
 21
8.2725211685862092
 31
0.0
  0
LINE
  5
1D07
  8
0
 10
13.4340344635
 20
8.2725211685862092
 30
0.0
 11
13.007899585000001
 21
8.3497235847862115
 31
0.0
  0
LINE
  5
1D08
  8
0
 10
13.007899585000001
 20
8.3497235847862115
 30
0.0
 11
13.192659346643691
 21
9.3688864806783858
 31
0.0
  0
ARC
  5
1D09
  8
0
 10
16.611643867900781
 20
8.7494197195036136
 30
0.0
 40
3.4746502305693898
 50
0.0008363436402846
 51
169.73030679844589
  0
LINE
  5
1D0A
  8
0
 10
20.086294098100002
 20
8.7494704387999995
 30
0.0
 11
20.086294024450861
 21
-1.629965294546275
 31
0.0
  0
LINE
  5
1D0B
  8
0
 10
21.05080208935
 20
-1.9114613620000029
 30
0.0
 11
21.050802089449999
 21
-1.7697290803556001
 31
0.0
  0
ARC
  5
1D0C
  8
0
 10
21.031117044691349
 20
-1.7697290803555989
 30
0.0
 40
0.0196850447586528
 50
0.0000000000006463
 51
76.413827444692956
  0
LINE
  5
1D0D
  8
0
 10
21.03574121010276
 20
-1.750594868027993
 30
0.0
 11
20.12005493080353
 21
-1.529068222294852
 31
0.0
  0
ARC
  5
1D0E
  8
0
 10
20.117737832793541
 20
-1.538645957268661
 30
0.0
 40
0.0098540321907574
 50
76.399999652513884
 51
179.91597146203611
  0
LINE
  5
1D0F
  8
0
 10
20.107883811200001
 20
-1.5386315055999991
 30
0.0
 11
20.107883811200001
 21
-1.6299652007777741
 31
0.0
  0
ENDSEC
  0
EOF
