  0
SECTION
  2
HEADER
  9
$ACADVER
  1
AC1009
  9
$INSBASE
 10
82.459050526123136
 20
53.937280541299998
 30
0.0
  9
$EXTMIN
 10
76.32213799950749
 20
44.751339105100001
 30
0.0
  9
$EXTMAX
 10
87.765540142210568
 20
53.943936497023003
 30
0.0
  9
$LIMMIN
 10
0.0
 20
0.0
  9
$LIMMAX
 10
11.692913385800001
 20
8.2677165353999982
  9
$ORTHOMODE
 70
     0
  9
$REGENMODE
 70
     1
  9
$FILLMODE
 70
     1
  9
$QTEXTMODE
 70
     0
  9
$MIRRTEXT
 70
     0
  9
$DRAGMODE
 70
     2
  9
$LTSCALE
 40
0.6431102362
  9
$OSMODE
 70
  3071
  9
$ATTMODE
 70
     1
  9
$TEXTSIZE
 40
0.2
  9
$TRACEWID
 40
0.05
  9
$TEXTSTYLE
  7
STANDARD
  9
$CLAYER
  8
0
  9
$CELTYPE
  6
BYLAYER
  9
$CECOLOR
 62
   256
  9
$DIMSCALE
 40
1.0
  9
$DIMASZ
 40
0.1875
  9
$DIMEXO
 40
0.0625
  9
$DIMDLI
 40
0.4443307087
  9
$DIMRND
 40
0.0
  9
$DIMDLE
 40
0.0
  9
$DIMEXE
 40
0.125
  9
$DIMTP
 40
0.01
  9
$DIMTM
 40
0.01
  9
$DIMTXT
 40
1.0
  9
$DIMCEN
 40
0.1052362205
  9
$DIMTSZ
 40
0.0
  9
$DIMTOL
 70
     1
  9
$DIMLIM
 70
     0
  9
$DIMTIH
 70
     1
  9
$DIMTOH
 70
     1
  9
$DIMSE1
 70
     0
  9
$DIMSE2
 70
     0
  9
$DIMTAD
 70
     0
  9
$DIMZIN
 70
     0
  9
$DIMBLK
  1

  9
$DIMASO
 70
     1
  9
$DIMSHO
 70
     1
  9
$DIMPOST
  1
\X
  9
$DIMAPOST
  1

  9
$DIMALT
 70
     1
  9
$DIMALTD
 70
     2
  9
$DIMALTF
 40
25.399999999999999
  9
$DIMLFAC
 40
1.0
  9
$DIMTOFL
 70
     0
  9
$DIMTVP
 40
0.0
  9
$DIMTIX
 70
     0
  9
$DIMSOXD
 70
     0
  9
$DIMSAH
 70
     0
  9
$DIMBLK1
  1

  9
$DIMBLK2
  1

  9
$DIMSTYLE
  2
STANDARD
  9
$DIMCLRD
 70
     0
  9
$DIMCLRE
 70
     0
  9
$DIMCLRT
 70
     0
  9
$DIMTFAC
 40
1.0
  9
$DIMGAP
 40
0.09
  9
$LUNITS
 70
     2
  9
$LUPREC
 70
     4
  9
$SKETCHINC
 40
0.1
  9
$FILLETRAD
 40
0.0
  9
$AUNITS
 70
     0
  9
$AUPREC
 70
     0
  9
$MENU
  1
.
  9
$ELEVATION
 40
0.0
  9
$PELEVATION
 40
0.0
  9
$THICKNESS
 40
0.0
  9
$LIMCHECK
 70
     0
  9
$BLIPMODE
 70
     0
  9
$CHAMFERA
 40
0.0
  9
$CHAMFERB
 40
0.0
  9
$SKPOLY
 70
     0
  9
$TDCREATE
 40
2458257.5296706371
  9
$TDUPDATE
 40
2458257.7210750352
  9
$TDINDWG
 40
0.1894305208
  9
$TDUSRTIMER
 40
0.1894305208
  9
$USRTIMER
 70
     1
  9
$ANGBASE
 50
0.0
  9
$ANGDIR
 70
     0
  9
$PDMODE
 70
     0
  9
$PDSIZE
 40
0.3125
  9
$PLINEWID
 40
0.0
  9
$COORDS
 70
     1
  9
$SPLFRAME
 70
     0
  9
$SPLINETYPE
 70
     6
  9
$SPLINESEGS
 70
     8
  9
$ATTDIA
 70
     1
  9
$ATTREQ
 70
     1
  9
$HANDLING
 70
     1
  9
$HANDSEED
  5
71CF
  9
$SURFTAB1
 70
     6
  9
$SURFTAB2
 70
     6
  9
$SURFTYPE
 70
     6
  9
$SURFU
 70
     6
  9
$SURFV
 70
     6
  9
$UCSNAME
  2

  9
$UCSORG
 10
0.0
 20
0.0
 30
0.0
  9
$UCSXDIR
 10
1.0
 20
0.0
 30
0.0
  9
$UCSYDIR
 10
0.0
 20
1.0
 30
0.0
  9
$PUCSNAME
  2

  9
$PUCSORG
 10
0.0
 20
0.0
 30
0.0
  9
$PUCSXDIR
 10
1.0
 20
0.0
 30
0.0
  9
$PUCSYDIR
 10
0.0
 20
1.0
 30
0.0
  9
$USERI1
 70
     0
  9
$USERI2
 70
     0
  9
$USERI3
 70
     0
  9
$USERI4
 70
     0
  9
$USERI5
 70
     0
  9
$USERR1
 40
0.0
  9
$USERR2
 40
0.0
  9
$USERR3
 40
0.0
  9
$USERR4
 40
0.0
  9
$USERR5
 40
0.0
  9
$WORLDVIEW
 70
     1
  9
$SHADEDGE
 70
     3
  9
$SHADEDIF
 70
    70
  9
$TILEMODE
 70
     1
  9
$MAXACTVP
 70
    64
  9
$PLIMCHECK
 70
     0
  9
$PEXTMIN
 10
1.0000000000000000E+020
 20
1.0000000000000000E+020
 30
1.0000000000000000E+020
  9
$PEXTMAX
 10
-1.0000000000000000E+020
 20
-1.0000000000000000E+020
 30
-1.0000000000000000E+020
  9
$PLIMMIN
 10
0.0
 20
0.0
  9
$PLIMMAX
 10
12.0
 20
9.0
  9
$UNITMODE
 70
     0
  9
$VISRETAIN
 70
     1
  9
$PLINEGEN
 70
     0
  9
$PSLTSCALE
 70
     1
  0
ENDSEC
  0
SECTION
  2
TABLES
  0
TABLE
  2
VPORT
 70
     1
  0
VPORT
  2
*ACTIVE
 70
     0
 10
0.0
 20
0.0
 11
1.0
 21
1.0
 12
0.0
 22
0.0
 13
0.0
 23
0.0
 14
1.0
 24
1.0
 15
0.0
 25
0.0
 16
-0.0000000000000142
 26
0.0
 36
41.311872194333411
 17
82.043839070859036
 27
49.347637801061502
 37
0.0
 40
14.687207539872549
 41
2.1006711409395971
 42
50.0
 43
0.0
 44
0.0
 50
0.0
 51
0.0
 71
     0
 72
   100
 73
     1
 74
     1
 75
     0
 76
     0
 77
     0
 78
     0
  0
ENDTAB
  0
TABLE
  2
LTYPE
 70
     2
  0
LTYPE
  2
CONTINUOUS
 70
     0
  3
Solid line
 72
    65
 73
     0
 40
0.0
  0
LTYPE
  2
PHANTOM2
 70
     0
  3
___ _ _ ___ _ _ ___ _ _ ___ _ _
 72
    65
 73
     6
 40
1.25
 49
0.625
 49
-0.125
 49
0.125
 49
-0.125
 49
0.125
 49
-0.125
  0
ENDTAB
  0
TABLE
  2
LAYER
 70
     2
  0
LAYER
  2
0
 70
     0
 62
   255
  6
CONTINUOUS
  0
LAYER
  2
DEFPOINTS
 70
     0
 62
     7
  6
CONTINUOUS
  0
ENDTAB
  0
TABLE
  2
STYLE
 70
     1
  0
STYLE
  2
STANDARD
 70
     0
 40
0.0
 41
0.8
 50
0.0
 71
     0
 42
0.2
  3
txt
  4

  0
ENDTAB
  0
TABLE
  2
VIEW
 70
     0
  0
ENDTAB
  0
TABLE
  2
UCS
 70
     0
  0
ENDTAB
  0
TABLE
  2
APPID
 70
     9
  0
APPID
  2
ACAD
 70
     0
  0
APPID
  2
ACAD_MLEADERVER
 70
     0
  0
APPID
  2
ACAD_EXEMPT_FROM_CAD_STANDARDS
 70
     0
  0
APPID
  2
ACAD_DSTYLE_DIMJAG
 70
     0
  0
APPID
  2
ACAD_DSTYLE_DIMTALN
 70
     0
  0
APPID
  2
ACAD_NAV_VCDISPLAY
 70
     0
  0
APPID
  2
ACAECLAYERSTANDARD
 70
     0
  0
APPID
  2
ACCMTRANSPARENCY
 70
     0
  0
APPID
  2
AcDbAttr
 70
     0
  0
ENDTAB
  0
TABLE
  2
DIMSTYLE
 70
     1
  0
DIMSTYLE
  2
STANDARD
 70
     0
  3

  4

  5

  6

  7

 40
1.0
 41
0.1875
 42
0.0625
 43
0.38
 44
0.125
 45
0.0
 46
0.0
 47
0.01
 48
0.01
140
0.15625
141
0.09
142
0.0
143
25.399999999999999
144
1.0
145
0.0
146
1.0
147
0.09
 71
     1
 72
     0
 73
     1
 74
     1
 75
     0
 76
     0
 77
     0
 78
     4
170
     0
171
     2
172
     0
173
     0
174
     0
175
     0
176
     0
177
     0
178
     0
  0
ENDTAB
  0
ENDSEC
  0
SECTION
  2
BLOCKS
  0
BLOCK
  8
0
  2
$MODEL_SPACE
 70
     0
 10
0.0
 20
0.0
 30
0.0
  3
$MODEL_SPACE
  1

  0
ENDBLK
  5
21
  8
0
  0
BLOCK
 67
     1
  8
0
  2
$PAPER_SPACE
 70
     0
 10
0.0
 20
0.0
 30
0.0
  3
$PAPER_SPACE
  1

  0
ENDBLK
  5
1D
 67
     1
  8
0
  0
ENDSEC
  0
SECTION
  2
ENTITIES
  0
LINE
  5
670E
  8
0
 10
80.303616426423105
 20
46.94949951209999
 30
0.0
 11
80.29560541432312
 21
46.300422476099989
 31
0.0
  0
LINE
  5
670F
  8
0
 10
80.964713425523115
 20
53.61285325619999
 30
0.0
 11
80.959050526123121
 21
53.937280541299998
 31
0.0
  0
LINE
  5
6710
  8
0
 10
83.064994087023123
 20
53.42293407439999
 30
0.0
 11
83.072117413123124
 21
53.435272037200001
 31
0.0
  0
LINE
  5
6711
  8
0
 10
81.900364508923118
 20
52.5115824449
 30
0.0
 11
81.886562531723115
 21
53.302297187000001
 31
0.0
  0
LINE
  5
6712
  8
0
 10
81.967050526123117
 20
51.437280541299998
 30
0.0
 11
81.967050526123117
 21
48.0582805413
 31
0.0
  0
LINE
  5
6713
  8
0
 10
81.970550526123105
 20
51.785659286346252
 30
0.0
 11
81.970550526123105
 21
52.472280541300002
 31
0.0
  0
LINE
  5
6714
  8
0
 10
82.008459975023115
 20
47.868072101300001
 30
0.0
 11
82.008459975023115
 21
47.699083460499999
 31
0.0
  0
LINE
  5
6715
  8
0
 10
82.33076674609174
 20
47.668488693773938
 30
0.0
 11
82.331249889723125
 21
47.393552085600007
 31
0.0
  0
LINE
  5
6716
  8
0
 10
82.586851162523118
 20
47.393552085600007
 30
0.0
 11
82.586923736856235
 21
47.668396045842847
 31
0.0
  0
LINE
  5
6717
  8
0
 10
82.909641077323016
 20
47.86789370313587
 30
0.0
 11
82.909641077323116
 21
47.699083460499999
 31
0.0
  0
LINE
  5
6718
  8
0
 10
82.947550526123123
 20
51.785659286346252
 30
0.0
 11
82.947550526123123
 21
52.472280541300002
 31
0.0
  0
LINE
  5
6719
  8
0
 10
82.951050526123126
 20
51.437280541299998
 30
0.0
 11
82.951050526123126
 21
48.0582805413
 31
0.0
  0
LINE
  5
671A
  8
0
 10
83.017736543423098
 20
52.5115824449
 30
0.0
 11
83.031538520623116
 21
53.302297187000001
 31
0.0
  0
LINE
  5
671B
  8
0
 10
83.748050526123123
 20
51.828005925900001
 30
0.0
 11
83.748050526123123
 21
51.677743447703087
 31
0.0
  0
LINE
  5
671C
  8
0
 10
83.768050526123105
 20
51.687048410111011
 30
0.0
 11
83.768050526123105
 21
51.817280541300001
 31
0.0
  0
LINE
  5
671D
  8
0
 10
83.788050526123115
 20
51.696127908305769
 30
0.0
 11
83.788050526123115
 21
51.827663974300002
 31
0.0
  0
LINE
  5
671E
  8
0
 10
83.953387626823115
 20
53.61285325619999
 30
0.0
 11
83.959050526123107
 21
53.937280541299998
 31
0.0
  0
LINE
  5
671F
  8
0
 10
81.337785227423126
 20
51.0269517296
 30
0.0
 11
81.930165660367535
 21
50.997678915770607
 31
0.0
  0
LINE
  5
6720
  8
0
 10
81.853106965323121
 20
53.42293407439999
 30
0.0
 11
81.845983639223121
 21
53.435272037200001
 31
0.0
  0
LINE
  5
6721
  8
0
 10
83.748050526123123
 20
51.817280541300001
 30
0.0
 11
83.768050526123105
 21
51.817280541300001
 31
0.0
  0
LINE
  5
6722
  8
0
 10
84.614484625923112
 20
46.94949951209999
 30
0.0
 11
84.622495638023111
 21
46.300422476099989
 31
0.0
  0
LINE
  5
6723
  8
0
 10
81.337785227423126
 20
51.847609352900001
 30
0.0
 11
81.931282014429826
 21
51.876937332022621
 31
0.0
  0
LINE
  5
6724
  8
0
 10
83.847704768523116
 20
51.862666151299997
 30
0.0
 11
83.823050526123112
 21
51.862663974499988
 31
0.0
  0
LINE
  5
6725
  8
0
 10
81.940358421549234
 20
52.472280541300002
 30
0.0
 11
82.977742630796996
 21
52.472280541300002
 31
0.0
  0
LINE
  5
6726
  8
0
 10
83.101580925942031
 20
53.449840553264529
 30
0.0
 11
81.816515079923107
 21
53.449840823599992
 31
0.0
  0
LINE
  5
6727
  8
0
 10
83.959050526123107
 20
53.937280541299998
 30
0.0
 11
80.959050526123121
 21
53.937280541299998
 31
0.0
  0
LINE
  5
6728
  8
0
 10
86.909517807081016
 20
51.568138675971952
 30
0.0
 11
87.174282247123116
 21
50.6173731584
 31
0.0
  0
ARC
  5
67DB
  8
0
 10
81.064698194923864
 20
53.61459849676077
 30
0.0
 40
0.0999999999000931
 50
181.0000001974114
 51
263.27106057139281
  0
ARC
  5
67DC
  8
0
 10
81.940358416723114
 20
52.512280541300001
 30
0.0
 40
0.04
 50
181.0000001411
 51
270.00000691290029
  0
ARC
  5
67DD
  8
0
 10
82.459235454833205
 20
51.43721143051993
 30
0.0
 40
0.6451745530243717
 50
139.25888032944809
 51
220.28204697080841
  0
ARC
  5
67DE
  8
0
 10
82.45904996574788
 20
51.437280613628218
 30
0.0
 40
0.6435275247634703
 50
335.57242879908222
 51
40.615241899370552
  0
ARC
  5
67DF
  8
0
 10
82.459050526123136
 20
51.437280541299991
 30
0.0
 40
0.5999999999999764
 50
325.08479375255507
 51
214.91520624743791
  0
ARC
  5
67E0
  8
0
 10
82.459050526123136
 20
51.437280541299998
 30
0.0
 40
0.4920000000000001
 50
0.0
 51
180.0
  0
ARC
  5
67E1
  8
0
 10
82.977742635623116
 20
52.512280541300001
 30
0.0
 40
0.04
 50
269.99999308709971
 51
358.99999985890003
  0
ARC
  5
67E2
  8
0
 10
81.636600607923114
 20
53.297934085599998
 30
0.0
 40
0.25
 50
0.9999999370000066
 51
29.99999703420001
  0
ARC
  5
67E3
  8
0
 10
81.88928490992312
 20
53.460272036200003
 30
0.0
 40
0.05
 50
192.06333227889991
 51
209.99999878539981
  0
ARC
  5
67E4
  8
0
 10
83.028816142323123
 20
53.460272036200003
 30
0.0
 40
0.05
 50
330.0000012146001
 51
347.93666772109998
  0
ARC
  5
67E5
  8
0
 10
83.823050532423125
 20
51.827663968000003
 30
0.0
 40
0.0350000063
 50
90.000010307600235
 51
179.99999091699999
  0
ARC
  5
67E6
  8
0
 10
83.713042625965585
 20
51.828258860616778
 30
0.0
 40
0.0350088138817885
 50
359.58604087831441
 51
90.695195454829815
  0
ARC
  5
67E7
  8
0
 10
83.781827189564524
 20
54.659348013216231
 30
0.0
 40
2.797457647969066
 50
271.34938814661251
 51
281.55239108370438
  0
ARC
  5
67E8
  8
0
 10
83.677386298623119
 20
54.71305265569999
 30
0.0
 40
2.8500053314999989
 50
255.16206722699971
 51
270.70830432949992
  0
ARC
  5
67E9
  8
0
 10
83.281500444423116
 20
53.297934085599998
 30
0.0
 40
0.25
 50
150.00000296580001
 51
179.0000000629999
  0
ARC
  5
67EA
  8
0
 10
83.853402857323104
 20
53.614598496799999
 30
0.0
 40
0.1
 50
276.72894541250002
 51
358.99999978109997
  0
ARC
  5
67EB
  8
0
 10
82.459050528123115
 20
65.432626331600005
 30
0.0
 40
12.000000013399999
 50
273.06932447266422
 51
276.72894539359947
  0
ARC
  5
67EC
  8
0
 10
82.459050526123136
 20
65.4326263178
 30
0.0
 40
12.0
 50
263.2710546371996
 51
266.93065138499969
  0
LINE
  5
6B74
  8
0
 10
87.494632365589496
 20
51.162280541299999
 30
0.0
 11
87.022539426548775
 21
51.162280541299999
 31
0.0
  0
LINE
  5
6B75
  8
0
 10
81.132442599223111
 20
51.162280541299999
 30
0.0
 11
76.583765521105491
 21
51.162280541299999
 31
0.0
  0
LINE
  5
6B76
  8
0
 10
81.132342948416465
 20
51.712280528413807
 30
0.0
 11
76.587934845143437
 21
51.712280528413807
 31
0.0
  0
ARC
  5
6B77
  8
0
 10
76.597379572042342
 20
51.437193135273873
 30
0.0
 40
0.2752494808502753
 50
91.966394877068396
 51
267.16494996449597
  0
ARC
  5
6B78
  8
0
 10
81.600561197114587
 20
51.43736535915167
 30
0.0
 40
0.5429610287160328
 50
149.58059944420509
 51
210.4401626311334
  0
ARC
  5
6B79
  8
0
 10
81.365555918796773
 20
51.292543715653821
 30
0.0
 40
0.267039911540177
 50
209.19635595820361
 51
264.03075948987129
  0
ARC
  5
6B7A
  8
0
 10
81.365746817486794
 20
51.581555884290012
 30
0.0
 40
0.2675187819168888
 50
95.999625906632645
 51
150.74772080568741
  0
LINE
  5
6B7B
  8
0
 10
86.840055894269057
 20
51.712280137049127
 30
0.0
 11
87.50366687073857
 21
51.712280137049127
 31
0.0
  0
ARC
  5
6B7C
  8
0
 10
87.490401226031949
 20
51.437424043632483
 30
0.0
 40
0.2751760335089895
 50
270.88102146730222
 51
87.236822730919883
  0
ARC
  5
6B7D
  8
0
 10
84.755677791301764
 20
49.53810512697968
 30
0.0
 40
2.3650295662083218
 50
114.150797656251
 51
139.73350168561649
  0
ARC
  5
6B7E
  8
0
 10
85.610195329690185
 20
47.958918653195738
 30
0.0
 40
4.1577571720395747
 50
107.7584887415865
 51
115.99239586286549
  0
ARC
  5
6B7F
  8
0
 10
85.686561926578833
 20
47.829664809744223
 30
0.0
 40
4.3042732252060896
 50
92.363041608859817
 51
108.2018238092359
  0
ARC
  5
6B80
  8
0
 10
85.658758144320444
 20
49.99506879937023
 30
0.0
 40
2.1404479972488919
 50
67.303458109684243
 51
94.009561201706788
  0
ARC
  5
6B81
  8
0
 10
86.284150772323656
 20
51.33212085353582
 30
0.0
 40
0.6684222772086045
 50
20.676851720279839
 51
72.544794036153661
  0
ARC
  5
6B82
  8
0
 10
86.065106568110565
 20
51.482137166311901
 30
0.0
 40
0.8487794767567278
 50
302.53447917126567
 51
5.8154023111704376
  0
ARC
  5
6B83
  8
0
 10
84.035499237386716
 20
53.98684955374398
 30
0.0
 40
4.0682801456954891
 50
278.05516877106112
 51
307.66838727173661
  0
ARC
  5
6B84
  8
0
 10
84.061779028681343
 20
52.348495047368417
 30
0.0
 40
2.450875574712263
 50
243.0510391366424
 51
282.8193338142359
  0
ARC
  5
6B85
  8
0
 10
83.710077092156226
 20
49.754031687479831
 30
0.0
 40
0.7656210713954496
 50
187.52547682372909
 51
213.15585352732711
  0
ARC
  5
6B86
  8
0
 10
83.982881703211405
 20
50.236732564975263
 30
0.0
 40
1.2835733488383489
 50
224.6105413382034
 51
269.15767971907081
  0
ARC
  5
6B87
  8
0
 10
84.227037272775547
 20
53.288272813849289
 30
0.0
 40
4.3429470974428126
 50
266.52782952633538
 51
293.75806932192449
  0
ARC
  5
6B88
  8
0
 10
85.175838534677396
 20
51.518306093934882
 30
0.0
 40
2.3458751803504678
 50
289.96178585544658
 51
325.47978099086259
  0
ARC
  5
6B89
  8
0
 10
86.601409234805274
 20
50.485845009611438
 30
0.0
 40
0.5877781402586134
 50
329.65606070465282
 51
12.930663733988069
  0
ARC
  5
6B8A
  8
0
 10
82.265691207980282
 20
51.46413989131522
 30
0.0
 40
0.5312540818283665
 50
123.74892702139159
 51
182.89801777715621
  0
ARC
  5
6B8B
  8
0
 10
82.260139761135875
 20
51.407158817941898
 30
0.0
 40
0.5258865823160809
 50
176.71641612889809
 51
236.125345704327
  0
ARC
  5
6B8C
  8
0
 10
82.654272169391902
 20
46.192194601523553
 30
0.0
 40
2.2485180535292022
 50
41.314891443155418
 51
82.415489057915835
  0
ARC
  5
6B8D
  8
0
 10
83.423376458170594
 20
46.919207666704139
 30
0.0
 40
1.191493291287995
 50
1.456812160938759
 51
39.473124074371057
  0
ARC
  5
6B8E
  8
0
 10
83.477227787489923
 20
46.292770161306407
 30
0.0
 40
1.1452934154122161
 50
328.03742763321708
 51
0.3828264421905297
  0
ARC
  5
6B8F
  8
0
 10
82.835178017441621
 20
46.762661707246011
 30
0.0
 40
1.939639546037516
 50
285.13800068422103
 51
326.30100115271432
  0
ARC
  5
6B90
  8
0
 10
82.404394865284232
 20
47.970583357110833
 30
0.0
 40
3.2197081848152811
 50
270.97266240631632
 51
286.92480611365858
  0
ARC
  5
6B91
  8
0
 10
82.435761715674346
 20
47.476749232606949
 30
0.0
 40
2.7255096279062299
 50
251.53682037663751
 51
270.48958432321001
  0
ARC
  5
6B92
  8
0
 10
82.150352312223475
 20
46.912517597728609
 30
0.0
 40
2.1019483158998939
 50
228.17645065019801
 51
254.04619270067161
  0
ARC
  5
6B93
  8
0
 10
81.601491025234708
 20
46.335746588741451
 30
0.0
 40
1.3063632809137971
 50
181.5494689085296
 51
229.24663826842311
  0
ARC
  5
6B94
  8
0
 10
81.592356854182214
 20
46.890462853316187
 30
0.0
 40
1.2900919413828851
 50
128.4638099567774
 51
177.3771380394729
  0
ARC
  5
6B95
  8
0
 10
82.323518820200405
 20
46.023227535948202
 30
0.0
 40
2.4241612230721952
 50
98.455897981282305
 51
129.2452839401806
  0
ARC
  5
6B96
  8
0
 10
81.658661660668244
 20
47.00344489056139
 30
0.0
 40
1.3561186123300031
 50
182.2797845374898
 51
238.87444919763919
  0
ARC
  5
6B97
  8
0
 10
82.462624855640684
 20
48.256899156149302
 30
0.0
 40
2.8449874817218248
 50
238.06296337285161
 51
299.90171878398769
  0
ARC
  5
6B98
  8
0
 10
83.227665491807528
 20
47.015766424933283
 30
0.0
 40
1.3884014601279859
 50
298.06590826995028
 51
357.26429453481541
  0
ARC
  5
6B99
  8
0
 10
82.335373264867542
 20
46.082165282720148
 30
0.0
 40
2.3689763774360699
 50
102.27937024154539
 51
126.5625889784924
  0
ARC
  5
6B9A
  8
0
 10
81.696448172801425
 20
46.903045162333648
 30
0.0
 40
1.329252335301381
 50
125.5198402499434
 51
169.51393673996679
  0
ARC
  5
6B9B
  8
0
 10
81.493017611058193
 20
46.996196941684353
 30
0.0
 40
1.11360391392501
 50
172.3228564249149
 51
215.26408233986459
  0
ARC
  5
6B9C
  8
0
 10
82.166268451920146
 20
47.548153863799541
 30
0.0
 40
1.982951756053283
 50
217.0550636120783
 51
256.6448449985852
  0
ARC
  5
6B9D
  8
0
 10
82.457259635491027
 20
48.39614803538452
 30
0.0
 40
2.876552028767859
 50
254.9067792272549
 51
288.62219510063971
  0
ARC
  5
6B9E
  8
0
 10
82.946902283982197
 20
47.256663092214893
 30
0.0
 40
1.6434230008996891
 50
285.12879425234178
 51
342.7055687321955
  0
ARC
  5
6B9F
  8
0
 10
83.452719419015125
 20
46.992607434448928
 30
0.0
 40
1.086748544015836
 50
348.07777639353588
 51
34.413190916126489
  0
ARC
  5
6BA0
  8
0
 10
82.679177719250148
 20
46.346394404643121
 30
0.0
 40
2.092320258467383
 50
37.041388929933262
 51
80.953797728037856
  0
ARC
  5
6BA1
  8
0
 10
82.319237423837365
 20
48.020975049892243
 30
0.0
 40
0.3541571834803844
 50
108.830866963422
 51
173.95347627678061
  0
ARC
  5
6BA2
  8
0
 10
82.459272327735391
 20
47.734258959311667
 30
0.0
 40
0.6719181546127118
 50
68.843488174931778
 51
112.2433053049546
  0
ARC
  5
6BA3
  8
0
 10
82.596327331997344
 20
48.020051307350933
 30
0.0
 40
0.3567772677443534
 50
6.1511402437035638
 51
72.808464174843635
  0
ARC
  5
6BA4
  8
0
 10
82.644807683673505
 20
48.025192130073883
 30
0.0
 40
0.3080251962244178
 50
329.29170466513608
 51
6.1666756002868883
  0
ARC
  5
6BA5
  8
0
 10
82.459050525599423
 20
48.236020762553679
 30
0.0
 40
0.5818499610536858
 50
219.24840925189389
 51
320.75159092667252
  0
ARC
  5
6BA6
  8
0
 10
82.273598266132709
 20
48.025258444770422
 30
0.0
 40
0.3083212217220812
 50
173.85166288130651
 51
210.68995673518481
  0
ARC
  5
6BA7
  8
0
 10
82.331890239246377
 20
47.707468132031259
 30
0.0
 40
0.3235389289285184
 50
181.4850147514062
 51
238.1771776492098
  0
ARC
  5
6BA8
  8
0
 10
82.458864526486735
 20
47.86350144535929
 30
0.0
 40
0.5236972417147494
 50
235.37390313896239
 51
302.2322257450308
  0
ARC
  5
6BA9
  8
0
 10
82.574448779919635
 20
47.713339322738868
 30
0.0
 40
0.3354953141949803
 50
299.210986996808
 51
357.56465529234259
  0
ARC
  5
6BAA
  8
0
 10
82.378118355647786
 20
47.7742530250258
 30
0.0
 40
0.383575101352804
 50
197.23197962360479
 51
262.98157603518439
  0
ARC
  5
6BAB
  8
0
 10
82.551558193637689
 20
47.754116003227303
 30
0.0
 40
0.3622870855378232
 50
275.59045674657432
 51
351.26276805950181
  0
ARC
  5
6BAC
  8
0
 10
82.459467987917563
 20
47.662898556966901
 30
0.0
 40
0.3142237687356046
 50
251.19211033880629
 51
288.1071543972061
  0
ARC
  5
6BAD
  8
0
 10
82.369054183428005
 20
47.402822569155191
 30
0.0
 40
0.0389243688179038
 50
193.77835528724299
 51
253.7522561311508
  0
ARC
  5
6BAE
  8
0
 10
82.546962092819925
 20
47.404269490080949
 30
0.0
 40
0.041303760610812
 50
284.24721066554781
 51
344.96092748862429
  0
ARC
  5
6BAF
  8
0
 10
82.226486159508923
 20
47.400534031320497
 30
0.0
 40
0.4014226661285651
 50
122.8972203776147
 51
176.527523411988
  0
ARC
  5
6BB0
  8
0
 10
82.238486743069487
 20
47.453159813548929
 30
0.0
 40
0.4136562615392294
 50
183.9245792073861
 51
241.1630405313208
  0
ARC
  5
6BB1
  8
0
 10
82.448916446733321
 20
47.776970184927912
 30
0.0
 40
0.799303028107664
 50
239.1443626976415
 51
270.72645231547438
  0
ARC
  5
6BB2
  8
0
 10
82.472948597060935
 20
47.755764651174452
 30
0.0
 40
0.7781573698572215
 50
268.97662968946008
 51
304.8355128222405
  0
ARC
  5
6BB3
  8
0
 10
82.708243740181885
 20
47.436270620832531
 30
0.0
 40
0.3816602843966166
 50
303.2399555577868
 51
2.426124321069524
  0
ARC
  5
6BB4
  8
0
 10
82.688891876234564
 20
47.398965812940673
 30
0.0
 40
0.4042209226885296
 50
7.6000210865013731
 51
56.89943105198423
  0
ARC
  5
6BB5
  8
0
 10
58.392654499375347
 20
49.54600062926378
 30
0.0
 40
23.52895281970445
 50
354.24506439207528
 51
354.82772016120998
  0
ARC
  5
6BB6
  8
0
 10
114.33587183855531
 20
50.318858738698729
 30
0.0
 40
31.377512903520259
 50
185.24145270820691
 51
185.72897341552189
  0
ARC
  5
6BB7
  8
0
 10
82.73303227056013
 20
47.162394880052418
 30
0.0
 40
0.3828205241067699
 50
308.82695331481818
 51
3.6347104026873041
  0
ARC
  5
6BB8
  8
0
 10
82.453903357245963
 20
47.539731438152018
 30
0.0
 40
0.8520022114339704
 50
249.1523441205396
 51
307.5406940921892
  0
ARC
  5
6BB9
  8
0
 10
82.340147333613587
 20
47.297778752719928
 30
0.0
 40
0.5857546270227049
 50
215.1325543435444
 51
251.1287263361933
  0
ARC
  5
6BBA
  8
0
 10
82.150980918394652
 20
47.155657086161369
 30
0.0
 40
0.3493410135100716
 50
174.90785339425889
 51
213.92358025245051
  0
ARC
  5
6BBB
  8
0
 10
82.459059268463676
 20
47.596047912928732
 30
0.0
 40
0.3320529430693334
 50
211.4144288637053
 51
328.572650000583
  0
ARC
  5
6BBC
  8
0
 10
82.225168767746894
 20
47.455964939187901
 30
0.0
 40
0.2668726010911938
 50
140.8077248671934
 51
222.6928706485586
  0
ARC
  5
6BBD
  8
0
 10
82.436734483594336
 20
47.668649497156423
 30
0.0
 40
0.5667339066914617
 50
223.99380730905
 51
272.25669523346841
  0
ARC
  5
6BBE
  8
0
 10
82.484830729393721
 20
47.66418313098481
 30
0.0
 40
0.562419173258793
 50
267.37275210393432
 51
313.65917679860712
  0
ARC
  5
6BBF
  8
0
 10
82.690227985023853
 20
47.455192839752087
 30
0.0
 40
0.2694582846177923
 50
312.74130384745212
 51
38.955460948793387
  0
ARC
  5
6BC0
  8
0
 10
82.277013420101767
 20
47.378334113386401
 30
0.0
 40
0.1971241386262734
 50
150.2892756605136
 51
224.57563896038039
  0
ARC
  5
6BC1
  8
0
 10
82.459050526173115
 20
47.670887749556911
 30
0.0
 40
0.5381966011569216
 50
233.1918895768606
 51
306.80811042314332
  0
ARC
  5
6BC2
  8
0
 10
82.641073673034086
 20
47.378341993678433
 30
0.0
 40
0.1971396129435034
 50
315.42557704424081
 51
29.854965536352811
  0
ATTDEF
  5
70C1
  8
DEFPOINTS
 10
82.456262941215968
 20
53.93793649702301
 30
0.0
 40
0.001
  1
METAL
  3

  2
MATERIAL
 70
     0
1001
AcDbAttr
1070
     0
1070
     1
  0
ATTDEF
  5
70C2
  8
DEFPOINTS
 10
82.456262941215968
 20
53.939603163689682
 30
0.0
 40
0.001
  1
SHOWER COLUMN KIT
  3

  2
PRODUCT
 70
     0
1001
AcDbAttr
1070
     0
1070
     1
  0
ATTDEF
  5
70C3
  8
DEFPOINTS
 10
82.456262941215968
 20
53.94126983035634
 30
0.0
 40
0.001
  1
HYDRORAIL-S
  3

  2
TRADENAME
 70
     0
1001
AcDbAttr
1070
     0
1070
     1
  0
ATTDEF
  5
70C4
  8
DEFPOINTS
 10
82.456262941215968
 20
53.942936497023013
 30
0.0
 40
0.001
  1
K-76471
  3

  2
MODELNUMBER
 70
     0
1001
AcDbAttr
1070
     0
1070
     1
  0
ENDSEC
  0
EOF
