  0
SECTION
  2
HEADER
  9
$ACADVER
  1
AC1009
  9
$INSBASE
 10
82.459050526123136
 20
15.4617265527
 30
0.0
  9
$EXTMIN
 10
76.322137999507476
 20
-17.357387149547279
 30
0.0
  9
$EXTMAX
 10
87.765577259540933
 20
31.8228362925
 30
0.0
  9
$LIMMIN
 10
0.0
 20
0.0
  9
$LIMMAX
 10
11.692913385800001
 20
8.2677165353999982
  9
$ORTHOMODE
 70
     0
  9
$REGENMODE
 70
     1
  9
$FILLMODE
 70
     1
  9
$QTEXTMODE
 70
     0
  9
$MIRRTEXT
 70
     0
  9
$DRAGMODE
 70
     2
  9
$LTSCALE
 40
0.6431102362
  9
$OSMODE
 70
  3071
  9
$ATTMODE
 70
     1
  9
$TEXTSIZE
 40
0.2
  9
$TRACEWID
 40
0.05
  9
$TEXTSTYLE
  7
STANDARD
  9
$CLAYER
  8
0
  9
$CELTYPE
  6
BYLAYER
  9
$CECOLOR
 62
   256
  9
$DIMSCALE
 40
1.0
  9
$DIMASZ
 40
0.1875
  9
$DIMEXO
 40
0.0625
  9
$DIMDLI
 40
0.4443307087
  9
$DIMRND
 40
0.0
  9
$DIMDLE
 40
0.0
  9
$DIMEXE
 40
0.125
  9
$DIMTP
 40
0.01
  9
$DIMTM
 40
0.01
  9
$DIMTXT
 40
1.0
  9
$DIMCEN
 40
0.1052362205
  9
$DIMTSZ
 40
0.0
  9
$DIMTOL
 70
     1
  9
$DIMLIM
 70
     0
  9
$DIMTIH
 70
     1
  9
$DIMTOH
 70
     1
  9
$DIMSE1
 70
     0
  9
$DIMSE2
 70
     0
  9
$DIMTAD
 70
     0
  9
$DIMZIN
 70
     0
  9
$DIMBLK
  1

  9
$DIMASO
 70
     1
  9
$DIMSHO
 70
     1
  9
$DIMPOST
  1
\X
  9
$DIMAPOST
  1

  9
$DIMALT
 70
     1
  9
$DIMALTD
 70
     2
  9
$DIMALTF
 40
25.399999999999999
  9
$DIMLFAC
 40
1.0
  9
$DIMTOFL
 70
     0
  9
$DIMTVP
 40
0.0
  9
$DIMTIX
 70
     0
  9
$DIMSOXD
 70
     0
  9
$DIMSAH
 70
     0
  9
$DIMBLK1
  1

  9
$DIMBLK2
  1

  9
$DIMSTYLE
  2
STANDARD
  9
$DIMCLRD
 70
     0
  9
$DIMCLRE
 70
     0
  9
$DIMCLRT
 70
     0
  9
$DIMTFAC
 40
1.0
  9
$DIMGAP
 40
0.09
  9
$LUNITS
 70
     2
  9
$LUPREC
 70
     4
  9
$SKETCHINC
 40
0.1
  9
$FILLETRAD
 40
0.0
  9
$AUNITS
 70
     0
  9
$AUPREC
 70
     0
  9
$MENU
  1
.
  9
$ELEVATION
 40
0.0
  9
$PELEVATION
 40
0.0
  9
$THICKNESS
 40
0.0
  9
$LIMCHECK
 70
     0
  9
$BLIPMODE
 70
     0
  9
$CHAMFERA
 40
0.0
  9
$CHAMFERB
 40
0.0
  9
$SKPOLY
 70
     0
  9
$TDCREATE
 40
2458257.5296706371
  9
$TDUPDATE
 40
2458257.7209869558
  9
$TDINDWG
 40
0.1893496181
  9
$TDUSRTIMER
 40
0.1893496181
  9
$USRTIMER
 70
     1
  9
$ANGBASE
 50
0.0
  9
$ANGDIR
 70
     0
  9
$PDMODE
 70
     0
  9
$PDSIZE
 40
0.3125
  9
$PLINEWID
 40
0.0
  9
$COORDS
 70
     1
  9
$SPLFRAME
 70
     0
  9
$SPLINETYPE
 70
     6
  9
$SPLINESEGS
 70
     8
  9
$ATTDIA
 70
     1
  9
$ATTREQ
 70
     1
  9
$HANDLING
 70
     1
  9
$HANDSEED
  5
7210
  9
$SURFTAB1
 70
     6
  9
$SURFTAB2
 70
     6
  9
$SURFTYPE
 70
     6
  9
$SURFU
 70
     6
  9
$SURFV
 70
     6
  9
$UCSNAME
  2

  9
$UCSORG
 10
0.0
 20
0.0
 30
0.0
  9
$UCSXDIR
 10
1.0
 20
0.0
 30
0.0
  9
$UCSYDIR
 10
0.0
 20
1.0
 30
0.0
  9
$PUCSNAME
  2

  9
$PUCSORG
 10
0.0
 20
0.0
 30
0.0
  9
$PUCSXDIR
 10
1.0
 20
0.0
 30
0.0
  9
$PUCSYDIR
 10
0.0
 20
1.0
 30
0.0
  9
$USERI1
 70
     0
  9
$USERI2
 70
     0
  9
$USERI3
 70
     0
  9
$USERI4
 70
     0
  9
$USERI5
 70
     0
  9
$USERR1
 40
0.0
  9
$USERR2
 40
0.0
  9
$USERR3
 40
0.0
  9
$USERR4
 40
0.0
  9
$USERR5
 40
0.0
  9
$WORLDVIEW
 70
     1
  9
$SHADEDGE
 70
     3
  9
$SHADEDIF
 70
    70
  9
$TILEMODE
 70
     1
  9
$MAXACTVP
 70
    64
  9
$PLIMCHECK
 70
     0
  9
$PEXTMIN
 10
1.0000000000000000E+020
 20
1.0000000000000000E+020
 30
1.0000000000000000E+020
  9
$PEXTMAX
 10
-1.0000000000000000E+020
 20
-1.0000000000000000E+020
 30
-1.0000000000000000E+020
  9
$PLIMMIN
 10
0.0
 20
0.0
  9
$PLIMMAX
 10
12.0
 20
9.0
  9
$UNITMODE
 70
     0
  9
$VISRETAIN
 70
     1
  9
$PLINEGEN
 70
     0
  9
$PSLTSCALE
 70
     1
  0
ENDSEC
  0
SECTION
  2
TABLES
  0
TABLE
  2
VPORT
 70
     1
  0
VPORT
  2
*ACTIVE
 70
     0
 10
0.0
 20
0.0
 11
1.0
 21
1.0
 12
0.0
 22
0.0
 13
0.0
 23
0.0
 14
1.0
 24
1.0
 15
0.0
 25
0.0
 16
-0.0000000000000284
 26
0.0
 36
142.1138115643966
 17
82.043857629524211
 27
7.2327245714763597
 37
0.0
 40
50.498901848624612
 41
2.1006711409395971
 42
50.0
 43
0.0
 44
0.0
 50
0.0
 51
0.0
 71
     0
 72
   100
 73
     1
 74
     1
 75
     0
 76
     0
 77
     0
 78
     0
  0
ENDTAB
  0
TABLE
  2
LTYPE
 70
     2
  0
LTYPE
  2
CONTINUOUS
 70
     0
  3
Solid line
 72
    65
 73
     0
 40
0.0
  0
LTYPE
  2
PHANTOM2
 70
     0
  3
___ _ _ ___ _ _ ___ _ _ ___ _ _
 72
    65
 73
     6
 40
1.25
 49
0.625
 49
-0.125
 49
0.125
 49
-0.125
 49
0.125
 49
-0.125
  0
ENDTAB
  0
TABLE
  2
LAYER
 70
     2
  0
LAYER
  2
0
 70
     0
 62
   255
  6
CONTINUOUS
  0
LAYER
  2
DEFPOINTS
 70
     0
 62
     7
  6
CONTINUOUS
  0
ENDTAB
  0
TABLE
  2
STYLE
 70
     1
  0
STYLE
  2
STANDARD
 70
     0
 40
0.0
 41
0.8
 50
0.0
 71
     0
 42
0.2
  3
txt
  4

  0
ENDTAB
  0
TABLE
  2
VIEW
 70
     0
  0
ENDTAB
  0
TABLE
  2
UCS
 70
     0
  0
ENDTAB
  0
TABLE
  2
APPID
 70
     9
  0
APPID
  2
ACAD
 70
     0
  0
APPID
  2
ACAD_MLEADERVER
 70
     0
  0
APPID
  2
ACAD_EXEMPT_FROM_CAD_STANDARDS
 70
     0
  0
APPID
  2
ACAD_DSTYLE_DIMJAG
 70
     0
  0
APPID
  2
ACAD_DSTYLE_DIMTALN
 70
     0
  0
APPID
  2
ACAD_NAV_VCDISPLAY
 70
     0
  0
APPID
  2
ACAECLAYERSTANDARD
 70
     0
  0
APPID
  2
ACCMTRANSPARENCY
 70
     0
  0
APPID
  2
AcDbAttr
 70
     0
  0
ENDTAB
  0
TABLE
  2
DIMSTYLE
 70
     1
  0
DIMSTYLE
  2
STANDARD
 70
     0
  3

  4

  5

  6

  7

 40
1.0
 41
0.1875
 42
0.0625
 43
0.38
 44
0.125
 45
0.0
 46
0.0
 47
0.01
 48
0.01
140
0.15625
141
0.09
142
0.0
143
25.399999999999999
144
1.0
145
0.0
146
1.0
147
0.09
 71
     1
 72
     0
 73
     1
 74
     1
 75
     0
 76
     0
 77
     0
 78
     4
170
     0
171
     2
172
     0
173
     0
174
     0
175
     0
176
     0
177
     0
178
     0
  0
ENDTAB
  0
ENDSEC
  0
SECTION
  2
BLOCKS
  0
BLOCK
  8
0
  2
$MODEL_SPACE
 70
     0
 10
0.0
 20
0.0
 30
0.0
  3
$MODEL_SPACE
  1

  0
ENDBLK
  5
21
  8
0
  0
BLOCK
 67
     1
  8
0
  2
$PAPER_SPACE
 70
     0
 10
0.0
 20
0.0
 30
0.0
  3
$PAPER_SPACE
  1

  0
ENDBLK
  5
1D
 67
     1
  8
0
  0
ENDSEC
  0
SECTION
  2
ENTITIES
  0
LINE
  5
66C2
  8
0
 10
85.121537803823117
 20
18.598446897199999
 30
0.0
 11
85.213041728723098
 21
18.6443800921
 31
0.0
  0
LINE
  5
66C3
  8
0
 10
81.057600184323107
 20
3.3845520772
 30
0.0
 11
81.638246900523114
 21
2.8039053608999991
 31
0.0
  0
LINE
  5
66C4
  8
0
 10
80.303616426423105
 20
29.532128064199998
 30
0.0
 11
80.29560541432312
 21
28.883051028200001
 31
0.0
  0
LINE
  5
66C5
  8
0
 10
82.929050518141537
 20
4.7467265526999993
 30
0.0
 11
81.989050534104706
 21
4.7467265526999993
 31
0.0
  0
LINE
  5
66C6
  8
0
 10
81.989050526123123
 20
4.7547265526999993
 30
0.0
 11
82.92905052612312
 21
4.7547265526999993
 31
0.0
  0
LINE
  5
66C7
  8
0
 10
82.251746401723125
 20
5.1699627730999991
 30
0.0
 11
82.666354650623134
 21
5.1699627730999991
 31
0.0
  0
LINE
  5
66C8
  8
0
 10
82.929050525423122
 20
5.3649627731000002
 30
0.0
 11
81.989050526923123
 21
5.3649627731000002
 31
0.0
  0
LINE
  5
66C9
  8
0
 10
81.909050526123124
 20
5.4617265527000001
 30
0.0
 11
83.009050526123119
 21
5.4617265527000001
 31
0.0
  0
LINE
  5
66CA
  8
0
 10
82.370046394623117
 20
3.4863194291999999
 30
0.0
 11
81.740014252623112
 21
4.1163515713000001
 31
0.0
  0
LINE
  5
66CB
  8
0
 10
81.743903366351674
 20
4.1548888644002648
 30
0.0
 11
82.408583708585368
 21
3.490208522166546
 31
0.0
  0
LINE
  5
66CC
  8
0
 10
81.839807409123125
 20
9.5861157184000003
 30
0.0
 11
81.814061188323109
 21
11.0623373876
 31
0.0
  0
LINE
  5
66CD
  8
0
 10
81.859050526123099
 20
7.4117265527000002
 30
0.0
 11
81.859050526123099
 21
5.511726552699999
 31
0.0
  0
LINE
  5
66CE
  8
0
 10
81.859050526123099
 20
23.861726552699999
 30
0.0
 11
81.859050526123099
 21
25.061726552700001
 31
0.0
  0
LINE
  5
66CF
  8
0
 10
81.959050526123121
 20
5.3349627730999991
 30
0.0
 11
81.959050526123121
 21
4.7847265526999987
 31
0.0
  0
LINE
  5
66D0
  8
0
 10
81.959050526123121
 20
4.7167265526999991
 30
0.0
 11
81.959050526123121
 21
4.5367265527000002
 31
0.0
  0
LINE
  5
66D1
  8
0
 10
81.967050526123117
 20
7.4617265527000001
 30
0.0
 11
81.967050526123117
 21
9.5517265526999982
 31
0.0
  0
LINE
  5
66D2
  8
0
 10
81.967050526123117
 20
11.3117265527
 30
0.0
 11
81.967050526123117
 21
23.811726552700001
 31
0.0
  0
LINE
  5
66D3
  8
0
 10
81.967050526123117
 20
25.111726552699999
 30
0.0
 11
81.967050526123117
 21
27.374156845697652
 31
0.0
  0
LINE
  5
66D4
  8
0
 10
81.967050526123117
 20
31.00367236041086
 30
0.0
 11
81.967065081123124
 21
31.416411037100001
 31
0.0
  0
LINE
  5
66D5
  8
0
 10
82.101550526123134
 20
5.3649627731000002
 30
0.0
 11
82.101550526123134
 21
5.4317265526999989
 31
0.0
  0
LINE
  5
66D6
  8
0
 10
82.251746401723125
 20
5.1699627730999991
 30
0.0
 11
82.251746401723125
 21
4.7847265526999987
 31
0.0
  0
LINE
  5
66D7
  8
0
 10
81.817814027423111
 20
11.2773373947
 30
0.0
 11
81.814061188323109
 21
11.0623373876
 31
0.0
  0
LINE
  5
66D8
  8
0
 10
83.390750830023109
 20
9.3111450239999982
 30
0.0
 11
83.354201343223096
 21
9.2948890941000002
 31
0.0
  0
LINE
  5
66D9
  8
0
 10
83.100287024917193
 20
11.27733739473879
 30
0.0
 11
83.102577507823099
 21
11.146115718400001
 31
0.0
  0
LINE
  5
66DA
  8
0
 10
82.309050526123116
 20
6.9700571538
 30
0.0
 11
82.309050526123116
 21
7.801726552699999
 31
0.0
  0
LINE
  5
66DB
  8
0
 10
82.400349601923125
 20
27.676666637919741
 30
0.0
 11
82.400349601923125
 21
26.9965810361
 31
0.0
  0
LINE
  5
66DC
  8
0
 10
82.51775145042312
 20
26.996581084199999
 30
0.0
 11
82.51775145042312
 21
27.676652565882979
 31
0.0
  0
LINE
  5
66DD
  8
0
 10
82.609050526123113
 20
6.9700571538
 30
0.0
 11
82.609050526123113
 21
7.801726552699999
 31
0.0
  0
LINE
  5
66DE
  8
0
 10
82.666354650623134
 20
4.7847265526999987
 30
0.0
 11
82.666354650623134
 21
5.1699627730999991
 31
0.0
  0
LINE
  5
66DF
  8
0
 10
82.816550526123123
 20
5.3649627731000002
 30
0.0
 11
82.816550526123123
 21
5.4317265526999989
 31
0.0
  0
LINE
  5
66E0
  8
0
 10
82.951050526123126
 20
7.4617265527000001
 30
0.0
 11
82.951050526123126
 21
9.5517265526999982
 31
0.0
  0
LINE
  5
66E1
  8
0
 10
82.951050526123126
 20
11.3117265527
 30
0.0
 11
82.951050526123126
 21
17.6426700381
 31
0.0
  0
LINE
  5
66E2
  8
0
 10
82.951050526123126
 20
19.350445027999999
 30
0.0
 11
82.951050526123126
 21
23.811726552700001
 31
0.0
  0
LINE
  5
66E3
  8
0
 10
82.951050526123126
 20
25.111726552699999
 30
0.0
 11
82.951050526123126
 21
27.37442516090001
 31
0.0
  0
LINE
  5
66E4
  8
0
 10
82.951050526123126
 20
31.003670745079411
 30
0.0
 11
82.951050526123126
 21
31.418726552700001
 31
0.0
  0
LINE
  5
66E5
  8
0
 10
82.959050526123121
 20
5.3349627730999991
 30
0.0
 11
82.959050526123121
 21
4.7847265526999987
 31
0.0
  0
LINE
  5
66E6
  8
0
 10
82.959050526123121
 20
4.7167265526999991
 30
0.0
 11
82.959050526123121
 21
4.5367265527000002
 31
0.0
  0
LINE
  5
66E7
  8
0
 10
83.059050526123116
 20
7.4117265527000002
 30
0.0
 11
83.059050526123116
 21
5.511726552699999
 31
0.0
  0
LINE
  5
66E8
  8
0
 10
83.059050526123116
 20
23.861726552699999
 30
0.0
 11
83.059050526123116
 21
25.061726552700001
 31
0.0
  0
LINE
  5
66E9
  8
0
 10
83.748050526123123
 20
10.181726552700001
 30
0.0
 11
83.748050526123123
 21
11.081726552699999
 31
0.0
  0
LINE
  5
66EA
  8
0
 10
83.768050526123105
 20
10.181726552700001
 30
0.0
 11
83.768050526123105
 21
11.081726552699999
 31
0.0
  0
LINE
  5
66EB
  8
0
 10
83.788050526123115
 20
11.0767265527
 30
0.0
 11
83.788050526123115
 21
10.1867265527
 31
0.0
  0
LINE
  5
66EC
  8
0
 10
83.087566151923113
 20
10.117337386899999
 30
0.0
 11
83.07829364322312
 21
9.5861157186000003
 31
0.0
  0
LINE
  5
66ED
  8
0
 10
85.293077579723104
 20
18.5968465208
 30
0.0
 11
85.281580043723125
 21
18.505247891300002
 31
0.0
  0
LINE
  5
66EE
  8
0
 10
85.109348959623134
 20
18.507321823950239
 30
0.0
 11
85.121537803823117
 21
18.598446897199999
 31
0.0
  0
LINE
  5
66EF
  8
0
 10
81.740014252623112
 20
4.1163515713000001
 30
0.0
 11
81.057600184323107
 21
3.3845520772
 31
0.0
  0
LINE
  5
66F0
  8
0
 10
83.00904190872312
 20
7.4617265527000001
 30
0.0
 11
82.609050526123113
 21
7.4617265527000001
 31
0.0
  0
LINE
  5
66F1
  8
0
 10
82.309050526123116
 20
7.4617265527000001
 30
0.0
 11
81.909050526124119
 21
7.4617265527000001
 31
0.0
  0
LINE
  5
66F2
  8
0
 10
82.549050491723136
 20
7.8617265526999986
 30
0.0
 11
82.369050560623123
 21
7.8617265526999986
 31
0.0
  0
LINE
  5
66F3
  8
0
 10
84.267550542423109
 20
11.113301719100001
 30
0.0
 11
84.26760554842312
 21
11.1117265527
 31
0.0
  0
LINE
  5
66F4
  8
0
 10
84.301129487223122
 20
10.1517265527
 30
0.0
 11
84.302471311923114
 21
10.113301719100001
 31
0.0
  0
LINE
  5
66F5
  8
0
 10
84.614484625923112
 20
29.532128064199998
 30
0.0
 11
84.622489529013208
 21
28.883387518261038
 31
0.0
  0
LINE
  5
66F6
  8
0
 10
84.206446182423107
 20
11.1329867584
 30
0.0
 11
84.206446182423107
 21
16.372168035457651
 31
0.0
  0
LINE
  5
66F7
  8
0
 10
85.219654869823117
 20
16.29640086814905
 30
0.0
 11
85.219654869823117
 21
11.1329867584
 31
0.0
  0
LINE
  5
66F8
  8
0
 10
85.130023225651314
 20
10.186483954151489
 30
0.0
 11
85.136141803423115
 21
11.076486022699999
 31
0.0
  0
LINE
  5
66F9
  8
0
 10
85.158539018333855
 20
11.113301719000001
 30
0.0
 11
85.130964500448343
 21
10.32340082399838
 31
0.0
  0
LINE
  5
66FA
  8
0
 10
85.125598958760307
 20
10.169691822607531
 30
0.0
 11
85.123629772923124
 21
10.113301719100001
 31
0.0
  0
LINE
  5
66FB
  8
0
 10
81.871182560523124
 20
4.3245945182999987
 30
0.0
 11
81.743903339923108
 21
4.1973152976999986
 31
0.0
  0
LINE
  5
66FC
  8
0
 10
82.578289341723121
 20
3.6174877370999989
 30
0.0
 11
82.451010121123119
 21
3.4902085164999992
 31
0.0
  0
LINE
  5
66FD
  8
0
 10
82.370046394623117
 20
3.4863194291999999
 30
0.0
 11
81.638246900523114
 21
2.8039053608999991
 31
0.0
  0
LINE
  5
66FE
  8
0
 10
81.874810011123117
 20
9.5517265526999982
 30
0.0
 11
83.043298969923114
 21
9.5517265526999982
 31
0.0
  0
LINE
  5
66FF
  8
0
 10
84.302471311923114
 20
10.113301719100001
 30
0.0
 11
85.123629772923124
 21
10.113301719100001
 31
0.0
  0
LINE
  5
6700
  8
0
 10
83.122560821323134
 20
10.1517265527
 30
0.0
 11
83.713050526123126
 21
10.1517265527
 31
0.0
  0
LINE
  5
6701
  8
0
 10
85.098061335393453
 20
10.151859047834691
 30
0.0
 11
83.823050526123112
 21
10.1517265527
 31
0.0
  0
LINE
  5
6702
  8
0
 10
83.768050526123105
 20
10.181726552700001
 30
0.0
 11
83.748050526123123
 21
10.181726552700001
 31
0.0
  0
LINE
  5
6703
  8
0
 10
83.768050526123105
 20
10.976726552700001
 30
0.0
 11
83.788050526123115
 21
10.976726552700001
 31
0.0
  0
LINE
  5
6704
  8
0
 10
83.748050526123123
 20
11.081726552699999
 30
0.0
 11
83.768050526123105
 21
11.081726552699999
 31
0.0
  0
LINE
  5
6705
  8
0
 10
85.101140390923135
 20
11.1117265527
 30
0.0
 11
83.823050526123112
 21
11.1117265527
 31
0.0
  0
LINE
  5
6706
  8
0
 10
83.713050526123126
 20
11.1117265527
 30
0.0
 11
83.137572177123118
 21
11.1117265527
 31
0.0
  0
LINE
  5
6707
  8
0
 10
84.226131221823124
 20
11.113301719000001
 30
0.0
 11
85.199969830523116
 21
11.113301719000001
 31
0.0
  0
LINE
  5
6708
  8
0
 10
83.065282586223134
 20
11.3117265527
 30
0.0
 11
81.852808702496546
 21
11.3117265527
 31
0.0
  0
LINE
  5
6709
  8
0
 10
82.89477047172312
 20
17.758333542300001
 30
0.0
 11
83.141381394023114
 21
17.251513075799998
 31
0.0
  0
LINE
  5
670A
  8
0
 10
86.737947660523119
 20
19.710517581600001
 30
0.0
 11
87.001760435623112
 21
19.21248793900001
 31
0.0
  0
LINE
  5
670B
  8
0
 10
85.293077579723104
 20
18.5968465208
 30
0.0
 11
85.213041728723098
 21
18.6443800921
 31
0.0
  0
LINE
  5
670C
  8
0
 10
83.009050526123119
 20
23.811726552700001
 30
0.0
 11
81.909050526143034
 21
23.811726552700001
 31
0.0
  0
LINE
  5
670D
  8
0
 10
83.009050526123119
 20
25.111726552699999
 30
0.0
 11
81.909050526123124
 21
25.111726552699999
 31
0.0
  0
ARC
  5
67AA
  8
0
 10
-1791.341120385777
 20
11.6884186815
 30
0.0
 40
1876.4310713006
 50
0.0118124669000001
 51
0.1340237445000006
  0
ARC
  5
67AB
  8
0
 10
81.659050526123124
 20
4.5367265527000002
 30
0.0
 40
1.3
 50
315.00000000000023
 51
0.0
  0
ARC
  5
67AC
  8
0
 10
81.659050526123124
 20
4.5367265527000002
 30
0.0
 40
0.3
 50
315.00000000000023
 51
0.0
  0
ARC
  5
67AD
  8
0
 10
81.909050526123124
 20
5.511726552699999
 30
0.0
 40
0.05
 50
180.0
 51
270.0
  0
ARC
  5
67AE
  8
0
 10
81.989050526123123
 20
4.7847265526999987
 30
0.0
 40
0.03
 50
180.0
 51
270.0
  0
ARC
  5
67AF
  8
0
 10
81.989050526123123
 20
5.3349627730999991
 30
0.0
 40
0.03
 50
89.999998535900204
 51
180.0
  0
ARC
  5
67B0
  8
0
 10
81.765116543323117
 20
4.1761020943
 30
0.0
 40
0.0300000000000011
 50
135.00000000000369
 51
225.00007147832881
  0
ARC
  5
67B1
  8
0
 10
81.989050526123123
 20
4.7167265526999991
 30
0.0
 40
0.03
 50
89.999984756300222
 51
180.0
  0
ARC
  5
67B2
  8
0
 10
82.329034201323111
 20
3.5273316225000002
 30
0.0
 40
0.03
 50
44.999999999999758
 51
135.0000000000002
  0
ARC
  5
67B3
  8
0
 10
81.781026445923118
 20
4.0753393778999989
 30
0.0
 40
0.03
 50
315.00000000000023
 51
44.999999999999758
  0
ARC
  5
67B4
  8
0
 10
82.071550526123119
 20
5.4317265526999989
 30
0.0
 40
0.03
 50
0.0
 51
90.0
  0
ARC
  5
67B5
  8
0
 10
82.249042195276004
 20
6.970064332702532
 30
0.0
 40
0.0600083312765129
 50
292.45108756944819
 51
359.99314560480428
  0
ARC
  5
67B6
  8
0
 10
81.909050526123124
 20
7.4117265527000002
 30
0.0
 40
0.05
 50
90.0
 51
180.0
  0
ARC
  5
67B7
  8
0
 10
83.009050526123119
 20
5.511726552699999
 30
0.0
 40
0.05
 50
270.0
 51
0.0
  0
ARC
  5
67B8
  8
0
 10
82.92905052612312
 20
4.7847265526999987
 30
0.0
 40
0.03
 50
270.0
 51
0.0
  0
ARC
  5
67B9
  8
0
 10
82.92905052612312
 20
5.3349627730999991
 30
0.0
 40
0.03
 50
0.0
 51
90.000001464099796
  0
ARC
  5
67BA
  8
0
 10
82.429796917623136
 20
3.5114217199999991
 30
0.0
 40
0.03
 50
224.9999848688997
 51
315.00000000000023
  0
ARC
  5
67BB
  8
0
 10
82.92905052612312
 20
4.7167265526999991
 30
0.0
 40
0.03
 50
0.0
 51
90.000015243699764
  0
ARC
  5
67BC
  8
0
 10
82.846550526123124
 20
5.4317265526999989
 30
0.0
 40
0.03
 50
90.0
 51
180.0
  0
ARC
  5
67BD
  8
0
 10
82.459050526123136
 20
6.4617265527000001
 30
0.0
 40
0.6425354462000001
 50
159.03523319562871
 51
200.96476680437121
  0
ARC
  5
67BE
  8
0
 10
82.459050526123136
 20
6.4617265527000001
 30
0.0
 40
0.6425354462000001
 50
339.0352331956289
 51
20.96476680437106
  0
CIRCLE
  5
67BF
  8
0
 10
82.459050526123136
 20
6.4617265527000001
 30
0.0
 40
0.4900000000000001
  0
ARC
  5
67C0
  8
0
 10
82.669063260189944
 20
6.970065671042855
 30
0.0
 40
0.0600127346712391
 50
180.00813164194301
 51
247.54551532552381
  0
ARC
  5
67C1
  8
0
 10
82.549050526123125
 20
7.801726552699999
 30
0.0
 40
0.06
 50
0.0
 51
90.000032874399636
  0
ARC
  5
67C2
  8
0
 10
82.369050526123118
 20
7.801726552699999
 30
0.0
 40
0.06
 50
89.99996712560035
 51
180.0
  0
ARC
  5
67C3
  8
0
 10
83.009050524855795
 20
7.4117265521750584
 30
0.0
 40
0.0500000012673176
 50
0.000000601539055
 51
90.009873360566971
  0
ARC
  5
67C4
  8
0
 10
83.823050526123112
 20
11.0767265527
 30
0.0
 40
0.035
 50
90.0
 51
180.0
  0
ARC
  5
67C5
  8
0
 10
83.823050526123112
 20
10.1867265527
 30
0.0
 40
0.035
 50
180.0
 51
270.0
  0
ARC
  5
67C6
  8
0
 10
83.043298973923115
 20
9.5867265527000036
 30
0.0
 40
0.0350000000000039
 50
269.99999345191191
 51
359.00000020679317
  0
ARC
  5
67C7
  8
0
 10
83.137572177123118
 20
11.146726552700001
 30
0.0
 40
0.035
 50
181.0
 51
270.0
  0
ARC
  5
67C8
  8
0
 10
83.713050526123126
 20
11.0767265527
 30
0.0
 40
0.035
 50
0.0
 51
90.0
  0
ARC
  5
67C9
  8
0
 10
83.122560821323134
 20
10.116726552699999
 30
0.0
 40
0.035
 50
90.0
 51
179.0
  0
ARC
  5
67CA
  8
0
 10
81.852808696626852
 20
11.276726552690871
 30
0.0
 40
0.0350000000091276
 50
89.999990391214737
 51
178.99998725602919
  0
ARC
  5
67CB
  8
0
 10
81.874802079978593
 20
9.5867265533682815
 30
0.0
 40
0.0350000015668972
 50
181.0000015252844
 51
270.01298345976602
  0
ARC
  5
67CC
  8
0
 10
83.065292353364114
 20
11.27672655168648
 30
0.0
 40
0.0350000023763302
 50
1.0000143842972711
 51
90.015989026469214
  0
ARC
  5
67CD
  8
0
 10
83.713050526123126
 20
10.1867265527
 30
0.0
 40
0.035
 50
270.0
 51
0.0
  0
ARC
  5
67CE
  8
0
 10
84.226131221823124
 20
11.1329867584
 30
0.0
 40
0.0196850394
 50
180.0
 51
270.0
  0
ARC
  5
67CF
  8
0
 10
85.095025043223103
 20
10.186726114600001
 30
0.0
 40
0.0349990202
 50
274.9768732375
 51
359.60356369139998
  0
ARC
  5
67D0
  8
0
 10
85.101138442631893
 20
11.076722393886749
 30
0.0
 40
0.035004158867464
 50
359.61309813565759
 51
89.996810982803964
  0
ARC
  5
67D1
  8
0
 10
85.483050526123108
 20
10.241726552699999
 30
0.0
 40
2.3500000000000001
 50
182.19315595430001
 51
203.48600188259999
  0
ARC
  5
67D2
  8
0
 10
85.483050526123108
 20
10.241726552699999
 30
0.0
 40
2.27
 50
182.27236142059999
 51
203.4774147033001
  0
ARC
  5
67D3
  8
0
 10
85.199969830523116
 20
11.1329867584
 30
0.0
 40
0.0196850394
 50
270.0
 51
0.0
  0
ARC
  5
67D4
  8
0
 10
1419.3920129720279
 20
11.674121327619201
 30
0.0
 40
1334.8360947839039
 50
179.81098362718629
 51
179.9827810642071
  0
ARC
  5
67D5
  8
0
 10
81.909050526123124
 20
23.861726552699999
 30
0.0
 40
0.05
 50
180.0
 51
270.0
  0
ARC
  5
67D6
  8
0
 10
81.909050526123124
 20
25.061726552700001
 30
0.0
 40
0.05
 50
90.0
 51
180.0
  0
ARC
  5
67D7
  8
0
 10
82.459050526123136
 20
24.4617265527
 30
0.0
 40
0.6425354462000001
 50
339.03523319562379
 51
20.96476680437619
  0
ARC
  5
67D8
  8
0
 10
82.459050526123136
 20
24.4617265527
 30
0.0
 40
0.6425354462000001
 50
159.0352331956235
 51
200.96476680437641
  0
ARC
  5
67D9
  8
0
 10
83.009050526123119
 20
25.061726552700001
 30
0.0
 40
0.05
 50
0.0
 51
90.0
  0
ARC
  5
67DA
  8
0
 10
83.009050526123119
 20
23.861726552699999
 30
0.0
 40
0.05
 50
270.0
 51
0.0
  0
ARC
  5
683D
  8
0
 10
82.519585811097727
 20
30.956233139384061
 30
0.0
 40
0.8687148817174977
 50
93.995821375419993
 51
116.0209214670688
  0
ARC
  5
683E
  8
0
 10
82.448581433625264
 20
31.190089244362039
 30
0.0
 40
0.6328336501996653
 50
48.200014265628788
 51
89.052101324186253
  0
ARC
  5
683F
  8
0
 10
82.384049245324945
 20
31.399459071868549
 30
0.0
 40
0.4173286023271239
 50
126.04557073814451
 51
177.6719943082129
  0
ARC
  5
6840
  8
0
 10
82.646294900503307
 20
31.452557724412269
 30
0.0
 40
0.3066276887796478
 50
353.66548453243621
 51
43.044559837701293
  0
ARC
  5
6841
  8
0
 10
82.459045797456824
 20
28.123143456714999
 30
0.0
 40
2.9222433355287172
 50
80.307205251779024
 51
99.692606635060528
  0
ARC
  5
6842
  8
0
 10
82.576978681579433
 20
28.551762994924829
 30
0.0
 40
2.4802784843941179
 50
53.605991050378591
 51
81.325638043677159
  0
ARC
  5
6843
  8
0
 10
83.281515375351177
 20
29.45546282635906
 30
0.0
 40
1.3351721168686499
 50
3.2917193571009449
 51
54.933159577069503
  0
ARC
  5
6844
  8
0
 10
82.311780233462244
 20
28.640409152481752
 30
0.0
 40
2.3882737617520999
 50
98.29921400084757
 51
131.05282081093091
  0
ARC
  5
6845
  8
0
 10
81.574717367229454
 20
29.478466573531911
 30
0.0
 40
1.27223313795056
 50
130.8085296200509
 51
177.58260555992479
  0
ARC
  5
6846
  8
0
 10
82.287488195363196
 20
31.439162555268538
 30
0.0
 40
0.321229830056743
 50
184.06144814172001
 51
242.90824275690821
  0
ARC
  5
6847
  8
0
 10
82.451835585335843
 20
31.69759842221352
 30
0.0
 40
0.6268099313504555
 50
240.29132338049061
 51
270.65952176244389
  0
ARC
  5
6848
  8
0
 10
82.467288917330976
 20
31.69134062876627
 30
0.0
 40
0.6205652997772903
 50
269.23934047312002
 51
301.27759988104191
  0
ARC
  5
6849
  8
0
 10
82.635798858805146
 20
31.436818390216239
 30
0.0
 40
0.3157703727892834
 50
299.12242133502878
 51
356.71548066478152
  0
ARC
  5
684A
  8
0
 10
81.464312187555777
 20
28.87880408500784
 30
0.0
 40
1.1687144896536521
 50
179.79179478099201
 51
212.6746633623525
  0
ARC
  5
684B
  8
0
 10
81.879415699009726
 20
29.148586826941049
 30
0.0
 40
1.663777495786942
 50
212.77757378248509
 51
236.540396945341
  0
ARC
  5
684C
  8
0
 10
82.352890595431177
 20
29.877809351556561
 30
0.0
 40
2.533209116748409
 50
236.69980528185729
 51
261.23902181646469
  0
ARC
  5
684D
  8
0
 10
82.457151317955294
 20
30.34465178928837
 30
0.0
 40
3.010654247178266
 50
260.63119462566232
 51
268.91868898057129
  0
ARC
  5
684E
  8
0
 10
81.481610702326435
 20
28.853859525951339
 30
0.0
 40
1.1863644831903111
 50
143.45354825080921
 51
178.59004654997051
  0
ARC
  5
684F
  8
0
 10
82.094673902722604
 20
28.35553003144036
 30
0.0
 40
1.9759411597686281
 50
108.6463658577599
 51
142.43043942864119
  0
ARC
  5
6850
  8
0
 10
82.448461181832954
 20
27.486986854709649
 30
0.0
 40
2.9125775975496708
 50
89.791687585310981
 51
109.7779835756351
  0
ARC
  5
6851
  8
0
 10
82.481645829492905
 20
27.582542328276482
 30
0.0
 40
2.8170934914247638
 50
63.929014837124349
 51
90.459562100205233
  0
ARC
  5
6852
  8
0
 10
82.965816413195853
 20
28.528597309213978
 30
0.0
 40
1.7546182638566781
 50
30.055220050135699
 51
64.553703081880144
  0
ARC
  5
6853
  8
0
 10
83.479074104179006
 20
28.86246039914333
 30
0.0
 40
1.143606915886449
 50
1.048526827475718
 51
28.456001789150172
  0
ARC
  5
6854
  8
0
 10
82.463689664574275
 20
30.294912766908091
 30
0.0
 40
2.960872923010458
 50
271.04646396299012
 51
279.47402156951142
  0
ARC
  5
6855
  8
0
 10
82.589000496130367
 20
29.80432423023052
 30
0.0
 40
2.456723368910513
 50
278.4746086611097
 51
307.0872638616367
  0
ARC
  5
6856
  8
0
 10
83.300399052618474
 20
28.91983158722751
 30
0.0
 40
1.322592680282362
 50
305.6090273587098
 51
358.42101373897322
  0
ARC
  5
6857
  8
0
 10
82.459050526123136
 20
24.4617265527
 30
0.0
 40
1.4999999999999989
 50
289.14742850705221
 51
70.852571492947874
  0
ARC
  5
6858
  8
0
 10
82.459050526123136
 20
24.4617265527
 30
0.0
 40
1.4999999999999989
 50
109.1474285070521
 51
250.85257149294779
  0
ARC
  5
6859
  8
0
 10
82.459050526123136
 20
6.4617265527000001
 30
0.0
 40
1.5
 50
109.1474285070521
 51
250.52877936550959
  0
ARC
  5
685A
  8
0
 10
82.459050526123136
 20
6.4617265527000001
 30
0.0
 40
1.5
 50
289.47122063449041
 51
70.852571492947874
  0
ARC
  5
685B
  8
0
 10
83.346073730096492
 20
9.3131632632817301
 30
0.0
 40
0.0200000838602863
 50
203.48582612149349
 51
293.97756829541208
  0
ARC
  5
685C
  8
0
 10
83.382555044655774
 20
9.3294456040411529
 30
0.0
 40
0.0200519856281081
 50
294.12488396285403
 51
23.33033926233179
  0
ARC
  5
685D
  8
0
 10
84.623494841402305
 20
17.977986253355279
 30
0.0
 40
1.6505827905953481
 50
206.11225998150169
 51
235.15373230326091
  0
ARC
  5
685E
  8
0
 10
84.733372215781614
 20
18.126734144864809
 30
0.0
 40
1.835447079706819
 50
234.99190689280761
 51
248.9636333252148
  0
ARC
  5
685F
  8
0
 10
85.127797693239359
 20
19.535579027470259
 30
0.0
 40
3.2948532153753982
 50
251.35679900891441
 51
256.84373839987751
  0
ARC
  5
6860
  8
0
 10
84.336487753087525
 20
16.134460901477109
 30
0.0
 40
0.1971362098921865
 50
53.0385894205547
 51
77.88426977434608
  0
ARC
  5
6861
  8
0
 10
84.232097208423028
 20
16.045022229141338
 30
0.0
 40
0.3326914873003693
 50
5.6336384058272797
 51
47.928129101308933
  0
ARC
  5
6862
  8
0
 10
84.832928159507176
 20
12.07542532693938
 30
0.0
 40
0.2769497328675527
 50
180.03093990750531
 51
272.32623744448489
  0
ARC
  5
6863
  8
0
 10
84.847110990059889
 20
12.04355015506337
 30
0.0
 40
0.2448640001681539
 50
269.31167288701801
 51
7.4444168285174008
  0
ARC
  5
6864
  8
0
 10
85.374330691677471
 20
16.05059660933231
 30
0.0
 40
0.2907773025538217
 50
124.4553929786466
 51
174.6558531754128
  0
ARC
  5
6865
  8
0
 10
85.354617365331862
 20
16.065557085505208
 30
0.0
 40
0.2674018084816698
 50
101.95258485070261
 51
122.7858229042272
  0
ARC
  5
6866
  8
0
 10
84.556382589642837
 20
19.775138627450591
 30
0.0
 40
3.5270923786859392
 50
282.1583408038174
 51
287.8077678739304
  0
ARC
  5
6867
  8
0
 10
84.821659575740227
 20
18.72722220351174
 30
0.0
 40
2.4491973232134381
 50
289.39666972863711
 51
325.81068235226678
  0
ARC
  5
6868
  8
0
 10
85.237832653311955
 20
18.459330016922809
 30
0.0
 40
1.9544470888598531
 50
325.45117416150958
 51
356.6624909169343
  0
ARC
  5
6869
  8
0
 10
85.534991424144806
 20
18.442075970073962
 30
0.0
 40
1.656787836416463
 50
356.65989433769897
 51
27.710441775736601
  0
ARC
  5
686A
  8
0
 10
85.277769508044386
 20
18.929245301619108
 30
0.0
 40
1.6560515126175031
 50
28.149129239589271
 51
59.072761666917067
  0
ARC
  5
686B
  8
0
 10
85.102958781053829
 20
18.616624818986061
 30
0.0
 40
2.014096144737048
 50
59.377570227575049
 51
90.59543386609927
  0
ARC
  5
686C
  8
0
 10
85.103501020635008
 20
18.164987185879149
 30
0.0
 40
2.465718519243401
 50
90.498971415049937
 51
136.0044213759478
  0
ARC
  5
686D
  8
0
 10
84.626453343147233
 20
18.50727501074611
 30
0.0
 40
1.886700530116505
 50
133.41862689253139
 51
203.38816541675081
  0
ARC
  5
686E
  8
0
 10
84.670138565266228
 20
17.979907388252212
 30
0.0
 40
1.693415708867726
 50
169.127282146244
 51
205.47601344481899
  0
ARC
  5
686F
  8
0
 10
85.106189193908946
 20
17.882349360869789
 30
0.0
 40
2.1400837282355121
 50
134.82869625969309
 51
168.76436434716811
  0
ARC
  5
6870
  8
0
 10
85.371672160932846
 20
17.64286045052874
 30
0.0
 40
2.497171948916971
 50
106.3065890675702
 51
135.27492225174981
  0
ARC
  5
6871
  8
0
 10
85.341495814198836
 20
17.765519538143359
 30
0.0
 40
2.3709805676136231
 50
88.196178726461326
 51
106.4389533812402
  0
ARC
  5
6872
  8
0
 10
85.359547260973784
 20
18.098164106997729
 30
0.0
 40
2.0379466892678479
 50
63.435302494030253
 51
88.409053754550754
  0
ARC
  5
6873
  8
0
 10
85.522187427363406
 20
18.417418511959241
 30
0.0
 40
1.67966415708187
 50
28.251988379102102
 51
63.527304130349428
  0
ARC
  5
6874
  8
0
 10
84.780933314764042
 20
16.341633042006521
 30
0.0
 40
0.0200132317483777
 50
6.8183628296548067
 51
96.621587220264445
  0
ARC
  5
6875
  8
0
 10
84.866493896924155
 20
18.549801422652621
 30
0.0
 40
2.1900520672788262
 50
252.83108470726609
 51
267.70058594757433
  0
ARC
  5
6876
  8
0
 10
84.750157535428073
 20
18.133735325154291
 30
0.0
 40
1.7582238398631429
 50
232.21491085320139
 51
252.45091232902161
  0
ARC
  5
6877
  8
0
 10
84.632138988969558
 20
17.98036876902772
 30
0.0
 40
1.564706054359752
 50
205.4509221097112
 51
232.1894200140747
  0
ARC
  5
6878
  8
0
 10
84.613164766126943
 20
17.976049823189289
 30
0.0
 40
1.5457230491132039
 50
171.21306431292001
 51
205.6086115238715
  0
ARC
  5
6879
  8
0
 10
85.023892685783082
 20
17.926838330006149
 30
0.0
 40
1.959198729426856
 50
145.30926848295411
 51
171.62568119955341
  0
ARC
  5
687A
  8
0
 10
85.257564654987746
 20
17.774630035533612
 30
0.0
 40
2.2379748250444229
 50
127.4577319477427
 51
145.51004782294839
  0
ARC
  5
687B
  8
0
 10
85.333116114571766
 20
17.717261164614591
 30
0.0
 40
2.3295979805346501
 50
90.4687239373186
 51
128.07464173733931
  0
ARC
  5
687C
  8
0
 10
85.344381010839115
 20
18.192903230492231
 30
0.0
 40
1.854125927173337
 50
51.303751378954111
 51
90.937063982341584
  0
ARC
  5
687D
  8
0
 10
85.482409674282977
 20
18.39593627397041
 30
0.0
 40
1.6094847103332339
 50
339.83463868259378
 51
50.619983770516349
  0
ARC
  5
687E
  8
0
 10
84.967571037409584
 20
18.561117480900169
 30
0.0
 40
2.1498245681739561
 50
305.27372042604668
 51
340.43230263127037
  0
ARC
  5
687F
  8
0
 10
84.833072176642105
 20
18.702182830960361
 30
0.0
 40
2.342832957314835
 50
273.60384803303441
 51
305.96687099358411
  0
ARC
  5
6880
  8
0
 10
85.353110958720166
 20
18.064679443112379
 30
0.0
 40
1.9286917635684679
 50
64.903031279393218
 51
88.762685235653024
  0
ARC
  5
6881
  8
0
 10
85.513949364915376
 20
18.385967925323069
 30
0.0
 40
1.569543897293598
 50
23.295659442832569
 51
65.245405948148303
  0
ARC
  5
6882
  8
0
 10
85.454002583138433
 20
18.38859713874281
 30
0.0
 40
1.623773942462355
 50
340.11415009683151
 51
22.37387679528549
  0
ARC
  5
6883
  8
0
 10
84.965142608175285
 20
18.55797809706533
 30
0.0
 40
2.1411101858401289
 50
305.39036368214312
 51
340.30155694117838
  0
ARC
  5
6884
  8
0
 10
84.838076011716851
 20
18.690819325085489
 30
0.0
 40
2.3231484750278391
 50
273.51216180967327
 51
306.04773753477753
  0
ARC
  5
6885
  8
0
 10
85.351368885099177
 20
17.681623178866641
 30
0.0
 40
2.31170555150831
 50
88.92452878781377
 51
126.0896064662619
  0
ARC
  5
6886
  8
0
 10
85.144667418510863
 20
17.878352187826959
 30
0.0
 40
2.0316160698709891
 50
124.6468728467303
 51
175.0970572426898
  0
ARC
  5
6887
  8
0
 10
84.664296316425805
 20
17.9585651889501
 30
0.0
 40
1.5466353808339799
 50
176.53690886936849
 51
245.52769590004019
  0
ARC
  5
6888
  8
0
 10
84.838990676728329
 20
18.289405494434391
 30
0.0
 40
1.920246689655372
 50
244.87279137912941
 51
268.32789624585138
  0
ARC
  5
6889
  8
0
 10
84.779362411710494
 20
16.348388685250821
 30
0.0
 40
0.0218852889169718
 50
348.45617235419951
 51
80.54201411894293
  0
LINE
  5
688A
  8
0
 10
84.840957402423115
 20
15.9573998085
 30
0.0
 11
84.921726369582117
 21
15.958354797398281
 31
0.0
  0
ARC
  5
688B
  8
0
 10
84.849502122901285
 20
16.02283552963798
 30
0.0
 40
0.0659912558517988
 50
175.53382461090689
 51
262.56030426062608
  0
ARC
  5
688C
  8
0
 10
87.578969731063239
 20
16.035263454622939
 30
0.0
 40
2.7952679840215859
 50
173.65857304555669
 51
180.1494089223693
  0
ARC
  5
688D
  8
0
 10
85.755333582366418
 20
19.748164918669062
 30
0.0
 40
0.0751955967879877
 50
32.552584981880209
 51
175.93999384934739
  0
ARC
  5
688E
  8
0
 10
85.743068638303882
 20
19.746584839672309
 30
0.0
 40
0.0631206555438082
 50
173.7205336423954
 51
262.60469541131721
  0
ARC
  5
688F
  8
0
 10
85.745125649814682
 20
19.763189533306061
 30
0.0
 40
0.0798520527951964
 50
262.67455450746002
 51
353.3983513966981
  0
ARC
  5
6890
  8
0
 10
85.756329972336815
 20
19.76051179818112
 30
0.0
 40
0.0684279264409392
 50
354.5471142985225
 51
24.258480121607899
  0
CIRCLE
  5
6891
  8
0
 10
85.754620059928868
 20
19.74945356983331
 30
0.0
 40
0.01404613652748
  0
ARC
  5
6892
  8
0
 10
84.894632526581205
 20
19.748385461315308
 30
0.0
 40
0.0751955967879877
 50
32.552584981880209
 51
175.93999384934739
  0
ARC
  5
6893
  8
0
 10
84.882367582518668
 20
19.746805382318559
 30
0.0
 40
0.0631206555438082
 50
173.7205336423954
 51
262.60469541131721
  0
ARC
  5
6894
  8
0
 10
84.884424594029454
 20
19.763410075952311
 30
0.0
 40
0.0798520527951964
 50
262.67455450746002
 51
353.3983513966981
  0
ARC
  5
6895
  8
0
 10
84.895628916551615
 20
19.760732340827371
 30
0.0
 40
0.0684279264409392
 50
354.5471142985225
 51
24.258480121607899
  0
CIRCLE
  5
6896
  8
0
 10
84.893919004143655
 20
19.749674112479571
 30
0.0
 40
0.01404613652748
  0
ARC
  5
6897
  8
0
 10
84.439114647167372
 20
19.512619551148791
 30
0.0
 40
0.0751955967879877
 50
32.552584981880209
 51
175.93999384934739
  0
ARC
  5
6898
  8
0
 10
84.426849703104835
 20
19.511039472152039
 30
0.0
 40
0.0631206555438082
 50
173.7205336423954
 51
262.60469541131721
  0
ARC
  5
6899
  8
0
 10
84.428906714615636
 20
19.527644165785791
 30
0.0
 40
0.0798520527951964
 50
262.67455450746002
 51
353.3983513966981
  0
ARC
  5
689A
  8
0
 10
84.440111037137783
 20
19.52496643066085
 30
0.0
 40
0.0684279264409392
 50
354.5471142985225
 51
24.258480121607899
  0
CIRCLE
  5
689B
  8
0
 10
84.438401124729836
 20
19.513908202313051
 30
0.0
 40
0.01404613652748
  0
ARC
  5
689C
  8
0
 10
83.977963356483215
 20
19.291363977478429
 30
0.0
 40
0.0751955967879877
 50
32.552584981880209
 51
175.93999384934739
  0
ARC
  5
689D
  8
0
 10
83.965698412420693
 20
19.28978389848168
 30
0.0
 40
0.0631206555438082
 50
173.7205336423954
 51
262.60469541131721
  0
ARC
  5
689E
  8
0
 10
83.967755423931479
 20
19.306388592115429
 30
0.0
 40
0.0798520527951964
 50
262.67455450746002
 51
353.3983513966981
  0
ARC
  5
689F
  8
0
 10
83.978959746453626
 20
19.303710856990481
 30
0.0
 40
0.0684279264409392
 50
354.5471142985225
 51
24.258480121607889
  0
CIRCLE
  5
68A0
  8
0
 10
83.977249834045693
 20
19.292652628642688
 30
0.0
 40
0.01404613652748
  0
ARC
  5
68A1
  8
0
 10
83.456432567509736
 20
18.602620660005929
 30
0.0
 40
0.0751955967879877
 50
32.552584981880223
 51
175.93999384934739
  0
ARC
  5
68A2
  8
0
 10
83.444167623447186
 20
18.60104058100918
 30
0.0
 40
0.0631206555438082
 50
173.7205336423954
 51
262.60469541131721
  0
ARC
  5
68A3
  8
0
 10
83.446224634957986
 20
18.617645274642928
 30
0.0
 40
0.0798520527951964
 50
262.67455450746002
 51
353.3983513966981
  0
ARC
  5
68A4
  8
0
 10
83.457428957480133
 20
18.614967539517991
 30
0.0
 40
0.0684279264409392
 50
354.5471142985225
 51
24.258480121607889
  0
CIRCLE
  5
68A5
  8
0
 10
83.455719045072186
 20
18.603909311170181
 30
0.0
 40
0.01404613652748
  0
ARC
  5
68A6
  8
0
 10
83.399981288221312
 20
18.14058184536097
 30
0.0
 40
0.0751955967879877
 50
32.552584981880223
 51
175.93999384934739
  0
ARC
  5
68A7
  8
0
 10
83.387716344158775
 20
18.13900176636422
 30
0.0
 40
0.0631206555438082
 50
173.7205336423954
 51
262.60469541131721
  0
ARC
  5
68A8
  8
0
 10
83.389773355669575
 20
18.155606459997969
 30
0.0
 40
0.0798520527951964
 50
262.67455450746002
 51
353.3983513966981
  0
ARC
  5
68A9
  8
0
 10
83.400977678191708
 20
18.152928724873028
 30
0.0
 40
0.0684279264409392
 50
354.5471142985225
 51
24.258480121607889
  0
CIRCLE
  5
68AA
  8
0
 10
83.399267765783776
 20
18.141870496525229
 30
0.0
 40
0.01404613652748
  0
ARC
  5
68AB
  8
0
 10
83.337674818054523
 20
17.689938389127349
 30
0.0
 40
0.0751955967879877
 50
32.552584981880223
 51
175.93999384934739
  0
ARC
  5
68AC
  8
0
 10
83.325409873991987
 20
17.688358310130599
 30
0.0
 40
0.0631206555438082
 50
173.72053364239531
 51
262.60469541131721
  0
ARC
  5
68AD
  8
0
 10
83.327466885502787
 20
17.704963003764352
 30
0.0
 40
0.0798520527951964
 50
262.67455450746002
 51
353.3983513966981
  0
ARC
  5
68AE
  8
0
 10
83.338671208024934
 20
17.702285268639411
 30
0.0
 40
0.0684279264409392
 50
354.5471142985225
 51
24.258480121607889
  0
CIRCLE
  5
68AF
  8
0
 10
83.336961295616987
 20
17.691227040291611
 30
0.0
 40
0.01404613652748
  0
ARC
  5
68B0
  8
0
 10
83.676767120998392
 20
17.001897082969581
 30
0.0
 40
0.0751955967879877
 50
32.552584981880223
 51
175.93999384934739
  0
ARC
  5
68B1
  8
0
 10
83.664502176935855
 20
17.000317003972832
 30
0.0
 40
0.0631206555438082
 50
173.72053364239531
 51
262.60469541131721
  0
ARC
  5
68B2
  8
0
 10
83.666559188446655
 20
17.01692169760658
 30
0.0
 40
0.0798520527951964
 50
262.67455450746002
 51
353.3983513966981
  0
ARC
  5
68B3
  8
0
 10
83.677763510968802
 20
17.01424396248164
 30
0.0
 40
0.0684279264409392
 50
354.5471142985225
 51
24.258480121607889
  0
CIRCLE
  5
68B4
  8
0
 10
83.676053598560856
 20
17.00318573413384
 30
0.0
 40
0.01404613652748
  0
ARC
  5
68B5
  8
0
 10
84.077197526229241
 20
16.76895863998763
 30
0.0
 40
0.0751955967879877
 50
32.552584981880223
 51
175.93999384934739
  0
ARC
  5
68B6
  8
0
 10
84.064932582166705
 20
16.767378560990881
 30
0.0
 40
0.0631206555438082
 50
173.72053364239531
 51
262.60469541131721
  0
ARC
  5
68B7
  8
0
 10
84.066989593677505
 20
16.78398325462463
 30
0.0
 40
0.0798520527951964
 50
262.67455450746002
 51
353.3983513966981
  0
ARC
  5
68B8
  8
0
 10
84.078193916199638
 20
16.781305519499689
 30
0.0
 40
0.0684279264409392
 50
354.5471142985225
 51
24.258480121607889
  0
CIRCLE
  5
68B9
  8
0
 10
84.076484003791705
 20
16.77024729115189
 30
0.0
 40
0.01404613652748
  0
ARC
  5
68BA
  8
0
 10
84.472701355512896
 20
16.548895771755038
 30
0.0
 40
0.0751955967879877
 50
32.552584981880223
 51
175.93999384934739
  0
ARC
  5
68BB
  8
0
 10
84.460436411450374
 20
16.547315692758289
 30
0.0
 40
0.0631206555438082
 50
173.72053364239531
 51
262.60469541131721
  0
ARC
  5
68BC
  8
0
 10
84.46249342296116
 20
16.563920386392041
 30
0.0
 40
0.0798520527951964
 50
262.67455450746002
 51
353.3983513966981
  0
ARC
  5
68BD
  8
0
 10
84.473697745483307
 20
16.561242651267101
 30
0.0
 40
0.0684279264409392
 50
354.5471142985225
 51
24.258480121607889
  0
CIRCLE
  5
68BE
  8
0
 10
84.47198783307536
 20
16.550184422919301
 30
0.0
 40
0.01404613652748
  0
ARC
  5
68BF
  8
0
 10
85.334035815984379
 20
16.544667269929558
 30
0.0
 40
0.0751955967879877
 50
32.552584981880223
 51
175.93999384934739
  0
ARC
  5
68C0
  8
0
 10
85.321770871921842
 20
16.543087190932809
 30
0.0
 40
0.0631206555438082
 50
173.72053364239531
 51
262.60469541131721
  0
ARC
  5
68C1
  8
0
 10
85.323827883432642
 20
16.559691884566561
 30
0.0
 40
0.0798520527951964
 50
262.67455450746002
 51
353.3983513966981
  0
ARC
  5
68C2
  8
0
 10
85.335032205954789
 20
16.557014149441621
 30
0.0
 40
0.0684279264409392
 50
354.5471142985225
 51
24.258480121607889
  0
CIRCLE
  5
68C3
  8
0
 10
85.333322293546843
 20
16.545955921093821
 30
0.0
 40
0.01404613652748
  0
ARC
  5
68C4
  8
0
 10
85.794442261947182
 20
16.76870250296739
 30
0.0
 40
0.0751955967879877
 50
32.552584981880223
 51
175.93999384934739
  0
ARC
  5
68C5
  8
0
 10
85.782177317884646
 20
16.76712242397064
 30
0.0
 40
0.0631206555438082
 50
173.72053364239531
 51
262.60469541131721
  0
ARC
  5
68C6
  8
0
 10
85.784234329395446
 20
16.783727117604389
 30
0.0
 40
0.0798520527951964
 50
262.67455450746002
 51
353.3983513966981
  0
ARC
  5
68C7
  8
0
 10
85.795438651917593
 20
16.781049382479448
 30
0.0
 40
0.0684279264409392
 50
354.5471142985225
 51
24.258480121607889
  0
CIRCLE
  5
68C8
  8
0
 10
85.793728739509646
 20
16.769991154131649
 30
0.0
 40
0.01404613652748
  0
ARC
  5
68C9
  8
0
 10
86.250893986943282
 20
17.00423319203367
 30
0.0
 40
0.0751955967879877
 50
32.552584981880223
 51
175.93999384934739
  0
ARC
  5
68CA
  8
0
 10
86.238629042880746
 20
17.002653113036921
 30
0.0
 40
0.0631206555438082
 50
173.72053364239531
 51
262.60469541131721
  0
ARC
  5
68CB
  8
0
 10
86.240686054391546
 20
17.019257806670669
 30
0.0
 40
0.0798520527951964
 50
262.67455450746002
 51
353.3983513966981
  0
ARC
  5
68CC
  8
0
 10
86.251890376913678
 20
17.016580071545729
 30
0.0
 40
0.0684279264409392
 50
354.5471142985225
 51
24.258480121607889
  0
CIRCLE
  5
68CD
  8
0
 10
86.250180464505746
 20
17.005521843197929
 30
0.0
 40
0.01404613652748
  0
ARC
  5
68CE
  8
0
 10
86.773357924078965
 20
17.688109574122791
 30
0.0
 40
0.0751955967879877
 50
32.552584981880223
 51
175.93999384934739
  0
ARC
  5
68CF
  8
0
 10
86.761092980016429
 20
17.686529495126042
 30
0.0
 40
0.0631206555438082
 50
173.72053364239531
 51
262.60469541131721
  0
ARC
  5
68D0
  8
0
 10
86.763149991527214
 20
17.70313418875979
 30
0.0
 40
0.0798520527951964
 50
262.67455450746002
 51
353.3983513966981
  0
ARC
  5
68D1
  8
0
 10
86.774354314049376
 20
17.70045645363485
 30
0.0
 40
0.0684279264409392
 50
354.5471142985225
 51
24.258480121607889
  0
CIRCLE
  5
68D2
  8
0
 10
86.772644401641415
 20
17.68939822528705
 30
0.0
 40
0.01404613652748
  0
ARC
  5
68D3
  8
0
 10
86.836095748609154
 20
18.142333968658878
 30
0.0
 40
0.0751955967879877
 50
32.552584981880223
 51
175.93999384934739
  0
ARC
  5
68D4
  8
0
 10
86.823830804546617
 20
18.140753889662129
 30
0.0
 40
0.0631206555438082
 50
173.7205336423954
 51
262.60469541131721
  0
ARC
  5
68D5
  8
0
 10
86.825887816057417
 20
18.157358583295881
 30
0.0
 40
0.0798520527951964
 50
262.67455450746002
 51
353.3983513966981
  0
ARC
  5
68D6
  8
0
 10
86.837092138579564
 20
18.154680848170941
 30
0.0
 40
0.0684279264409392
 50
354.5471142985225
 51
24.258480121607889
  0
CIRCLE
  5
68D7
  8
0
 10
86.835382226171618
 20
18.143622619823141
 30
0.0
 40
0.01404613652748
  0
ARC
  5
68D8
  8
0
 10
86.893296754559984
 20
18.603512242595521
 30
0.0
 40
0.0751955967879877
 50
32.552584981880223
 51
175.93999384934739
  0
ARC
  5
68D9
  8
0
 10
86.881031810497447
 20
18.601932163598772
 30
0.0
 40
0.0631206555438082
 50
173.7205336423954
 51
262.60469541131721
  0
ARC
  5
68DA
  8
0
 10
86.883088822008276
 20
18.61853685723252
 30
0.0
 40
0.0798520527951964
 50
262.67455450746002
 51
353.3983513966981
  0
ARC
  5
68DB
  8
0
 10
86.894293144530408
 20
18.615859122107569
 30
0.0
 40
0.0684279264409392
 50
354.5471142985225
 51
24.258480121607889
  0
CIRCLE
  5
68DC
  8
0
 10
86.892583232122462
 20
18.604800893759769
 30
0.0
 40
0.01404613652748
  0
ARC
  5
68DD
  8
0
 10
86.553245847618456
 20
19.291978009129679
 30
0.0
 40
0.0751955967879877
 50
32.552584981880209
 51
175.93999384934739
  0
ARC
  5
68DE
  8
0
 10
86.540980903555919
 20
19.290397930132929
 30
0.0
 40
0.0631206555438082
 50
173.7205336423954
 51
262.60469541131721
  0
ARC
  5
68DF
  8
0
 10
86.543037915066719
 20
19.307002623766682
 30
0.0
 40
0.0798520527951964
 50
262.67455450746002
 51
353.3983513966981
  0
ARC
  5
68E0
  8
0
 10
86.554242237588866
 20
19.304324888641741
 30
0.0
 40
0.0684279264409392
 50
354.5471142985225
 51
24.258480121607899
  0
CIRCLE
  5
68E1
  8
0
 10
86.552532325180906
 20
19.293266660293941
 30
0.0
 40
0.01404613652748
  0
ARC
  5
68E2
  8
0
 10
86.157454681232565
 20
19.513792170663379
 30
0.0
 40
0.0751955967879877
 50
32.552584981880209
 51
175.93999384934739
  0
ARC
  5
68E3
  8
0
 10
86.145189737170014
 20
19.51221209166663
 30
0.0
 40
0.0631206555438082
 50
173.7205336423954
 51
262.60469541131721
  0
ARC
  5
68E4
  8
0
 10
86.147246748680828
 20
19.528816785300378
 30
0.0
 40
0.0798520527951964
 50
262.67455450746002
 51
353.3983513966981
  0
ARC
  5
68E5
  8
0
 10
86.158451071202975
 20
19.526139050175441
 30
0.0
 40
0.0684279264409392
 50
354.5471142985225
 51
24.258480121607899
  0
CIRCLE
  5
68E6
  8
0
 10
86.156741158795029
 20
19.515080821827642
 30
0.0
 40
0.01404613652748
  0
ARC
  5
68E7
  8
0
 10
85.711780471143328
 20
19.259931560189099
 30
0.0
 40
0.0582300421456899
 50
63.162031588569747
 51
141.49221711868751
  0
ARC
  5
68E8
  8
0
 10
85.71077402984281
 20
19.270421685226172
 30
0.0
 40
0.0496449441344736
 50
306.795969735021
 51
56.645733368057691
  0
ARC
  5
68E9
  8
0
 10
85.703086655549043
 20
19.27031496277769
 30
0.0
 40
0.0545199146092191
 50
228.05106345693019
 51
313.34667842696081
  0
ARC
  5
68EA
  8
0
 10
85.702040250093219
 20
19.26320588062282
 30
0.0
 40
0.048695534309524
 50
137.3678852726197
 51
223.3700703605991
  0
CIRCLE
  5
68EB
  8
0
 10
85.709018878723981
 20
19.261564144518388
 30
0.0
 40
0.0164023345111833
  0
ARC
  5
68EC
  8
0
 10
85.307515126887225
 20
19.499534495464609
 30
0.0
 40
0.0582300421456899
 50
63.162031588569747
 51
141.49221711868751
  0
ARC
  5
68ED
  8
0
 10
85.306508685586707
 20
19.510024620501689
 30
0.0
 40
0.0496449441344736
 50
306.795969735021
 51
56.645733368057677
  0
ARC
  5
68EE
  8
0
 10
85.298821311292954
 20
19.5099178980532
 30
0.0
 40
0.0545199146092191
 50
228.05106345693019
 51
313.34667842696081
  0
ARC
  5
68EF
  8
0
 10
85.29777490583713
 20
19.50280881589833
 30
0.0
 40
0.048695534309524
 50
137.3678852726197
 51
223.3700703605991
  0
CIRCLE
  5
68F0
  8
0
 10
85.304753534467892
 20
19.501167079793898
 30
0.0
 40
0.0164023345111833
  0
ARC
  5
68F1
  8
0
 10
84.853623198505176
 20
19.260569509022751
 30
0.0
 40
0.0582300421456899
 50
63.162031588569747
 51
141.49221711868751
  0
ARC
  5
68F2
  8
0
 10
84.852616757204643
 20
19.271059634059831
 30
0.0
 40
0.0496449441344736
 50
306.795969735021
 51
56.645733368057677
  0
ARC
  5
68F3
  8
0
 10
84.844929382910877
 20
19.270952911611339
 30
0.0
 40
0.0545199146092191
 50
228.05106345693019
 51
313.34667842696081
  0
ARC
  5
68F4
  8
0
 10
84.843882977455067
 20
19.263843829456469
 30
0.0
 40
0.048695534309524
 50
137.3678852726197
 51
223.3700703605991
  0
CIRCLE
  5
68F5
  8
0
 10
84.850861606085829
 20
19.262202093352052
 30
0.0
 40
0.0164023345111833
  0
ARC
  5
68F6
  8
0
 10
84.394008697925344
 20
19.031016673544482
 30
0.0
 40
0.0582300421456899
 50
63.162031588569747
 51
141.49221711868751
  0
ARC
  5
68F7
  8
0
 10
84.393002256624811
 20
19.041506798581558
 30
0.0
 40
0.0496449441344736
 50
306.795969735021
 51
56.645733368057677
  0
ARC
  5
68F8
  8
0
 10
84.385314882331045
 20
19.041400076133069
 30
0.0
 40
0.0545199146092191
 50
228.05106345693019
 51
313.34667842696081
  0
ARC
  5
68F9
  8
0
 10
84.384268476875206
 20
19.0342909939782
 30
0.0
 40
0.048695534309524
 50
137.3678852726197
 51
223.3700703605991
  0
CIRCLE
  5
68FA
  8
0
 10
84.391247105505997
 20
19.032649257873771
 30
0.0
 40
0.0164023345111833
  0
ARC
  5
68FB
  8
0
 10
83.929527692099455
 20
18.811151708730421
 30
0.0
 40
0.0582300421456899
 50
63.162031588569747
 51
141.49221711868751
  0
ARC
  5
68FC
  8
0
 10
83.928521250798966
 20
18.82164183376749
 30
0.0
 40
0.0496449441344736
 50
306.795969735021
 51
56.645733368057677
  0
ARC
  5
68FD
  8
0
 10
83.920833876505185
 20
18.821535111319012
 30
0.0
 40
0.0545199146092191
 50
228.05106345693019
 51
313.34667842696081
  0
ARC
  5
68FE
  8
0
 10
83.919787471049361
 20
18.814426029164139
 30
0.0
 40
0.048695534309524
 50
137.3678852726197
 51
223.3700703605991
  0
CIRCLE
  5
68FF
  8
0
 10
83.926766099680108
 20
18.81278429305971
 30
0.0
 40
0.0164023345111833
  0
ARC
  5
6900
  8
0
 10
83.873530103646743
 20
18.34539506772645
 30
0.0
 40
0.0582300421456899
 50
63.162031588569747
 51
141.49221711868751
  0
ARC
  5
6901
  8
0
 10
83.872523662346225
 20
18.35588519276353
 30
0.0
 40
0.0496449441344736
 50
306.795969735021
 51
56.645733368057677
  0
ARC
  5
6902
  8
0
 10
83.864836288052459
 20
18.355778470315041
 30
0.0
 40
0.0545199146092191
 50
228.05106345693019
 51
313.34667842696081
  0
ARC
  5
6903
  8
0
 10
83.863789882596635
 20
18.348669388160172
 30
0.0
 40
0.048695534309524
 50
137.3678852726197
 51
223.3700703605991
  0
CIRCLE
  5
6904
  8
0
 10
83.870768511227396
 20
18.34702765205575
 30
0.0
 40
0.0164023345111833
  0
ARC
  5
6905
  8
0
 10
83.813300301510282
 20
17.887726259942291
 30
0.0
 40
0.0582300421456899
 50
63.162031588569747
 51
141.49221711868751
  0
ARC
  5
6906
  8
0
 10
83.812293860209763
 20
17.898216384979371
 30
0.0
 40
0.0496449441344736
 50
306.795969735021
 51
56.645733368057677
  0
ARC
  5
6907
  8
0
 10
83.804606485915997
 20
17.898109662530882
 30
0.0
 40
0.0545199146092191
 50
228.05106345693019
 51
313.34667842696081
  0
ARC
  5
6908
  8
0
 10
83.803560080460173
 20
17.891000580376009
 30
0.0
 40
0.048695534309524
 50
137.3678852726197
 51
223.3700703605991
  0
CIRCLE
  5
6909
  8
0
 10
83.810538709090935
 20
17.889358844271591
 30
0.0
 40
0.0164023345111833
  0
ARC
  5
690A
  8
0
 10
83.748712752450643
 20
17.439807405404022
 30
0.0
 40
0.0582300421456899
 50
63.162031588569747
 51
141.49221711868751
  0
ARC
  5
690B
  8
0
 10
83.747706311150125
 20
17.450297530441102
 30
0.0
 40
0.0496449441344736
 50
306.795969735021
 51
56.645733368057677
  0
ARC
  5
690C
  8
0
 10
83.740018936856345
 20
17.450190807992609
 30
0.0
 40
0.0545199146092191
 50
228.05106345693019
 51
313.34667842696081
  0
ARC
  5
690D
  8
0
 10
83.738972531400535
 20
17.44308172583774
 30
0.0
 40
0.048695534309524
 50
137.3678852726197
 51
223.3700703605991
  0
CIRCLE
  5
690E
  8
0
 10
83.745951160031296
 20
17.441439989733311
 30
0.0
 40
0.0164023345111833
  0
ARC
  5
690F
  8
0
 10
84.151144072872654
 20
17.20042709645093
 30
0.0
 40
0.0582300421456899
 50
63.162031588569747
 51
141.49221711868751
  0
ARC
  5
6910
  8
0
 10
84.150137631572136
 20
17.21091722148801
 30
0.0
 40
0.0496449441344736
 50
306.795969735021
 51
56.645733368057677
  0
ARC
  5
6911
  8
0
 10
84.142450257278355
 20
17.210810499039521
 30
0.0
 40
0.0545199146092191
 50
228.05106345693019
 51
313.34667842696081
  0
ARC
  5
6912
  8
0
 10
84.141403851822545
 20
17.203701416884648
 30
0.0
 40
0.048695534309524
 50
137.3678852726197
 51
223.3700703605991
  0
CIRCLE
  5
6913
  8
0
 10
84.148382480453307
 20
17.202059680780231
 30
0.0
 40
0.0164023345111833
  0
ARC
  5
6914
  8
0
 10
84.551365659578408
 20
16.972115414616379
 30
0.0
 40
0.0582300421456899
 50
63.162031588569747
 51
141.49221711868751
  0
ARC
  5
6915
  8
0
 10
84.55035921827789
 20
16.982605539653449
 30
0.0
 40
0.0496449441344736
 50
306.795969735021
 51
56.645733368057677
  0
ARC
  5
6916
  8
0
 10
84.542671843984124
 20
16.98249881720497
 30
0.0
 40
0.0545199146092191
 50
228.05106345693019
 51
313.34667842696081
  0
ARC
  5
6917
  8
0
 10
84.541625438528285
 20
16.975389735050101
 30
0.0
 40
0.048695534309524
 50
137.3678852726197
 51
223.3700703605991
  0
CIRCLE
  5
6918
  8
0
 10
84.548604067159076
 20
16.973747998945669
 30
0.0
 40
0.0164023345111833
  0
ARC
  5
6919
  8
0
 10
84.943576830799003
 20
16.754273611579801
 30
0.0
 40
0.0582300421456899
 50
63.162031588569739
 51
141.49221711868751
  0
ARC
  5
691A
  8
0
 10
84.942570389498485
 20
16.764763736616882
 30
0.0
 40
0.0496449441344736
 50
306.795969735021
 51
56.645733368057677
  0
ARC
  5
691B
  8
0
 10
84.934883015204704
 20
16.764657014168389
 30
0.0
 40
0.0545199146092191
 50
228.05106345693019
 51
313.34667842696081
  0
ARC
  5
691C
  8
0
 10
84.933836609748894
 20
16.757547932013519
 30
0.0
 40
0.048695534309524
 50
137.3678852726197
 51
223.3700703605991
  0
CIRCLE
  5
691D
  8
0
 10
84.940815238379656
 20
16.755906195909091
 30
0.0
 40
0.0164023345111833
  0
ARC
  5
691E
  8
0
 10
85.410006740165997
 20
16.972734248478069
 30
0.0
 40
0.0582300421456899
 50
63.162031588569747
 51
141.49221711868751
  0
ARC
  5
691F
  8
0
 10
85.409000298865465
 20
16.983224373515149
 30
0.0
 40
0.0496449441344736
 50
306.795969735021
 51
56.645733368057677
  0
ARC
  5
6920
  8
0
 10
85.401312924571698
 20
16.98311765106666
 30
0.0
 40
0.0545199146092191
 50
228.05106345693019
 51
313.34667842696081
  0
ARC
  5
6921
  8
0
 10
85.400266519115874
 20
16.976008568911791
 30
0.0
 40
0.048695534309524
 50
137.3678852726197
 51
223.3700703605991
  0
CIRCLE
  5
6922
  8
0
 10
85.407245147746636
 20
16.974366832807359
 30
0.0
 40
0.0164023345111833
  0
ARC
  5
6923
  8
0
 10
85.871247244899024
 20
17.202234463158579
 30
0.0
 40
0.0582300421456899
 50
63.162031588569747
 51
141.49221711868751
  0
ARC
  5
6924
  8
0
 10
85.870240803598506
 20
17.212724588195659
 30
0.0
 40
0.0496449441344736
 50
306.795969735021
 51
56.645733368057677
  0
ARC
  5
6925
  8
0
 10
85.862553429304739
 20
17.21261786574717
 30
0.0
 40
0.0545199146092191
 50
228.05106345693019
 51
313.34667842696081
  0
ARC
  5
6926
  8
0
 10
85.861507023848915
 20
17.205508783592311
 30
0.0
 40
0.048695534309524
 50
137.3678852726197
 51
223.3700703605991
  0
CIRCLE
  5
6927
  8
0
 10
85.868485652479663
 20
17.203867047487879
 30
0.0
 40
0.0164023345111833
  0
ARC
  5
6928
  8
0
 10
86.325446032310623
 20
17.43913113685451
 30
0.0
 40
0.0582300421456899
 50
63.162031588569747
 51
141.49221711868751
  0
ARC
  5
6929
  8
0
 10
86.324439591010105
 20
17.449621261891579
 30
0.0
 40
0.0496449441344736
 50
306.795969735021
 51
56.645733368057677
  0
ARC
  5
692A
  8
0
 10
86.316752216716324
 20
17.449514539443101
 30
0.0
 40
0.0545199146092191
 50
228.05106345693019
 51
313.34667842696081
  0
ARC
  5
692B
  8
0
 10
86.315705811260514
 20
17.442405457288231
 30
0.0
 40
0.048695534309524
 50
137.3678852726197
 51
223.3700703605991
  0
CIRCLE
  5
692C
  8
0
 10
86.322684439891276
 20
17.440763721183799
 30
0.0
 40
0.0164023345111833
  0
ARC
  5
692D
  8
0
 10
86.391338080949339
 20
17.887445726351579
 30
0.0
 40
0.0582300421456899
 50
63.162031588569747
 51
141.49221711868751
  0
ARC
  5
692E
  8
0
 10
86.390331639648821
 20
17.89793585138866
 30
0.0
 40
0.0496449441344736
 50
306.795969735021
 51
56.645733368057677
  0
ARC
  5
692F
  8
0
 10
86.382644265355054
 20
17.89782912894017
 30
0.0
 40
0.0545199146092191
 50
228.05106345693019
 51
313.34667842696081
  0
ARC
  5
6930
  8
0
 10
86.38159785989923
 20
17.890720046785301
 30
0.0
 40
0.048695534309524
 50
137.3678852726197
 51
223.3700703605991
  0
CIRCLE
  5
6931
  8
0
 10
86.388576488529992
 20
17.889078310680869
 30
0.0
 40
0.0164023345111833
  0
ARC
  5
6932
  8
0
 10
86.449499722967317
 20
18.344965137548929
 30
0.0
 40
0.0582300421456899
 50
63.162031588569747
 51
141.49221711868751
  0
ARC
  5
6933
  8
0
 10
86.448493281666799
 20
18.355455262586009
 30
0.0
 40
0.0496449441344736
 50
306.795969735021
 51
56.645733368057677
  0
ARC
  5
6934
  8
0
 10
86.440805907373033
 20
18.35534854013753
 30
0.0
 40
0.0545199146092191
 50
228.05106345693019
 51
313.34667842696081
  0
ARC
  5
6935
  8
0
 10
86.439759501917209
 20
18.348239457982661
 30
0.0
 40
0.048695534309524
 50
137.3678852726197
 51
223.3700703605991
  0
CIRCLE
  5
6936
  8
0
 10
86.446738130547971
 20
18.346597721878229
 30
0.0
 40
0.0164023345111833
  0
ARC
  5
6937
  8
0
 10
86.504178514999836
 20
18.81062799069565
 30
0.0
 40
0.0582300421456899
 50
63.162031588569747
 51
141.49221711868751
  0
ARC
  5
6938
  8
0
 10
86.503172073699318
 20
18.82111811573272
 30
0.0
 40
0.0496449441344736
 50
306.795969735021
 51
56.645733368057677
  0
ARC
  5
6939
  8
0
 10
86.495484699405552
 20
18.821011393284241
 30
0.0
 40
0.0545199146092191
 50
228.05106345693019
 51
313.34667842696081
  0
ARC
  5
693A
  8
0
 10
86.494438293949727
 20
18.813902311129372
 30
0.0
 40
0.048695534309524
 50
137.3678852726197
 51
223.3700703605991
  0
CIRCLE
  5
693B
  8
0
 10
86.501416922580489
 20
18.81226057502494
 30
0.0
 40
0.0164023345111833
  0
ARC
  5
693C
  8
0
 10
86.109939981963535
 20
19.031065310433291
 30
0.0
 40
0.0582300421456899
 50
63.162031588569747
 51
141.49221711868751
  0
ARC
  5
693D
  8
0
 10
86.108933540663045
 20
19.041555435470361
 30
0.0
 40
0.0496449441344736
 50
306.795969735021
 51
56.645733368057677
  0
ARC
  5
693E
  8
0
 10
86.101246166369265
 20
19.041448713021879
 30
0.0
 40
0.0545199146092191
 50
228.05106345693019
 51
313.34667842696081
  0
ARC
  5
693F
  8
0
 10
86.100199760913441
 20
19.034339630867009
 30
0.0
 40
0.048695534309524
 50
137.3678852726197
 51
223.3700703605991
  0
CIRCLE
  5
6940
  8
0
 10
86.107178389544188
 20
19.032697894762581
 30
0.0
 40
0.0164023345111833
  0
ARC
  5
6941
  8
0
 10
85.259236437841622
 20
19.01738124706878
 30
0.0
 40
0.0582300421456899
 50
63.162031588569747
 51
141.49221711868751
  0
ARC
  5
6942
  8
0
 10
85.258229996541104
 20
19.02787137210586
 30
0.0
 40
0.0496449441344736
 50
306.795969735021
 51
56.645733368057677
  0
ARC
  5
6943
  8
0
 10
85.250542622247323
 20
19.027764649657371
 30
0.0
 40
0.0545199146092191
 50
228.05106345693019
 51
313.34667842696081
  0
ARC
  5
6944
  8
0
 10
85.249496216791513
 20
19.020655567502502
 30
0.0
 40
0.048695534309524
 50
137.3678852726197
 51
223.3700703605991
  0
CIRCLE
  5
6945
  8
0
 10
85.256474845422275
 20
19.01901383139807
 30
0.0
 40
0.0164023345111833
  0
ARC
  5
6946
  8
0
 10
85.66048774581364
 20
18.781637417034201
 30
0.0
 40
0.0582300421456899
 50
63.162031588569747
 51
141.49221711868751
  0
ARC
  5
6947
  8
0
 10
85.659481304513122
 20
18.79212754207127
 30
0.0
 40
0.0496449441344736
 50
306.795969735021
 51
56.645733368057677
  0
ARC
  5
6948
  8
0
 10
85.651793930219355
 20
18.792020819622788
 30
0.0
 40
0.0545199146092191
 50
228.05106345693019
 51
313.34667842696081
  0
ARC
  5
6949
  8
0
 10
85.650747524763545
 20
18.784911737467919
 30
0.0
 40
0.048695534309524
 50
137.3678852726197
 51
223.3700703605991
  0
CIRCLE
  5
694A
  8
0
 10
85.657726153394293
 20
18.783270001363491
 30
0.0
 40
0.0164023345111833
  0
ARC
  5
694B
  8
0
 10
86.058480768817248
 20
18.558772900749972
 30
0.0
 40
0.0582300421456899
 50
63.162031588569747
 51
141.49221711868751
  0
ARC
  5
694C
  8
0
 10
86.057474327516729
 20
18.569263025787041
 30
0.0
 40
0.0496449441344736
 50
306.795969735021
 51
56.645733368057677
  0
ARC
  5
694D
  8
0
 10
86.049786953222963
 20
18.569156303338559
 30
0.0
 40
0.0545199146092191
 50
228.05106345693019
 51
313.34667842696081
  0
ARC
  5
694E
  8
0
 10
86.048740547767125
 20
18.56204722118369
 30
0.0
 40
0.048695534309524
 50
137.3678852726197
 51
223.3700703605991
  0
CIRCLE
  5
694F
  8
0
 10
86.055719176397915
 20
18.560405485079261
 30
0.0
 40
0.0164023345111833
  0
ARC
  5
6950
  8
0
 10
85.999875924723625
 20
18.0962319382784
 30
0.0
 40
0.0582300421456899
 50
63.162031588569747
 51
141.49221711868751
  0
ARC
  5
6951
  8
0
 10
85.998869483423107
 20
18.10672206331548
 30
0.0
 40
0.0496449441344736
 50
306.795969735021
 51
56.645733368057677
  0
ARC
  5
6952
  8
0
 10
85.99118210912934
 20
18.106615340866991
 30
0.0
 40
0.0545199146092191
 50
228.05106345693019
 51
313.34667842696081
  0
ARC
  5
6953
  8
0
 10
85.990135703673516
 20
18.099506258712118
 30
0.0
 40
0.048695534309524
 50
137.3678852726197
 51
223.3700703605991
  0
CIRCLE
  5
6954
  8
0
 10
85.997114332304278
 20
18.097864522607701
 30
0.0
 40
0.0164023345111833
  0
ARC
  5
6955
  8
0
 10
85.936937394244381
 20
17.64318645686657
 30
0.0
 40
0.0582300421456899
 50
63.162031588569747
 51
141.49221711868751
  0
ARC
  5
6956
  8
0
 10
85.935930952943849
 20
17.653676581903639
 30
0.0
 40
0.0496449441344736
 50
306.795969735021
 51
56.645733368057677
  0
ARC
  5
6957
  8
0
 10
85.928243578650097
 20
17.65356985945516
 30
0.0
 40
0.0545199146092191
 50
228.05106345693019
 51
313.34667842696081
  0
ARC
  5
6958
  8
0
 10
85.927197173194273
 20
17.646460777300291
 30
0.0
 40
0.048695534309524
 50
137.3678852726197
 51
223.3700703605991
  0
CIRCLE
  5
6959
  8
0
 10
85.934175801825035
 20
17.644819041195859
 30
0.0
 40
0.0164023345111833
  0
ARC
  5
695A
  8
0
 10
85.482306214563863
 20
17.41038374763712
 30
0.0
 40
0.0582300421456899
 50
63.162031588569747
 51
141.49221711868751
  0
ARC
  5
695B
  8
0
 10
85.481299773263345
 20
17.4208738726742
 30
0.0
 40
0.0496449441344736
 50
306.795969735021
 51
56.645733368057677
  0
ARC
  5
695C
  8
0
 10
85.473612398969564
 20
17.420767150225711
 30
0.0
 40
0.0545199146092191
 50
228.05106345693019
 51
313.34667842696081
  0
ARC
  5
695D
  8
0
 10
85.472565993513754
 20
17.413658068070841
 30
0.0
 40
0.048695534309524
 50
137.3678852726197
 51
223.3700703605991
  0
CIRCLE
  5
695E
  8
0
 10
85.479544622144516
 20
17.41201633196642
 30
0.0
 40
0.0164023345111833
  0
ARC
  5
695F
  8
0
 10
85.018976278802285
 20
17.186830015099179
 30
0.0
 40
0.0582300421456899
 50
63.162031588569747
 51
141.49221711868751
  0
ARC
  5
6960
  8
0
 10
85.017969837501767
 20
17.197320140136259
 30
0.0
 40
0.0496449441344736
 50
306.795969735021
 51
56.645733368057677
  0
ARC
  5
6961
  8
0
 10
85.010282463208
 20
17.197213417687781
 30
0.0
 40
0.0545199146092191
 50
228.05106345693019
 51
313.34667842696081
  0
ARC
  5
6962
  8
0
 10
85.009236057752176
 20
17.190104335532912
 30
0.0
 40
0.048695534309524
 50
137.3678852726197
 51
223.3700703605991
  0
CIRCLE
  5
6963
  8
0
 10
85.016214686382938
 20
17.18846259942848
 30
0.0
 40
0.0164023345111833
  0
ARC
  5
6964
  8
0
 10
84.621065549811163
 20
17.41028149397328
 30
0.0
 40
0.0582300421456899
 50
63.162031588569747
 51
141.49221711868751
  0
ARC
  5
6965
  8
0
 10
84.620059108510645
 20
17.42077161901036
 30
0.0
 40
0.0496449441344736
 50
306.795969735021
 51
56.645733368057677
  0
ARC
  5
6966
  8
0
 10
84.612371734216879
 20
17.42066489656187
 30
0.0
 40
0.0545199146092191
 50
228.05106345693019
 51
313.34667842696081
  0
ARC
  5
6967
  8
0
 10
84.611325328761055
 20
17.413555814407001
 30
0.0
 40
0.048695534309524
 50
137.3678852726197
 51
223.3700703605991
  0
CIRCLE
  5
6968
  8
0
 10
84.618303957391817
 20
17.411914078302569
 30
0.0
 40
0.0164023345111833
  0
ARC
  5
6969
  8
0
 10
84.218940739715237
 20
17.645247797771749
 30
0.0
 40
0.0582300421456899
 50
63.162031588569747
 51
141.49221711868751
  0
ARC
  5
696A
  8
0
 10
84.217934298414704
 20
17.655737922808829
 30
0.0
 40
0.0496449441344736
 50
306.795969735021
 51
56.645733368057677
  0
ARC
  5
696B
  8
0
 10
84.210246924120938
 20
17.65563120036034
 30
0.0
 40
0.0545199146092191
 50
228.05106345693019
 51
313.34667842696081
  0
ARC
  5
696C
  8
0
 10
84.209200518665128
 20
17.648522118205481
 30
0.0
 40
0.048695534309524
 50
137.3678852726197
 51
223.3700703605991
  0
CIRCLE
  5
696D
  8
0
 10
84.21617914729589
 20
17.646880382101049
 30
0.0
 40
0.0164023345111833
  0
ARC
  5
696E
  8
0
 10
84.282412437758325
 20
18.096418850008089
 30
0.0
 40
0.0582300421456899
 50
63.162031588569747
 51
141.49221711868751
  0
ARC
  5
696F
  8
0
 10
84.281405996457806
 20
18.106908975045162
 30
0.0
 40
0.0496449441344736
 50
306.795969735021
 51
56.645733368057677
  0
ARC
  5
6970
  8
0
 10
84.273718622164026
 20
18.10680225259668
 30
0.0
 40
0.0545199146092191
 50
228.05106345693019
 51
313.34667842696081
  0
ARC
  5
6971
  8
0
 10
84.272672216708216
 20
18.09969317044181
 30
0.0
 40
0.048695534309524
 50
137.3678852726197
 51
223.3700703605991
  0
CIRCLE
  5
6972
  8
0
 10
84.279650845338978
 20
18.098051434337378
 30
0.0
 40
0.0164023345111833
  0
ARC
  5
6973
  8
0
 10
84.340033589440139
 20
18.558292009736729
 30
0.0
 40
0.0582300421456899
 50
63.162031588569747
 51
141.49221711868751
  0
ARC
  5
6974
  8
0
 10
84.339027148139621
 20
18.568782134773802
 30
0.0
 40
0.0496449441344736
 50
306.795969735021
 51
56.645733368057677
  0
ARC
  5
6975
  8
0
 10
84.331339773845855
 20
18.568675412325319
 30
0.0
 40
0.0545199146092191
 50
228.05106345693019
 51
313.34667842696081
  0
ARC
  5
6976
  8
0
 10
84.330293368390045
 20
18.56156633017045
 30
0.0
 40
0.048695534309524
 50
137.3678852726197
 51
223.3700703605991
  0
CIRCLE
  5
6977
  8
0
 10
84.337271997020792
 20
18.559924594066018
 30
0.0
 40
0.0164023345111833
  0
ARC
  5
6978
  8
0
 10
84.802987622890527
 20
18.78321122707785
 30
0.0
 40
0.0582300421456899
 50
63.162031588569747
 51
141.49221711868751
  0
ARC
  5
6979
  8
0
 10
84.801981181589994
 20
18.79370135211493
 30
0.0
 40
0.0496449441344736
 50
306.795969735021
 51
56.645733368057677
  0
ARC
  5
697A
  8
0
 10
84.794293807296256
 20
18.79359462966644
 30
0.0
 40
0.0545199146092191
 50
228.05106345693019
 51
313.34667842696081
  0
ARC
  5
697B
  8
0
 10
84.793247401840418
 20
18.786485547511571
 30
0.0
 40
0.048695534309524
 50
137.3678852726197
 51
223.3700703605991
  0
CIRCLE
  5
697C
  8
0
 10
84.800226030471165
 20
18.784843811407139
 30
0.0
 40
0.0164023345111833
  0
LINE
  5
697D
  8
0
 10
85.191321086923125
 20
18.459367678900001
 30
0.0
 11
85.281580043723125
 21
18.505247891300002
 31
0.0
  0
LINE
  5
697E
  8
0
 10
85.109348959623134
 20
18.507321823950239
 30
0.0
 11
85.191321086923125
 21
18.459367678900001
 31
0.0
  0
CIRCLE
  5
697F
  8
0
 10
85.203752855434075
 20
18.547320398126381
 30
0.0
 40
0.0188951676428539
  0
LINE
  5
6980
  8
0
 10
85.322828186721949
 20
18.483704213608139
 30
0.0
 11
85.414332111621945
 21
18.52963740850814
 31
0.0
  0
LINE
  5
6981
  8
0
 10
85.494367962621951
 20
18.48210383720814
 30
0.0
 11
85.482870426621943
 21
18.390505207708141
 31
0.0
  0
LINE
  5
6982
  8
0
 10
85.310639342521981
 20
18.392579140358379
 30
0.0
 11
85.322828186721949
 21
18.483704213608139
 31
0.0
  0
LINE
  5
6983
  8
0
 10
85.494367962621951
 20
18.48210383720814
 30
0.0
 11
85.414332111621945
 21
18.52963740850814
 31
0.0
  0
LINE
  5
6984
  8
0
 10
85.392611469821958
 20
18.344624995308141
 30
0.0
 11
85.482870426621943
 21
18.390505207708141
 31
0.0
  0
LINE
  5
6985
  8
0
 10
85.310639342521981
 20
18.392579140358379
 30
0.0
 11
85.392611469821958
 21
18.344624995308141
 31
0.0
  0
CIRCLE
  5
6986
  8
0
 10
85.405043238332922
 20
18.432577714534521
 30
0.0
 40
0.0188951676428539
  0
LINE
  5
6987
  8
0
 10
85.521657092432122
 20
18.370137574014439
 30
0.0
 11
85.613161017332104
 21
18.416070768914441
 31
0.0
  0
LINE
  5
6988
  8
0
 10
85.693196868332123
 20
18.36853719761444
 30
0.0
 11
85.681699332332116
 21
18.276938568114439
 31
0.0
  0
LINE
  5
6989
  8
0
 10
85.509468248232153
 20
18.279012500764679
 30
0.0
 11
85.521657092432122
 21
18.370137574014439
 31
0.0
  0
LINE
  5
698A
  8
0
 10
85.693196868332123
 20
18.36853719761444
 30
0.0
 11
85.613161017332104
 21
18.416070768914441
 31
0.0
  0
LINE
  5
698B
  8
0
 10
85.59144037553213
 20
18.231058355714438
 30
0.0
 11
85.681699332332116
 21
18.276938568114439
 31
0.0
  0
LINE
  5
698C
  8
0
 10
85.509468248232153
 20
18.279012500764679
 30
0.0
 11
85.59144037553213
 21
18.231058355714438
 31
0.0
  0
CIRCLE
  5
698D
  8
0
 10
85.603872144043095
 20
18.319011074940821
 30
0.0
 40
0.0188951676428539
  0
LINE
  5
698E
  8
0
 10
85.492632209294754
 20
18.141694227838219
 30
0.0
 11
85.58413613419475
 21
18.18762742273822
 31
0.0
  0
LINE
  5
698F
  8
0
 10
85.664171985194756
 20
18.14009385143822
 30
0.0
 11
85.652674449194748
 21
18.048495221938222
 31
0.0
  0
LINE
  5
6990
  8
0
 10
85.480443365094786
 20
18.050569154588459
 30
0.0
 11
85.492632209294754
 21
18.141694227838219
 31
0.0
  0
LINE
  5
6991
  8
0
 10
85.664171985194756
 20
18.14009385143822
 30
0.0
 11
85.58413613419475
 21
18.18762742273822
 31
0.0
  0
LINE
  5
6992
  8
0
 10
85.562415492394763
 20
18.002615009538221
 30
0.0
 11
85.652674449194748
 21
18.048495221938222
 31
0.0
  0
LINE
  5
6993
  8
0
 10
85.480443365094786
 20
18.050569154588459
 30
0.0
 11
85.562415492394763
 21
18.002615009538221
 31
0.0
  0
CIRCLE
  5
6994
  8
0
 10
85.574847260905727
 20
18.090567728764601
 30
0.0
 40
0.0188951676428539
  0
LINE
  5
6995
  8
0
 10
85.461584807719305
 20
17.913468672828898
 30
0.0
 11
85.553088732619301
 21
17.959401867728911
 31
0.0
  0
LINE
  5
6996
  8
0
 10
85.633124583619306
 20
17.911868296428899
 30
0.0
 11
85.621627047619313
 21
17.820269666928908
 31
0.0
  0
LINE
  5
6997
  8
0
 10
85.449395963519336
 20
17.822343599579149
 30
0.0
 11
85.461584807719305
 21
17.913468672828898
 31
0.0
  0
LINE
  5
6998
  8
0
 10
85.633124583619306
 20
17.911868296428899
 30
0.0
 11
85.553088732619301
 21
17.959401867728911
 31
0.0
  0
LINE
  5
6999
  8
0
 10
85.531368090819313
 20
17.774389454528912
 30
0.0
 11
85.621627047619313
 21
17.820269666928908
 31
0.0
  0
LINE
  5
699A
  8
0
 10
85.449395963519336
 20
17.822343599579149
 30
0.0
 11
85.531368090819313
 21
17.774389454528912
 31
0.0
  0
CIRCLE
  5
699B
  8
0
 10
85.543799859330278
 20
17.86234217375528
 30
0.0
 40
0.0188951676428539
  0
LINE
  5
699C
  8
0
 10
85.231653404241797
 20
17.797037714191578
 30
0.0
 11
85.323157329141793
 21
17.84297090909158
 31
0.0
  0
LINE
  5
699D
  8
0
 10
85.403193180141798
 20
17.795437337791579
 30
0.0
 11
85.391695644141805
 21
17.703838708291581
 31
0.0
  0
LINE
  5
699E
  8
0
 10
85.219464560041828
 20
17.705912640941818
 30
0.0
 11
85.231653404241797
 21
17.797037714191578
 31
0.0
  0
LINE
  5
699F
  8
0
 10
85.403193180141798
 20
17.795437337791579
 30
0.0
 11
85.323157329141793
 21
17.84297090909158
 31
0.0
  0
LINE
  5
69A0
  8
0
 10
85.301436687341806
 20
17.657958495891581
 30
0.0
 11
85.391695644141805
 21
17.703838708291581
 31
0.0
  0
LINE
  5
69A1
  8
0
 10
85.219464560041828
 20
17.705912640941818
 30
0.0
 11
85.301436687341806
 21
17.657958495891581
 31
0.0
  0
CIRCLE
  5
69A2
  8
0
 10
85.31386845585277
 20
17.74591121511796
 30
0.0
 40
0.0188951676428539
  0
LINE
  5
69A3
  8
0
 10
85.001525676991719
 20
17.682534174181619
 30
0.0
 11
85.093029601891715
 21
17.728467369081621
 31
0.0
  0
LINE
  5
69A4
  8
0
 10
85.173065452891706
 20
17.68093379778162
 30
0.0
 11
85.161567916891727
 21
17.589335168281622
 31
0.0
  0
LINE
  5
69A5
  8
0
 10
84.989336832791736
 20
17.591409100931859
 30
0.0
 11
85.001525676991719
 21
17.682534174181619
 31
0.0
  0
LINE
  5
69A6
  8
0
 10
85.173065452891706
 20
17.68093379778162
 30
0.0
 11
85.093029601891715
 21
17.728467369081621
 31
0.0
  0
LINE
  5
69A7
  8
0
 10
85.071308960091713
 20
17.543454955881622
 30
0.0
 11
85.161567916891727
 21
17.589335168281622
 31
0.0
  0
LINE
  5
69A8
  8
0
 10
84.989336832791736
 20
17.591409100931859
 30
0.0
 11
85.071308960091713
 21
17.543454955881622
 31
0.0
  0
CIRCLE
  5
69A9
  8
0
 10
85.083740728602677
 20
17.63140767510799
 30
0.0
 40
0.0188951676428539
  0
LINE
  5
69AA
  8
0
 10
84.801712362738314
 20
17.79502380989501
 30
0.0
 11
84.893216287638325
 21
17.840957004795008
 31
0.0
  0
LINE
  5
69AB
  8
0
 10
84.97325213863833
 20
17.793423433495011
 30
0.0
 11
84.961754602638337
 21
17.701824803995009
 31
0.0
  0
LINE
  5
69AC
  8
0
 10
84.78952351853836
 20
17.70389873664525
 30
0.0
 11
84.801712362738314
 21
17.79502380989501
 31
0.0
  0
LINE
  5
69AD
  8
0
 10
84.97325213863833
 20
17.793423433495011
 30
0.0
 11
84.893216287638325
 21
17.840957004795008
 31
0.0
  0
LINE
  5
69AE
  8
0
 10
84.871495645838337
 20
17.655944591595009
 30
0.0
 11
84.961754602638337
 21
17.701824803995009
 31
0.0
  0
LINE
  5
69AF
  8
0
 10
84.78952351853836
 20
17.70389873664525
 30
0.0
 11
84.871495645838337
 21
17.655944591595009
 31
0.0
  0
CIRCLE
  5
69B0
  8
0
 10
84.883927414349301
 20
17.743897310821382
 30
0.0
 40
0.0188951676428539
  0
LINE
  5
69B1
  8
0
 10
84.601809081285467
 20
17.911931518708698
 30
0.0
 11
84.693313006185477
 21
17.957864713608711
 31
0.0
  0
LINE
  5
69B2
  8
0
 10
84.773348857185454
 20
17.910331142308699
 30
0.0
 11
84.761851321185475
 21
17.818732512808701
 31
0.0
  0
LINE
  5
69B3
  8
0
 10
84.589620237085484
 20
17.820806445458949
 30
0.0
 11
84.601809081285467
 21
17.911931518708698
 31
0.0
  0
LINE
  5
69B4
  8
0
 10
84.773348857185454
 20
17.910331142308699
 30
0.0
 11
84.693313006185477
 21
17.957864713608711
 31
0.0
  0
LINE
  5
69B5
  8
0
 10
84.671592364385475
 20
17.772852300408701
 30
0.0
 11
84.761851321185475
 21
17.818732512808701
 31
0.0
  0
LINE
  5
69B6
  8
0
 10
84.589620237085484
 20
17.820806445458949
 30
0.0
 11
84.671592364385475
 21
17.772852300408701
 31
0.0
  0
CIRCLE
  5
69B7
  8
0
 10
84.684024132896425
 20
17.86080501963508
 30
0.0
 40
0.0188951676428539
  0
LINE
  5
69B8
  8
0
 10
84.631574275913167
 20
18.14065673180675
 30
0.0
 11
84.723078200813177
 21
18.186589926706748
 31
0.0
  0
LINE
  5
69B9
  8
0
 10
84.803114051813182
 20
18.139056355406751
 30
0.0
 11
84.791616515813189
 21
18.047457725906749
 31
0.0
  0
LINE
  5
69BA
  8
0
 10
84.619385431713212
 20
18.04953165855699
 30
0.0
 11
84.631574275913167
 21
18.14065673180675
 31
0.0
  0
LINE
  5
69BB
  8
0
 10
84.803114051813182
 20
18.139056355406751
 30
0.0
 11
84.723078200813177
 21
18.186589926706748
 31
0.0
  0
LINE
  5
69BC
  8
0
 10
84.701357559013189
 20
18.001577513506749
 30
0.0
 11
84.791616515813189
 21
18.047457725906749
 31
0.0
  0
LINE
  5
69BD
  8
0
 10
84.619385431713212
 20
18.04953165855699
 30
0.0
 11
84.701357559013189
 21
18.001577513506749
 31
0.0
  0
CIRCLE
  5
69BE
  8
0
 10
84.713789327524154
 20
18.089530232733129
 30
0.0
 40
0.0188951676428539
  0
LINE
  5
69BF
  8
0
 10
84.662381416246603
 20
18.368129645695031
 30
0.0
 11
84.753885341146599
 21
18.41406284059503
 31
0.0
  0
LINE
  5
69C0
  8
0
 10
84.833921192146605
 20
18.366529269295029
 30
0.0
 11
84.822423656146611
 21
18.274930639795031
 31
0.0
  0
LINE
  5
69C1
  8
0
 10
84.650192572046635
 20
18.277004572445271
 30
0.0
 11
84.662381416246603
 21
18.368129645695031
 31
0.0
  0
LINE
  5
69C2
  8
0
 10
84.833921192146605
 20
18.366529269295029
 30
0.0
 11
84.753885341146599
 21
18.41406284059503
 31
0.0
  0
LINE
  5
69C3
  8
0
 10
84.732164699346598
 20
18.22905042739503
 30
0.0
 11
84.822423656146611
 21
18.274930639795031
 31
0.0
  0
LINE
  5
69C4
  8
0
 10
84.650192572046635
 20
18.277004572445271
 30
0.0
 11
84.732164699346598
 21
18.22905042739503
 31
0.0
  0
CIRCLE
  5
69C5
  8
0
 10
84.744596467857576
 20
18.317003146621399
 30
0.0
 40
0.0188951676428539
  0
LINE
  5
69C6
  8
0
 10
84.892413248225864
 20
18.483008842268038
 30
0.0
 11
84.98391717312586
 21
18.52894203716804
 31
0.0
  0
LINE
  5
69C7
  8
0
 10
85.063953024125865
 20
18.481408465868039
 30
0.0
 11
85.052455488125858
 21
18.389809836368041
 31
0.0
  0
LINE
  5
69C8
  8
0
 10
84.880224404025896
 20
18.391883769018278
 30
0.0
 11
84.892413248225864
 21
18.483008842268038
 31
0.0
  0
LINE
  5
69C9
  8
0
 10
85.063953024125865
 20
18.481408465868039
 30
0.0
 11
84.98391717312586
 21
18.52894203716804
 31
0.0
  0
LINE
  5
69CA
  8
0
 10
84.962196531325873
 20
18.343929623968041
 30
0.0
 11
85.052455488125858
 21
18.389809836368041
 31
0.0
  0
LINE
  5
69CB
  8
0
 10
84.880224404025896
 20
18.391883769018278
 30
0.0
 11
84.962196531325873
 21
18.343929623968041
 31
0.0
  0
CIRCLE
  5
69CC
  8
0
 10
84.974628299836837
 20
18.43188234319442
 30
0.0
 40
0.0188951676428539
  0
ARC
  5
69CD
  8
0
 10
82.380377749007806
 20
27.372458101875711
 30
0.0
 40
0.0199721280760053
 50
359.69924063858542
 51
89.165200765805295
  0
ARC
  5
69CE
  8
0
 10
82.457889590971206
 20
30.235988697714831
 30
0.0
 40
2.8446089144934881
 50
256.45731199433408
 51
268.44443541946441
  0
ARC
  5
69CF
  8
0
 10
82.212646804192417
 20
29.457123902250359
 30
0.0
 40
2.030744756804419
 50
219.92135463140599
 51
258.03856167415972
  0
ARC
  5
69D0
  8
0
 10
81.520270104750139
 20
28.85108411496746
 30
0.0
 40
1.111014290527609
 50
172.25551335254349
 51
218.8659023950876
  0
ARC
  5
69D1
  8
0
 10
81.755151220135843
 20
28.736356266430771
 30
0.0
 40
1.361686284173645
 50
121.355673052431
 51
168.80184553458071
  0
ARC
  5
69D2
  8
0
 10
82.425781572591077
 20
27.714286238213351
 30
0.0
 40
2.5837716103448809
 50
89.262288318973702
 51
122.2616578387649
  0
ARC
  5
69D3
  8
0
 10
82.477824990252216
 20
27.60847076799012
 30
0.0
 40
2.6894384656526862
 50
65.095074844398241
 51
90.400028148481425
  0
ARC
  5
69D4
  8
0
 10
82.873713123495165
 20
28.435242452891831
 30
0.0
 40
1.772869695931238
 50
37.27256308932342
 51
65.447624925011553
  0
ARC
  5
69D5
  8
0
 10
83.433458459512664
 20
28.850021486585138
 30
0.0
 40
1.0762884536426069
 50
332.71671655577211
 51
37.747414421272083
  0
ARC
  5
69D6
  8
0
 10
83.014145017443155
 20
29.094087505168389
 30
0.0
 40
1.561026687588579
 50
300.21117927145019
 51
331.80991903414667
  0
ARC
  5
69D7
  8
0
 10
82.588749164110084
 20
29.751252697894639
 30
0.0
 40
2.3432789961187832
 50
283.26264125711651
 51
301.11441989160949
  0
ARC
  5
69D8
  8
0
 10
82.460870384841314
 20
30.231016622388651
 30
0.0
 40
2.8396208324326011
 50
271.54499761117438
 51
283.5532550738738
  0
ARC
  5
69D9
  8
0
 10
82.537385461188876
 20
27.372789006097751
 30
0.0
 40
0.0196391599042105
 50
89.863293311096172
 51
179.97437351973781
  0
ARC
  5
69DA
  8
0
 10
82.540847644965396
 20
27.373591491207272
 30
0.0
 40
0.0231149724344733
 50
98.685435534024535
 51
181.96775784623139
  0
ARC
  5
69DB
  8
0
 10
82.465176520387999
 20
30.187444815844628
 30
0.0
 40
2.7919366332345308
 50
271.4814452730094
 51
283.615860646035
  0
ARC
  5
69DC
  8
0
 10
82.682190484783092
 20
29.497289705190671
 30
0.0
 40
2.0706570014799879
 50
282.2752554655093
 51
316.7232934500272
  0
ARC
  5
69DD
  8
0
 10
83.39718051426766
 20
28.832161646986329
 30
0.0
 40
1.0941631057118111
 50
316.41464223176592
 51
14.56820353506636
  0
ARC
  5
69DE
  8
0
 10
83.008941243578164
 20
28.614769831315218
 30
0.0
 40
1.528764411078064
 50
18.797657732851651
 51
67.297224548665355
  0
ARC
  5
69DF
  8
0
 10
82.477668172102256
 20
27.60462479115904
 30
0.0
 40
2.6675722001663891
 50
65.143625140540308
 51
90.399887603622872
  0
ARC
  5
69E0
  8
0
 10
82.439757946803454
 20
27.607870805613729
 30
0.0
 40
2.664331064664887
 50
89.585117183777029
 51
114.8723397355312
  0
ARC
  5
69E1
  8
0
 10
82.059875485100022
 20
28.4099934623225
 30
0.0
 40
1.7768446963097839
 50
114.63771214905709
 51
142.61086071473781
  0
ARC
  5
69E2
  8
0
 10
81.498419029775718
 20
28.83550807435719
 30
0.0
 40
1.0723714103082289
 50
142.45877370875661
 51
194.88212295622461
  0
ARC
  5
69E3
  8
0
 10
81.928548032363906
 20
29.080401570912969
 30
0.0
 40
1.5560951368684159
 50
199.53425068088049
 51
238.92636623061949
  0
ARC
  5
69E4
  8
0
 10
82.334993612656845
 20
29.752662256872721
 30
0.0
 40
2.341672359254217
 50
238.89841345066259
 51
256.68397386485111
  0
ARC
  5
69E5
  8
0
 10
82.45338186012917
 20
30.191952199244131
 30
0.0
 40
2.796454357683209
 50
256.39657305011622
 51
268.51157534448271
  0
ARC
  5
69E6
  8
0
 10
82.376620933630946
 20
27.373062896817981
 30
0.0
 40
0.0237392771137047
 50
358.28701471682763
 51
79.998106174400831
  0
ARC
  5
69E7
  8
0
 10
82.463362542580526
 20
26.99207907688546
 30
0.0
 40
0.0631735571822705
 50
175.913447010613
 51
266.08613721117467
  0
ARC
  5
69E8
  8
0
 10
82.45400211569121
 20
26.99271921267518
 30
0.0
 40
0.063866201784939
 50
274.53376956143751
 51
3.4666849878989798
  0
ARC
  5
69E9
  8
0
 10
82.012644018235363
 20
30.02867603241393
 30
0.0
 40
0.0904474016670664
 50
48.16629825549601
 51
123.9389453256977
  0
ARC
  5
69EA
  8
0
 10
82.038412205229477
 20
30.05898586165106
 30
0.0
 40
0.0506875988472827
 50
308.56995695400929
 51
47.01741016757591
  0
ARC
  5
69EB
  8
0
 10
82.015227109797124
 20
30.0865573678416
 30
0.0
 40
0.0867045823069487
 50
233.41392813516779
 51
309.18929212830818
  0
ARC
  5
69EC
  8
0
 10
81.996603006443465
 20
30.063785355891429
 30
0.0
 40
0.0573356443204392
 50
181.31677805295419
 51
234.7947602385992
  0
ARC
  5
69ED
  8
0
 10
81.991416812442495
 20
30.06052865355651
 30
0.0
 40
0.0521703594691655
 50
124.1287443246685
 51
177.8698781031932
  0
CIRCLE
  5
69EE
  8
0
 10
82.013588261437491
 20
30.05252858568139
 30
0.0
 40
0.012511014664466
  0
ARC
  5
69EF
  8
0
 10
82.013418946983236
 20
29.627327404214491
 30
0.0
 40
0.0667118331687085
 50
43.48186866892064
 51
129.4299311975237
  0
ARC
  5
69F0
  8
0
 10
81.993138482977685
 20
29.65318264247211
 30
0.0
 40
0.0338688421820966
 50
130.7104398489347
 51
196.0200467523677
  0
ARC
  5
69F1
  8
0
 10
82.012180614286081
 20
29.662844144293992
 30
0.0
 40
0.0549857639608283
 50
200.2243454281444
 51
272.40285702090631
  0
ARC
  5
69F2
  8
0
 10
82.018337227442018
 20
29.662229872761039
 30
0.0
 40
0.0544594963036908
 50
265.94472763451353
 51
331.99124013861808
  0
ARC
  5
69F3
  8
0
 10
82.041053929677943
 20
29.652047485259541
 30
0.0
 40
0.0296692501564396
 50
328.74879128675673
 51
45.567247536114031
  0
CIRCLE
  5
69F4
  8
0
 10
82.014473084690749
 20
29.643338635296178
 30
0.0
 40
0.0138252742103017
  0
LINE
  5
69F5
  8
0
 10
82.236741529538293
 20
29.043518076583499
 30
0.0
 11
82.325447905423104
 21
29.006410999900002
 31
0.0
  0
LINE
  5
69F6
  8
0
 10
82.325447905423104
 20
29.006410999900002
 30
0.0
 11
82.325480641523114
 21
28.932871569900001
 31
0.0
  0
LINE
  5
69F7
  8
0
 10
82.325480641523114
 20
28.932871569900001
 30
0.0
 11
82.236659069632324
 21
28.893687337699362
 31
0.0
  0
LINE
  5
69F8
  8
0
 10
82.236659069632324
 20
28.893687337699362
 30
0.0
 11
82.148752433086017
 21
28.931540281951001
 31
0.0
  0
LINE
  5
69F9
  8
0
 10
82.148752433086017
 20
28.931540281951001
 30
0.0
 11
82.148069968279998
 21
29.007265337909761
 31
0.0
  0
LINE
  5
69FA
  8
0
 10
82.148069968279998
 20
29.007265337909761
 30
0.0
 11
82.236741529538293
 21
29.043518076583499
 31
0.0
  0
CIRCLE
  5
69FB
  8
0
 10
82.237221067241165
 20
28.961955451121931
 30
0.0
 40
0.0150144874244336
  0
ARC
  5
69FC
  8
0
 10
82.903129759483235
 20
30.02885883083334
 30
0.0
 40
0.0904474016670664
 50
48.16629825549601
 51
123.9389453256977
  0
ARC
  5
69FD
  8
0
 10
82.928897946477335
 20
30.059168660070469
 30
0.0
 40
0.0506875988472827
 50
308.56995695400929
 51
47.01741016757591
  0
ARC
  5
69FE
  8
0
 10
82.905712851044981
 20
30.08674016626102
 30
0.0
 40
0.0867045823069487
 50
233.41392813516779
 51
309.18929212830818
  0
ARC
  5
69FF
  8
0
 10
82.887088747691337
 20
30.063968154310849
 30
0.0
 40
0.0573356443204392
 50
181.31677805295419
 51
234.7947602385992
  0
ARC
  5
6A00
  8
0
 10
82.881902553690367
 20
30.060711451975919
 30
0.0
 40
0.0521703594691655
 50
124.1287443246685
 51
177.8698781031932
  0
CIRCLE
  5
6A01
  8
0
 10
82.904074002685334
 20
30.05271138410081
 30
0.0
 40
0.012511014664466
  0
ARC
  5
6A02
  8
0
 10
83.346826367336377
 20
29.840241554317519
 30
0.0
 40
0.0904474016670664
 50
48.16629825549601
 51
123.9389453256977
  0
ARC
  5
6A03
  8
0
 10
83.37259455433049
 20
29.870551383554648
 30
0.0
 40
0.0506875988472827
 50
308.56995695400929
 51
47.01741016757591
  0
ARC
  5
6A04
  8
0
 10
83.349409458898137
 20
29.898122889745189
 30
0.0
 40
0.0867045823069487
 50
233.41392813516779
 51
309.18929212830818
  0
ARC
  5
6A05
  8
0
 10
83.330785355544464
 20
29.875350877795022
 30
0.0
 40
0.0573356443204392
 50
181.31677805295419
 51
234.7947602385992
  0
ARC
  5
6A06
  8
0
 10
83.325599161543494
 20
29.872094175460099
 30
0.0
 40
0.0521703594691655
 50
124.1287443246685
 51
177.8698781031932
  0
CIRCLE
  5
6A07
  8
0
 10
83.347770610538504
 20
29.864094107584979
 30
0.0
 40
0.012511014664466
  0
ARC
  5
6A08
  8
0
 10
83.791919559042043
 20
29.666193710071809
 30
0.0
 40
0.0904474016670664
 50
48.16629825549601
 51
123.9389453256977
  0
ARC
  5
6A09
  8
0
 10
83.817687746036157
 20
29.696503539308939
 30
0.0
 40
0.0506875988472827
 50
308.56995695400929
 51
47.01741016757591
  0
ARC
  5
6A0A
  8
0
 10
83.794502650603803
 20
29.724075045499479
 30
0.0
 40
0.0867045823069487
 50
233.41392813516779
 51
309.18929212830818
  0
ARC
  5
6A0B
  8
0
 10
83.775878547250144
 20
29.701303033549308
 30
0.0
 40
0.0573356443204392
 50
181.31677805295419
 51
234.7947602385992
  0
ARC
  5
6A0C
  8
0
 10
83.770692353249174
 20
29.698046331214389
 30
0.0
 40
0.0521703594691655
 50
124.1287443246685
 51
177.8698781031932
  0
CIRCLE
  5
6A0D
  8
0
 10
83.79286380224417
 20
29.690046263339269
 30
0.0
 40
0.012511014664466
  0
ARC
  5
6A0E
  8
0
 10
84.234515637896735
 20
29.120410539759259
 30
0.0
 40
0.0904474016670664
 50
48.16629825549601
 51
123.9389453256977
  0
ARC
  5
6A0F
  8
0
 10
84.260283824890863
 20
29.150720368996389
 30
0.0
 40
0.0506875988472827
 50
308.56995695400929
 51
47.01741016757591
  0
ARC
  5
6A10
  8
0
 10
84.237098729458509
 20
29.17829187518694
 30
0.0
 40
0.0867045823069487
 50
233.41392813516779
 51
309.18929212830818
  0
ARC
  5
6A11
  8
0
 10
84.218474626104836
 20
29.155519863236769
 30
0.0
 40
0.0573356443204392
 50
181.31677805295419
 51
234.7947602385992
  0
ARC
  5
6A12
  8
0
 10
84.213288432103866
 20
29.152263160901839
 30
0.0
 40
0.0521703594691655
 50
124.1287443246685
 51
177.8698781031932
  0
CIRCLE
  5
6A13
  8
0
 10
84.235459881098876
 20
29.14426309302673
 30
0.0
 40
0.012511014664466
  0
ARC
  5
6A14
  8
0
 10
84.234769150121707
 20
28.749266669429971
 30
0.0
 40
0.0904474016670664
 50
48.16629825549601
 51
123.9389453256977
  0
ARC
  5
6A15
  8
0
 10
84.260537337115807
 20
28.779576498667101
 30
0.0
 40
0.0506875988472827
 50
308.56995695400929
 51
47.01741016757591
  0
ARC
  5
6A16
  8
0
 10
84.237352241683453
 20
28.807148004857648
 30
0.0
 40
0.0867045823069487
 50
233.41392813516779
 51
309.18929212830818
  0
ARC
  5
6A17
  8
0
 10
84.218728138329809
 20
28.784375992907481
 30
0.0
 40
0.0573356443204392
 50
181.31677805295419
 51
234.7947602385992
  0
ARC
  5
6A18
  8
0
 10
84.213541944328838
 20
28.781119290572551
 30
0.0
 40
0.0521703594691655
 50
124.1287443246685
 51
177.8698781031932
  0
CIRCLE
  5
6A19
  8
0
 10
84.235713393323834
 20
28.773119222697439
 30
0.0
 40
0.012511014664466
  0
ARC
  5
6A1A
  8
0
 10
84.235579901047316
 20
28.394226065503751
 30
0.0
 40
0.0904474016670664
 50
48.16629825549601
 51
123.9389453256977
  0
ARC
  5
6A1B
  8
0
 10
84.26134808804143
 20
28.424535894740881
 30
0.0
 40
0.0506875988472827
 50
308.56995695400929
 51
47.01741016757591
  0
ARC
  5
6A1C
  8
0
 10
84.238162992609077
 20
28.452107400931421
 30
0.0
 40
0.0867045823069487
 50
233.41392813516779
 51
309.18929212830818
  0
ARC
  5
6A1D
  8
0
 10
84.219538889255404
 20
28.429335388981251
 30
0.0
 40
0.0573356443204392
 50
181.31677805295419
 51
234.7947602385992
  0
ARC
  5
6A1E
  8
0
 10
84.214352695254433
 20
28.426078686646331
 30
0.0
 40
0.0521703594691655
 50
124.1287443246685
 51
177.8698781031932
  0
CIRCLE
  5
6A1F
  8
0
 10
84.236524144249444
 20
28.418078618771212
 30
0.0
 40
0.012511014664466
  0
ARC
  5
6A20
  8
0
 10
83.791538767639537
 20
27.851852356149578
 30
0.0
 40
0.0904474016670664
 50
48.16629825549601
 51
123.9389453256977
  0
ARC
  5
6A21
  8
0
 10
83.817306954633665
 20
27.882162185386711
 30
0.0
 40
0.0506875988472827
 50
308.56995695400929
 51
47.01741016757591
  0
ARC
  5
6A22
  8
0
 10
83.794121859201283
 20
27.909733691577252
 30
0.0
 40
0.0867045823069487
 50
233.41392813516779
 51
309.18929212830818
  0
ARC
  5
6A23
  8
0
 10
83.775497755847638
 20
27.886961679627081
 30
0.0
 40
0.0573356443204392
 50
181.31677805295419
 51
234.7947602385992
  0
ARC
  5
6A24
  8
0
 10
83.770311561846668
 20
27.883704977292162
 30
0.0
 40
0.0521703594691655
 50
124.1287443246685
 51
177.8698781031932
  0
CIRCLE
  5
6A25
  8
0
 10
83.792483010841664
 20
27.875704909417038
 30
0.0
 40
0.012511014664466
  0
ARC
  5
6A26
  8
0
 10
83.349318598246242
 20
27.66008142369688
 30
0.0
 40
0.0904474016670664
 50
48.16629825549601
 51
123.9389453256977
  0
ARC
  5
6A27
  8
0
 10
83.375086785240356
 20
27.69039125293401
 30
0.0
 40
0.0506875988472827
 50
308.56995695400929
 51
47.01741016757591
  0
ARC
  5
6A28
  8
0
 10
83.351901689807988
 20
27.717962759124561
 30
0.0
 40
0.0867045823069487
 50
233.41392813516779
 51
309.18929212830818
  0
ARC
  5
6A29
  8
0
 10
83.333277586454344
 20
27.695190747174379
 30
0.0
 40
0.0573356443204392
 50
181.31677805295419
 51
234.7947602385992
  0
ARC
  5
6A2A
  8
0
 10
83.328091392453373
 20
27.69193404483946
 30
0.0
 40
0.0521703594691655
 50
124.1287443246685
 51
177.8698781031932
  0
CIRCLE
  5
6A2B
  8
0
 10
83.350262841448355
 20
27.68393397696434
 30
0.0
 40
0.012511014664466
  0
ARC
  5
6A2C
  8
0
 10
82.901480012115854
 20
27.488542659853671
 30
0.0
 40
0.0904474016670664
 50
48.16629825549601
 51
123.9389453256977
  0
ARC
  5
6A2D
  8
0
 10
82.927248199109968
 20
27.518852489090801
 30
0.0
 40
0.0506875988472827
 50
308.56995695400929
 51
47.01741016757591
  0
ARC
  5
6A2E
  8
0
 10
82.904063103677615
 20
27.546423995281341
 30
0.0
 40
0.0867045823069487
 50
233.41392813516779
 51
309.18929212830818
  0
ARC
  5
6A2F
  8
0
 10
82.885439000323956
 20
27.52365198333117
 30
0.0
 40
0.0573356443204392
 50
181.31677805295419
 51
234.7947602385992
  0
ARC
  5
6A30
  8
0
 10
82.880252806322986
 20
27.52039528099624
 30
0.0
 40
0.0521703594691655
 50
124.1287443246685
 51
177.8698781031932
  0
CIRCLE
  5
6A31
  8
0
 10
82.902424255317996
 20
27.512395213121131
 30
0.0
 40
0.012511014664466
  0
ARC
  5
6A32
  8
0
 10
82.013556757094733
 20
27.486420855969811
 30
0.0
 40
0.0904474016670664
 50
48.16629825549601
 51
123.9389453256977
  0
ARC
  5
6A33
  8
0
 10
82.039324944088847
 20
27.516730685206941
 30
0.0
 40
0.0506875988472827
 50
308.56995695400929
 51
47.01741016757591
  0
ARC
  5
6A34
  8
0
 10
82.016139848656493
 20
27.544302191397492
 30
0.0
 40
0.0867045823069487
 50
233.41392813516779
 51
309.18929212830818
  0
ARC
  5
6A35
  8
0
 10
81.997515745302834
 20
27.521530179447321
 30
0.0
 40
0.0573356443204392
 50
181.31677805295419
 51
234.7947602385992
  0
ARC
  5
6A36
  8
0
 10
81.992329551301864
 20
27.518273477112391
 30
0.0
 40
0.0521703594691655
 50
124.1287443246685
 51
177.8698781031932
  0
CIRCLE
  5
6A37
  8
0
 10
82.014501000296875
 20
27.510273409237278
 30
0.0
 40
0.012511014664466
  0
ARC
  5
6A38
  8
0
 10
81.567880522142758
 20
27.661047208002628
 30
0.0
 40
0.0904474016670664
 50
48.16629825549601
 51
123.9389453256977
  0
ARC
  5
6A39
  8
0
 10
81.593648709136872
 20
27.691357037239761
 30
0.0
 40
0.0506875988472827
 50
308.56995695400929
 51
47.01741016757591
  0
ARC
  5
6A3A
  8
0
 10
81.570463613704518
 20
27.718928543430302
 30
0.0
 40
0.0867045823069487
 50
233.41392813516779
 51
309.18929212830818
  0
ARC
  5
6A3B
  8
0
 10
81.55183951035086
 20
27.696156531480131
 30
0.0
 40
0.0573356443204392
 50
181.31677805295419
 51
234.7947602385992
  0
ARC
  5
6A3C
  8
0
 10
81.546653316349889
 20
27.692899829145212
 30
0.0
 40
0.0521703594691655
 50
124.1287443246685
 51
177.8698781031932
  0
CIRCLE
  5
6A3D
  8
0
 10
81.568824765344885
 20
27.684899761270088
 30
0.0
 40
0.012511014664466
  0
ARC
  5
6A3E
  8
0
 10
81.120584656018806
 20
27.86106472166427
 30
0.0
 40
0.0904474016670664
 50
48.16629825549601
 51
123.9389453256977
  0
ARC
  5
6A3F
  8
0
 10
81.146352843012934
 20
27.8913745509014
 30
0.0
 40
0.0506875988472827
 50
308.56995695400929
 51
47.01741016757591
  0
ARC
  5
6A40
  8
0
 10
81.123167747580567
 20
27.91894605709194
 30
0.0
 40
0.0867045823069487
 50
233.41392813516779
 51
309.18929212830818
  0
ARC
  5
6A41
  8
0
 10
81.104543644226908
 20
27.89617404514177
 30
0.0
 40
0.0573356443204392
 50
181.31677805295419
 51
234.7947602385992
  0
ARC
  5
6A42
  8
0
 10
81.099357450225938
 20
27.89291734280685
 30
0.0
 40
0.0521703594691655
 50
124.1287443246685
 51
177.8698781031932
  0
CIRCLE
  5
6A43
  8
0
 10
81.121528899220948
 20
27.88491727493173
 30
0.0
 40
0.012511014664466
  0
ARC
  5
6A44
  8
0
 10
80.679902868349885
 20
28.39547305273388
 30
0.0
 40
0.0904474016670664
 50
48.16629825549601
 51
123.9389453256977
  0
ARC
  5
6A45
  8
0
 10
80.705671055344013
 20
28.42578288197101
 30
0.0
 40
0.0506875988472827
 50
308.56995695400929
 51
47.01741016757591
  0
ARC
  5
6A46
  8
0
 10
80.682485959911659
 20
28.45335438816155
 30
0.0
 40
0.0867045823069487
 50
233.41392813516779
 51
309.18929212830818
  0
ARC
  5
6A47
  8
0
 10
80.663861856557986
 20
28.43058237621138
 30
0.0
 40
0.0573356443204392
 50
181.31677805295419
 51
234.7947602385992
  0
ARC
  5
6A48
  8
0
 10
80.658675662557016
 20
28.42732567387646
 30
0.0
 40
0.0521703594691655
 50
124.1287443246685
 51
177.8698781031932
  0
CIRCLE
  5
6A49
  8
0
 10
80.680847111552026
 20
28.41932560600134
 30
0.0
 40
0.012511014664466
  0
ARC
  5
6A4A
  8
0
 10
80.677644970610771
 20
28.750721321865768
 30
0.0
 40
0.0904474016670664
 50
48.16629825549601
 51
123.9389453256977
  0
ARC
  5
6A4B
  8
0
 10
80.703413157604885
 20
28.781031151102901
 30
0.0
 40
0.0506875988472827
 50
308.56995695400929
 51
47.01741016757591
  0
ARC
  5
6A4C
  8
0
 10
80.680228062172532
 20
28.808602657293441
 30
0.0
 40
0.0867045823069487
 50
233.41392813516779
 51
309.18929212830818
  0
ARC
  5
6A4D
  8
0
 10
80.661603958818873
 20
28.785830645343271
 30
0.0
 40
0.0573356443204392
 50
181.31677805295419
 51
234.7947602385992
  0
ARC
  5
6A4E
  8
0
 10
80.656417764817903
 20
28.782573943008352
 30
0.0
 40
0.0521703594691655
 50
124.1287443246685
 51
177.8698781031932
  0
CIRCLE
  5
6A4F
  8
0
 10
80.678589213812899
 20
28.774573875133228
 30
0.0
 40
0.012511014664466
  0
ARC
  5
6A50
  8
0
 10
80.681820425055292
 20
29.12075532044042
 30
0.0
 40
0.0904474016670664
 50
48.16629825549601
 51
123.9389453256977
  0
ARC
  5
6A51
  8
0
 10
80.707588612049406
 20
29.151065149677549
 30
0.0
 40
0.0506875988472827
 50
308.56995695400929
 51
47.01741016757591
  0
ARC
  5
6A52
  8
0
 10
80.684403516617039
 20
29.1786366558681
 30
0.0
 40
0.0867045823069487
 50
233.41392813516779
 51
309.18929212830818
  0
ARC
  5
6A53
  8
0
 10
80.665779413263394
 20
29.15586464391793
 30
0.0
 40
0.0573356443204392
 50
181.31677805295419
 51
234.7947602385992
  0
ARC
  5
6A54
  8
0
 10
80.660593219262424
 20
29.152607941583
 30
0.0
 40
0.0521703594691655
 50
124.1287443246685
 51
177.8698781031932
  0
CIRCLE
  5
6A55
  8
0
 10
80.682764668257406
 20
29.144607873707891
 30
0.0
 40
0.012511014664466
  0
ARC
  5
6A56
  8
0
 10
81.125408584074904
 20
29.66641432322794
 30
0.0
 40
0.0904474016670664
 50
48.16629825549601
 51
123.9389453256977
  0
ARC
  5
6A57
  8
0
 10
81.151176771069004
 20
29.69672415246507
 30
0.0
 40
0.0506875988472827
 50
308.56995695400929
 51
47.01741016757591
  0
ARC
  5
6A58
  8
0
 10
81.127991675636665
 20
29.72429565865562
 30
0.0
 40
0.0867045823069487
 50
233.41392813516779
 51
309.18929212830818
  0
ARC
  5
6A59
  8
0
 10
81.109367572283006
 20
29.701523646705439
 30
0.0
 40
0.0573356443204392
 50
181.31677805295419
 51
234.7947602385992
  0
ARC
  5
6A5A
  8
0
 10
81.104181378282036
 20
29.69826694437052
 30
0.0
 40
0.0521703594691655
 50
124.1287443246685
 51
177.8698781031932
  0
CIRCLE
  5
6A5B
  8
0
 10
81.126352827277032
 20
29.6902668764954
 30
0.0
 40
0.012511014664466
  0
ARC
  5
6A5C
  8
0
 10
81.570624870437285
 20
29.839323079830791
 30
0.0
 40
0.0904474016670664
 50
48.16629825549601
 51
123.9389453256977
  0
ARC
  5
6A5D
  8
0
 10
81.596393057431385
 20
29.869632909067921
 30
0.0
 40
0.0506875988472827
 50
308.56995695400929
 51
47.01741016757591
  0
ARC
  5
6A5E
  8
0
 10
81.573207961999046
 20
29.897204415258471
 30
0.0
 40
0.0867045823069487
 50
233.41392813516779
 51
309.18929212830818
  0
ARC
  5
6A5F
  8
0
 10
81.554583858645387
 20
29.874432403308301
 30
0.0
 40
0.0573356443204392
 50
181.31677805295419
 51
234.7947602385992
  0
ARC
  5
6A60
  8
0
 10
81.549397664644417
 20
29.871175700973371
 30
0.0
 40
0.0521703594691655
 50
124.1287443246685
 51
177.8698781031932
  0
CIRCLE
  5
6A61
  8
0
 10
81.571569113639413
 20
29.863175633098258
 30
0.0
 40
0.012511014664466
  0
ARC
  5
6A62
  8
0
 10
82.45627704934266
 20
29.824178674297389
 30
0.0
 40
0.0667118331687085
 50
43.48186866892064
 51
129.4299311975237
  0
ARC
  5
6A63
  8
0
 10
82.435996585337094
 20
29.850033912555009
 30
0.0
 40
0.0338688421820966
 50
130.7104398489347
 51
196.0200467523677
  0
ARC
  5
6A64
  8
0
 10
82.455038716645504
 20
29.859695414376901
 30
0.0
 40
0.0549857639608283
 50
200.2243454281444
 51
272.40285702090631
  0
ARC
  5
6A65
  8
0
 10
82.461195329801427
 20
29.859081142843952
 30
0.0
 40
0.0544594963036908
 50
265.94472763451353
 51
331.99124013861808
  0
ARC
  5
6A66
  8
0
 10
82.483912032037367
 20
29.84889875534245
 30
0.0
 40
0.0296692501564396
 50
328.74879128675673
 51
45.567247536114031
  0
CIRCLE
  5
6A67
  8
0
 10
82.457331187050187
 20
29.840189905379081
 30
0.0
 40
0.0138252742103017
  0
ARC
  5
6A68
  8
0
 10
82.902298392320034
 20
29.628732249600588
 30
0.0
 40
0.0667118331687085
 50
43.48186866892064
 51
129.4299311975237
  0
ARC
  5
6A69
  8
0
 10
82.882017928314454
 20
29.654587487858219
 30
0.0
 40
0.0338688421820966
 50
130.7104398489347
 51
196.0200467523677
  0
ARC
  5
6A6A
  8
0
 10
82.901060059622864
 20
29.6642489896801
 30
0.0
 40
0.0549857639608283
 50
200.2243454281444
 51
272.40285702090631
  0
ARC
  5
6A6B
  8
0
 10
82.907216672778802
 20
29.663634718147151
 30
0.0
 40
0.0544594963036908
 50
265.94472763451353
 51
331.99124013861808
  0
ARC
  5
6A6C
  8
0
 10
82.929933375014727
 20
29.653452330645649
 30
0.0
 40
0.0296692501564396
 50
328.74879128675673
 51
45.567247536114031
  0
CIRCLE
  5
6A6D
  8
0
 10
82.903352530027547
 20
29.64474348068229
 30
0.0
 40
0.0138252742103017
  0
ARC
  5
6A6E
  8
0
 10
83.347670100783674
 20
29.445515761490292
 30
0.0
 40
0.0667118331687085
 50
43.48186866892064
 51
129.4299311975237
  0
ARC
  5
6A6F
  8
0
 10
83.327389636778094
 20
29.471370999747911
 30
0.0
 40
0.0338688421820966
 50
130.7104398489347
 51
196.0200467523677
  0
ARC
  5
6A70
  8
0
 10
83.346431768086518
 20
29.481032501569789
 30
0.0
 40
0.0549857639608283
 50
200.2243454281444
 51
272.40285702090631
  0
ARC
  5
6A71
  8
0
 10
83.352588381242455
 20
29.48041823003685
 30
0.0
 40
0.0544594963036908
 50
265.94472763451353
 51
331.99124013861808
  0
ARC
  5
6A72
  8
0
 10
83.375305083478366
 20
29.470235842535342
 30
0.0
 40
0.0296692501564396
 50
328.74879128675673
 51
45.567247536114031
  0
CIRCLE
  5
6A73
  8
0
 10
83.348724238491201
 20
29.461526992571979
 30
0.0
 40
0.0138252742103017
  0
ARC
  5
6A74
  8
0
 10
83.791881672893581
 20
29.27768944576556
 30
0.0
 40
0.0667118331687085
 50
43.48186866892064
 51
129.4299311975237
  0
ARC
  5
6A75
  8
0
 10
83.771601208888015
 20
29.303544684023169
 30
0.0
 40
0.0338688421820966
 50
130.7104398489347
 51
196.0200467523677
  0
ARC
  5
6A76
  8
0
 10
83.790643340196425
 20
29.313206185845061
 30
0.0
 40
0.0549857639608283
 50
200.2243454281444
 51
272.40285702090631
  0
ARC
  5
6A77
  8
0
 10
83.796799953352348
 20
29.312591914312112
 30
0.0
 40
0.0544594963036908
 50
265.94472763451353
 51
331.99124013861808
  0
ARC
  5
6A78
  8
0
 10
83.819516655588274
 20
29.30240952681061
 30
0.0
 40
0.0296692501564396
 50
328.74879128675673
 51
45.567247536114031
  0
CIRCLE
  5
6A79
  8
0
 10
83.792935810601094
 20
29.293700676847241
 30
0.0
 40
0.0138252742103017
  0
ARC
  5
6A7A
  8
0
 10
83.793674008588937
 20
28.901807799415732
 30
0.0
 40
0.0667118331687085
 50
43.48186866892064
 51
129.4299311975237
  0
ARC
  5
6A7B
  8
0
 10
83.773393544583385
 20
28.927663037673351
 30
0.0
 40
0.0338688421820966
 50
130.7104398489347
 51
196.0200467523677
  0
ARC
  5
6A7C
  8
0
 10
83.792435675891795
 20
28.937324539495229
 30
0.0
 40
0.0549857639608283
 50
200.2243454281444
 51
272.40285702090631
  0
ARC
  5
6A7D
  8
0
 10
83.798592289047733
 20
28.93671026796228
 30
0.0
 40
0.0544594963036908
 50
265.94472763451353
 51
331.99124013861808
  0
ARC
  5
6A7E
  8
0
 10
83.821308991283658
 20
28.926527880460782
 30
0.0
 40
0.0296692501564396
 50
328.74879128675673
 51
45.567247536114031
  0
CIRCLE
  5
6A7F
  8
0
 10
83.794728146296478
 20
28.917819030497409
 30
0.0
 40
0.0138252742103017
  0
ARC
  5
6A80
  8
0
 10
83.79246191542218
 20
28.537341380265811
 30
0.0
 40
0.0667118331687085
 50
43.48186866892064
 51
129.4299311975237
  0
ARC
  5
6A81
  8
0
 10
83.772181451416614
 20
28.563196618523431
 30
0.0
 40
0.0338688421820966
 50
130.7104398489347
 51
196.0200467523677
  0
ARC
  5
6A82
  8
0
 10
83.791223582725024
 20
28.572858120345309
 30
0.0
 40
0.0549857639608283
 50
200.2243454281444
 51
272.40285702090631
  0
ARC
  5
6A83
  8
0
 10
83.797380195880962
 20
28.572243848812359
 30
0.0
 40
0.0544594963036908
 50
265.94472763451353
 51
331.99124013861808
  0
ARC
  5
6A84
  8
0
 10
83.820096898116887
 20
28.562061461310861
 30
0.0
 40
0.0296692501564396
 50
328.74879128675673
 51
45.567247536114031
  0
CIRCLE
  5
6A85
  8
0
 10
83.793516053129707
 20
28.553352611347488
 30
0.0
 40
0.0138252742103017
  0
ARC
  5
6A86
  8
0
 10
83.791757534468005
 20
28.18999614195365
 30
0.0
 40
0.0667118331687085
 50
43.48186866892064
 51
129.4299311975237
  0
ARC
  5
6A87
  8
0
 10
83.771477070462439
 20
28.215851380211269
 30
0.0
 40
0.0338688421820966
 50
130.7104398489347
 51
196.0200467523677
  0
ARC
  5
6A88
  8
0
 10
83.790519201770849
 20
28.225512882033151
 30
0.0
 40
0.0549857639608283
 50
200.2243454281444
 51
272.40285702090631
  0
ARC
  5
6A89
  8
0
 10
83.796675814926786
 20
28.224898610500201
 30
0.0
 40
0.0544594963036908
 50
265.94472763451353
 51
331.99124013861808
  0
ARC
  5
6A8A
  8
0
 10
83.819392517162711
 20
28.2147162229987
 30
0.0
 40
0.0296692501564396
 50
328.74879128675673
 51
45.567247536114031
  0
CIRCLE
  5
6A8B
  8
0
 10
83.792811672175546
 20
28.206007373035341
 30
0.0
 40
0.0138252742103017
  0
ARC
  5
6A8C
  8
0
 10
83.346216356131166
 20
27.99412725690868
 30
0.0
 40
0.0667118331687085
 50
43.48186866892064
 51
129.4299311975237
  0
ARC
  5
6A8D
  8
0
 10
83.325935892125599
 20
28.0199824951663
 30
0.0
 40
0.0338688421820966
 50
130.7104398489347
 51
196.0200467523677
  0
ARC
  5
6A8E
  8
0
 10
83.34497802343401
 20
28.029643996988181
 30
0.0
 40
0.0549857639608283
 50
200.2243454281444
 51
272.40285702090631
  0
ARC
  5
6A8F
  8
0
 10
83.351134636589947
 20
28.029029725455231
 30
0.0
 40
0.0544594963036908
 50
265.94472763451353
 51
331.99124013861808
  0
ARC
  5
6A90
  8
0
 10
83.373851338825872
 20
28.01884733795373
 30
0.0
 40
0.0296692501564396
 50
328.74879128675673
 51
45.567247536114031
  0
CIRCLE
  5
6A91
  8
0
 10
83.347270493838707
 20
28.010138487990371
 30
0.0
 40
0.0138252742103017
  0
ARC
  5
6A92
  8
0
 10
82.902011409386674
 20
27.812897577406371
 30
0.0
 40
0.0667118331687085
 50
43.48186866892064
 51
129.4299311975237
  0
ARC
  5
6A93
  8
0
 10
82.881730945381108
 20
27.838752815663991
 30
0.0
 40
0.0338688421820966
 50
130.7104398489347
 51
196.0200467523677
  0
ARC
  5
6A94
  8
0
 10
82.900773076689504
 20
27.848414317485869
 30
0.0
 40
0.0549857639608283
 50
200.2243454281444
 51
272.40285702090631
  0
ARC
  5
6A95
  8
0
 10
82.906929689845455
 20
27.847800045952919
 30
0.0
 40
0.0544594963036908
 50
265.94472763451353
 51
331.99124013861808
  0
ARC
  5
6A96
  8
0
 10
82.929646392081381
 20
27.837617658451421
 30
0.0
 40
0.0296692501564396
 50
328.74879128675673
 51
45.567247536114031
  0
CIRCLE
  5
6A97
  8
0
 10
82.903065547094201
 20
27.828908808488048
 30
0.0
 40
0.0138252742103017
  0
ARC
  5
6A98
  8
0
 10
82.45775869027058
 20
27.647341093823481
 30
0.0
 40
0.0667118331687085
 50
43.48186866892064
 51
129.4299311975237
  0
ARC
  5
6A99
  8
0
 10
82.437478226265014
 20
27.673196332081101
 30
0.0
 40
0.0338688421820966
 50
130.7104398489347
 51
196.0200467523677
  0
ARC
  5
6A9A
  8
0
 10
82.456520357573424
 20
27.682857833902979
 30
0.0
 40
0.0549857639608283
 50
200.2243454281444
 51
272.40285702090631
  0
ARC
  5
6A9B
  8
0
 10
82.462676970729348
 20
27.682243562370029
 30
0.0
 40
0.0544594963036908
 50
265.94472763451353
 51
331.99124013861808
  0
ARC
  5
6A9C
  8
0
 10
82.485393672965273
 20
27.672061174868531
 30
0.0
 40
0.0296692501564396
 50
328.74879128675673
 51
45.567247536114031
  0
CIRCLE
  5
6A9D
  8
0
 10
82.458812827978093
 20
27.663352324905169
 30
0.0
 40
0.0138252742103017
  0
ARC
  5
6A9E
  8
0
 10
82.013662190296785
 20
27.809633925970012
 30
0.0
 40
0.0667118331687085
 50
43.48186866892064
 51
129.4299311975237
  0
ARC
  5
6A9F
  8
0
 10
81.993381726291219
 20
27.835489164227631
 30
0.0
 40
0.0338688421820966
 50
130.7104398489347
 51
196.0200467523677
  0
ARC
  5
6AA0
  8
0
 10
82.012423857599629
 20
27.84515066604952
 30
0.0
 40
0.0549857639608283
 50
200.2243454281444
 51
272.40285702090631
  0
ARC
  5
6AA1
  8
0
 10
82.018580470755566
 20
27.84453639451657
 30
0.0
 40
0.0544594963036908
 50
265.94472763451353
 51
331.99124013861808
  0
ARC
  5
6AA2
  8
0
 10
82.041297172991491
 20
27.834354007015062
 30
0.0
 40
0.0296692501564396
 50
328.74879128675673
 51
45.567247536114031
  0
CIRCLE
  5
6AA3
  8
0
 10
82.014716328004326
 20
27.825645157051699
 30
0.0
 40
0.0138252742103017
  0
ARC
  5
6AA4
  8
0
 10
81.573438752850123
 20
27.983849968884769
 30
0.0
 40
0.0667118331687085
 50
43.48186866892064
 51
129.4299311975237
  0
ARC
  5
6AA5
  8
0
 10
81.553158288844557
 20
28.009705207142389
 30
0.0
 40
0.0338688421820966
 50
130.7104398489347
 51
196.02004675236759
  0
ARC
  5
6AA6
  8
0
 10
81.572200420152981
 20
28.01936670896427
 30
0.0
 40
0.0549857639608283
 50
200.2243454281444
 51
272.40285702090631
  0
ARC
  5
6AA7
  8
0
 10
81.578357033308919
 20
28.018752437431321
 30
0.0
 40
0.0544594963036908
 50
265.94472763451353
 51
331.99124013861808
  0
ARC
  5
6AA8
  8
0
 10
81.60107373554483
 20
28.008570049929819
 30
0.0
 40
0.0296692501564396
 50
328.74879128675673
 51
45.567247536114031
  0
CIRCLE
  5
6AA9
  8
0
 10
81.57449289055765
 20
27.99986119996646
 30
0.0
 40
0.0138252742103017
  0
ARC
  5
6AAA
  8
0
 10
81.131969091272524
 20
28.181869691441211
 30
0.0
 40
0.0667118331687085
 50
43.48186866892064
 51
129.4299311975237
  0
ARC
  5
6AAB
  8
0
 10
81.111688627266957
 20
28.207724929698831
 30
0.0
 40
0.0338688421820966
 50
130.7104398489347
 51
196.02004675236759
  0
ARC
  5
6AAC
  8
0
 10
81.130730758575382
 20
28.217386431520708
 30
0.0
 40
0.0549857639608283
 50
200.2243454281444
 51
272.40285702090631
  0
ARC
  5
6AAD
  8
0
 10
81.136887371731319
 20
28.216772159987759
 30
0.0
 40
0.0544594963036908
 50
265.94472763451353
 51
331.99124013861808
  0
ARC
  5
6AAE
  8
0
 10
81.15960407396723
 20
28.206589772486261
 30
0.0
 40
0.0296692501564396
 50
328.74879128675673
 51
45.567247536114031
  0
CIRCLE
  5
6AAF
  8
0
 10
81.133023228980065
 20
28.197880922522899
 30
0.0
 40
0.0138252742103017
  0
ARC
  5
6AB0
  8
0
 10
81.123510691737991
 20
28.551223549917889
 30
0.0
 40
0.0667118331687085
 50
43.48186866892064
 51
129.4299311975237
  0
ARC
  5
6AB1
  8
0
 10
81.103230227732425
 20
28.577078788175509
 30
0.0
 40
0.0338688421820966
 50
130.7104398489347
 51
196.02004675236759
  0
ARC
  5
6AB2
  8
0
 10
81.122272359040835
 20
28.58674028999739
 30
0.0
 40
0.0549857639608283
 50
200.2243454281444
 51
272.40285702090631
  0
ARC
  5
6AB3
  8
0
 10
81.128428972196758
 20
28.586126018464441
 30
0.0
 40
0.0544594963036908
 50
265.94472763451353
 51
331.99124013861808
  0
ARC
  5
6AB4
  8
0
 10
81.151145674432684
 20
28.575943630962939
 30
0.0
 40
0.0296692501564396
 50
328.74879128675673
 51
45.567247536114031
  0
CIRCLE
  5
6AB5
  8
0
 10
81.124564829445504
 20
28.567234780999581
 30
0.0
 40
0.0138252742103017
  0
ARC
  5
6AB6
  8
0
 10
81.124280809016525
 20
28.90290437036273
 30
0.0
 40
0.0667118331687085
 50
43.48186866892064
 51
129.4299311975237
  0
ARC
  5
6AB7
  8
0
 10
81.104000345010945
 20
28.92875960862035
 30
0.0
 40
0.0338688421820966
 50
130.7104398489347
 51
196.02004675236759
  0
ARC
  5
6AB8
  8
0
 10
81.123042476319384
 20
28.938421110442231
 30
0.0
 40
0.0549857639608283
 50
200.2243454281444
 51
272.40285702090631
  0
ARC
  5
6AB9
  8
0
 10
81.129199089475307
 20
28.937806838909282
 30
0.0
 40
0.0544594963036908
 50
265.94472763451353
 51
331.99124013861808
  0
ARC
  5
6ABA
  8
0
 10
81.151915791711218
 20
28.92762445140778
 30
0.0
 40
0.0296692501564396
 50
328.74879128675673
 51
45.567247536114031
  0
CIRCLE
  5
6ABB
  8
0
 10
81.125334946724053
 20
28.918915601444422
 30
0.0
 40
0.0138252742103017
  0
ARC
  5
6ABC
  8
0
 10
81.123524819952777
 20
29.277445431340482
 30
0.0
 40
0.0667118331687085
 50
43.48186866892064
 51
129.4299311975237
  0
ARC
  5
6ABD
  8
0
 10
81.103244355947211
 20
29.303300669598102
 30
0.0
 40
0.0338688421820966
 50
130.7104398489347
 51
196.0200467523677
  0
ARC
  5
6ABE
  8
0
 10
81.122286487255622
 20
29.312962171419979
 30
0.0
 40
0.0549857639608283
 50
200.2243454281444
 51
272.40285702090631
  0
ARC
  5
6ABF
  8
0
 10
81.128443100411559
 20
29.31234789988703
 30
0.0
 40
0.0544594963036908
 50
265.94472763451353
 51
331.99124013861808
  0
ARC
  5
6AC0
  8
0
 10
81.151159802647484
 20
29.302165512385528
 30
0.0
 40
0.0296692501564396
 50
328.74879128675673
 51
45.567247536114031
  0
CIRCLE
  5
6AC1
  8
0
 10
81.124578957660304
 20
29.293456662422159
 30
0.0
 40
0.0138252742103017
  0
ARC
  5
6AC2
  8
0
 10
81.568045343312875
 20
29.445417159743009
 30
0.0
 40
0.0667118331687085
 50
43.48186866892064
 51
129.4299311975237
  0
ARC
  5
6AC3
  8
0
 10
81.547764879307294
 20
29.471272398000629
 30
0.0
 40
0.0338688421820966
 50
130.7104398489347
 51
196.0200467523677
  0
ARC
  5
6AC4
  8
0
 10
81.566807010615719
 20
29.48093389982251
 30
0.0
 40
0.0549857639608283
 50
200.2243454281444
 51
272.40285702090631
  0
ARC
  5
6AC5
  8
0
 10
81.572963623771656
 20
29.480319628289561
 30
0.0
 40
0.0544594963036908
 50
265.94472763451353
 51
331.99124013861808
  0
ARC
  5
6AC6
  8
0
 10
81.595680326007567
 20
29.470137240788059
 30
0.0
 40
0.0296692501564396
 50
328.74879128675673
 51
45.567247536114031
  0
CIRCLE
  5
6AC7
  8
0
 10
81.569099481020402
 20
29.4614283908247
 30
0.0
 40
0.0138252742103017
  0
ARC
  5
6AC8
  8
0
 10
82.012490546729353
 20
29.235087515078501
 30
0.0
 40
0.0667118331687085
 50
43.48186866892064
 51
129.4299311975237
  0
ARC
  5
6AC9
  8
0
 10
81.992210082723787
 20
29.260942753336121
 30
0.0
 40
0.0338688421820966
 50
130.7104398489347
 51
196.0200467523677
  0
ARC
  5
6ACA
  8
0
 10
82.011252214032197
 20
29.270604255157998
 30
0.0
 40
0.0549857639608283
 50
200.2243454281444
 51
272.40285702090631
  0
ARC
  5
6ACB
  8
0
 10
82.017408827188135
 20
29.269989983625049
 30
0.0
 40
0.0544594963036908
 50
265.94472763451353
 51
331.99124013861808
  0
ARC
  5
6ACC
  8
0
 10
82.040125529424074
 20
29.259807596123551
 30
0.0
 40
0.0296692501564396
 50
328.74879128675673
 51
45.567247536114031
  0
CIRCLE
  5
6ACD
  8
0
 10
82.013544684436866
 20
29.251098746160189
 30
0.0
 40
0.0138252742103017
  0
ARC
  5
6ACE
  8
0
 10
82.458956486596165
 20
29.423750504754299
 30
0.0
 40
0.0667118331687085
 50
43.48186866892064
 51
129.4299311975237
  0
ARC
  5
6ACF
  8
0
 10
82.438676022590599
 20
29.449605743011919
 30
0.0
 40
0.0338688421820966
 50
130.7104398489347
 51
196.0200467523677
  0
ARC
  5
6AD0
  8
0
 10
82.457718153898995
 20
29.4592672448338
 30
0.0
 40
0.0549857639608283
 50
200.2243454281444
 51
272.40285702090631
  0
ARC
  5
6AD1
  8
0
 10
82.463874767054946
 20
29.45865297330085
 30
0.0
 40
0.0544594963036908
 50
265.94472763451353
 51
331.99124013861808
  0
ARC
  5
6AD2
  8
0
 10
82.486591469290872
 20
29.448470585799349
 30
0.0
 40
0.0296692501564396
 50
328.74879128675673
 51
45.567247536114031
  0
CIRCLE
  5
6AD3
  8
0
 10
82.460010624303692
 20
29.43976173583599
 30
0.0
 40
0.0138252742103017
  0
ARC
  5
6AD4
  8
0
 10
82.901990835883581
 20
29.234654762965469
 30
0.0
 40
0.0667118331687085
 50
43.48186866892064
 51
129.4299311975237
  0
ARC
  5
6AD5
  8
0
 10
82.881710371878015
 20
29.260510001223089
 30
0.0
 40
0.0338688421820966
 50
130.7104398489347
 51
196.0200467523677
  0
ARC
  5
6AD6
  8
0
 10
82.900752503186425
 20
29.270171503044971
 30
0.0
 40
0.0549857639608283
 50
200.2243454281444
 51
272.40285702090631
  0
ARC
  5
6AD7
  8
0
 10
82.906909116342362
 20
29.269557231512021
 30
0.0
 40
0.0544594963036908
 50
265.94472763451353
 51
331.99124013861808
  0
ARC
  5
6AD8
  8
0
 10
82.929625818578273
 20
29.259374844010519
 30
0.0
 40
0.0296692501564396
 50
328.74879128675673
 51
45.567247536114031
  0
CIRCLE
  5
6AD9
  8
0
 10
82.903044973591108
 20
29.250665994047161
 30
0.0
 40
0.0138252742103017
  0
ARC
  5
6ADA
  8
0
 10
83.347804002905676
 20
29.059815273468491
 30
0.0
 40
0.0667118331687085
 50
43.48186866892064
 51
129.4299311975237
  0
ARC
  5
6ADB
  8
0
 10
83.32752353890011
 20
29.085670511726121
 30
0.0
 40
0.0338688421820966
 50
130.7104398489347
 51
196.0200467523677
  0
ARC
  5
6ADC
  8
0
 10
83.34656567020852
 20
29.095332013547999
 30
0.0
 40
0.0549857639608283
 50
200.2243454281444
 51
272.40285702090631
  0
ARC
  5
6ADD
  8
0
 10
83.352722283364457
 20
29.094717742015039
 30
0.0
 40
0.0544594963036908
 50
265.94472763451353
 51
331.99124013861808
  0
ARC
  5
6ADE
  8
0
 10
83.375438985600383
 20
29.084535354513541
 30
0.0
 40
0.0296692501564396
 50
328.74879128675673
 51
45.567247536114031
  0
CIRCLE
  5
6ADF
  8
0
 10
83.348858140613217
 20
29.075826504550179
 30
0.0
 40
0.0138252742103017
  0
ARC
  5
6AE0
  8
0
 10
83.348473862219066
 20
28.690866956715059
 30
0.0
 40
0.0667118331687085
 50
43.48186866892064
 51
129.4299311975237
  0
ARC
  5
6AE1
  8
0
 10
83.328193398213514
 20
28.716722194972679
 30
0.0
 40
0.0338688421820966
 50
130.7104398489347
 51
196.0200467523677
  0
ARC
  5
6AE2
  8
0
 10
83.347235529521924
 20
28.726383696794571
 30
0.0
 40
0.0549857639608283
 50
200.2243454281444
 51
272.40285702090631
  0
ARC
  5
6AE3
  8
0
 10
83.353392142677862
 20
28.725769425261621
 30
0.0
 40
0.0544594963036908
 50
265.94472763451353
 51
331.99124013861808
  0
ARC
  5
6AE4
  8
0
 10
83.376108844913787
 20
28.715587037760109
 30
0.0
 40
0.0296692501564396
 50
328.74879128675673
 51
45.567247536114031
  0
CIRCLE
  5
6AE5
  8
0
 10
83.349527999926607
 20
28.70687818779675
 30
0.0
 40
0.0138252742103017
  0
ARC
  5
6AE6
  8
0
 10
83.346437782817262
 20
28.332746572579271
 30
0.0
 40
0.0667118331687085
 50
43.48186866892064
 51
129.4299311975237
  0
ARC
  5
6AE7
  8
0
 10
83.326157318811696
 20
28.358601810836898
 30
0.0
 40
0.0338688421820966
 50
130.7104398489347
 51
196.0200467523677
  0
ARC
  5
6AE8
  8
0
 10
83.345199450120106
 20
28.36826331265878
 30
0.0
 40
0.0549857639608283
 50
200.2243454281444
 51
272.40285702090631
  0
ARC
  5
6AE9
  8
0
 10
83.351356063276043
 20
28.367649041125819
 30
0.0
 40
0.0544594963036908
 50
265.94472763451353
 51
331.99124013861808
  0
ARC
  5
6AEA
  8
0
 10
83.374072765511954
 20
28.357466653624329
 30
0.0
 40
0.0296692501564396
 50
328.74879128675673
 51
45.567247536114031
  0
CIRCLE
  5
6AEB
  8
0
 10
83.347491920524789
 20
28.348757803660959
 30
0.0
 40
0.0138252742103017
  0
ARC
  5
6AEC
  8
0
 10
82.902259337534431
 20
28.145429480154199
 30
0.0
 40
0.0667118331687085
 50
43.48186866892064
 51
129.4299311975237
  0
ARC
  5
6AED
  8
0
 10
82.881978873528865
 20
28.171284718411819
 30
0.0
 40
0.0338688421820966
 50
130.7104398489347
 51
196.0200467523677
  0
ARC
  5
6AEE
  8
0
 10
82.901021004837276
 20
28.1809462202337
 30
0.0
 40
0.0549857639608283
 50
200.2243454281444
 51
272.40285702090631
  0
ARC
  5
6AEF
  8
0
 10
82.907177617993213
 20
28.180331948700751
 30
0.0
 40
0.0544594963036908
 50
265.94472763451353
 51
331.99124013861808
  0
ARC
  5
6AF0
  8
0
 10
82.929894320229124
 20
28.170149561199249
 30
0.0
 40
0.0296692501564396
 50
328.74879128675673
 51
45.567247536114031
  0
CIRCLE
  5
6AF1
  8
0
 10
82.903313475241958
 20
28.16144071123589
 30
0.0
 40
0.0138252742103017
  0
ARC
  5
6AF2
  8
0
 10
82.45771928678154
 20
27.971293316588572
 30
0.0
 40
0.0667118331687085
 50
43.48186866892064
 51
129.4299311975237
  0
ARC
  5
6AF3
  8
0
 10
82.437438822775974
 20
27.997148554846181
 30
0.0
 40
0.0338688421820966
 50
130.7104398489347
 51
196.0200467523677
  0
ARC
  5
6AF4
  8
0
 10
82.456480954084384
 20
28.006810056668058
 30
0.0
 40
0.0549857639608283
 50
200.2243454281444
 51
272.40285702090631
  0
ARC
  5
6AF5
  8
0
 10
82.462637567240307
 20
28.00619578513512
 30
0.0
 40
0.0544594963036908
 50
265.94472763451353
 51
331.99124013861808
  0
ARC
  5
6AF6
  8
0
 10
82.485354269476247
 20
27.996013397633611
 30
0.0
 40
0.0296692501564396
 50
328.74879128675673
 51
45.567247536114031
  0
CIRCLE
  5
6AF7
  8
0
 10
82.458773424489067
 20
27.987304547670249
 30
0.0
 40
0.0138252742103017
  0
ARC
  5
6AF8
  8
0
 10
82.019903874103377
 20
28.13528153727751
 30
0.0
 40
0.0667118331687085
 50
43.48186866892064
 51
129.4299311975237
  0
ARC
  5
6AF9
  8
0
 10
81.999623410097783
 20
28.16113677553513
 30
0.0
 40
0.0338688421820966
 50
130.7104398489347
 51
196.0200467523677
  0
ARC
  5
6AFA
  8
0
 10
82.018665541406222
 20
28.170798277357012
 30
0.0
 40
0.0549857639608283
 50
200.2243454281444
 51
272.40285702090631
  0
ARC
  5
6AFB
  8
0
 10
82.024822154562145
 20
28.170184005824058
 30
0.0
 40
0.0544594963036908
 50
265.94472763451353
 51
331.99124013861808
  0
ARC
  5
6AFC
  8
0
 10
82.04753885679807
 20
28.160001618322561
 30
0.0
 40
0.0296692501564396
 50
328.74879128675673
 51
45.567247536114031
  0
CIRCLE
  5
6AFD
  8
0
 10
82.02095801181089
 20
28.151292768359198
 30
0.0
 40
0.0138252742103017
  0
ARC
  5
6AFE
  8
0
 10
81.567627596588579
 20
28.334520242056801
 30
0.0
 40
0.0667118331687085
 50
43.48186866892064
 51
129.4299311975237
  0
ARC
  5
6AFF
  8
0
 10
81.547347132583027
 20
28.360375480314431
 30
0.0
 40
0.0338688421820966
 50
130.7104398489347
 51
196.02004675236759
  0
ARC
  5
6B00
  8
0
 10
81.566389263891438
 20
28.370036982136309
 30
0.0
 40
0.0549857639608283
 50
200.2243454281444
 51
272.40285702090631
  0
ARC
  5
6B01
  8
0
 10
81.572545877047375
 20
28.369422710603349
 30
0.0
 40
0.0544594963036908
 50
265.94472763451353
 51
331.99124013861808
  0
ARC
  5
6B02
  8
0
 10
81.5952625792833
 20
28.359240323101851
 30
0.0
 40
0.0296692501564396
 50
328.74879128675673
 51
45.567247536114031
  0
CIRCLE
  5
6B03
  8
0
 10
81.568681734296135
 20
28.350531473138489
 30
0.0
 40
0.0138252742103017
  0
ARC
  5
6B04
  8
0
 10
81.56773116151102
 20
28.69045412414695
 30
0.0
 40
0.0667118331687085
 50
43.48186866892064
 51
129.4299311975237
  0
ARC
  5
6B05
  8
0
 10
81.547450697505454
 20
28.716309362404569
 30
0.0
 40
0.0338688421820966
 50
130.7104398489347
 51
196.02004675236759
  0
ARC
  5
6B06
  8
0
 10
81.566492828813864
 20
28.725970864226451
 30
0.0
 40
0.0549857639608283
 50
200.2243454281444
 51
272.40285702090631
  0
ARC
  5
6B07
  8
0
 10
81.572649441969787
 20
28.725356592693501
 30
0.0
 40
0.0544594963036908
 50
265.94472763451353
 51
331.99124013861808
  0
ARC
  5
6B08
  8
0
 10
81.595366144205727
 20
28.715174205192
 30
0.0
 40
0.0296692501564396
 50
328.74879128675673
 51
45.567247536114031
  0
CIRCLE
  5
6B09
  8
0
 10
81.568785299218547
 20
28.706465355228641
 30
0.0
 40
0.0138252742103017
  0
ARC
  5
6B0A
  8
0
 10
81.567700824311487
 20
29.05910348173057
 30
0.0
 40
0.0667118331687085
 50
43.48186866892064
 51
129.4299311975237
  0
ARC
  5
6B0B
  8
0
 10
81.547420360305935
 20
29.08495871998819
 30
0.0
 40
0.0338688421820966
 50
130.7104398489347
 51
196.02004675236759
  0
ARC
  5
6B0C
  8
0
 10
81.566462491614345
 20
29.094620221810072
 30
0.0
 40
0.0549857639608283
 50
200.2243454281444
 51
272.40285702090631
  0
ARC
  5
6B0D
  8
0
 10
81.572619104770283
 20
29.094005950277118
 30
0.0
 40
0.0544594963036908
 50
265.94472763451353
 51
331.99124013861808
  0
ARC
  5
6B0E
  8
0
 10
81.595335807006208
 20
29.083823562775621
 30
0.0
 40
0.0296692501564396
 50
328.74879128675673
 51
45.567247536114031
  0
CIRCLE
  5
6B0F
  8
0
 10
81.568754962019028
 20
29.075114712812258
 30
0.0
 40
0.0138252742103017
  0
LINE
  5
6B10
  8
0
 10
82.458746852558264
 20
29.13601263639379
 30
0.0
 11
82.547453228443089
 21
29.098905559710289
 31
0.0
  0
LINE
  5
6B11
  8
0
 10
82.547453228443089
 20
29.098905559710289
 30
0.0
 11
82.547485964543085
 21
29.025366129710289
 31
0.0
  0
LINE
  5
6B12
  8
0
 10
82.547485964543085
 20
29.025366129710289
 30
0.0
 11
82.45866439265231
 21
28.98618189750966
 31
0.0
  0
LINE
  5
6B13
  8
0
 10
82.45866439265231
 20
28.98618189750966
 30
0.0
 11
82.370757756105974
 21
29.024034841761289
 31
0.0
  0
LINE
  5
6B14
  8
0
 10
82.370757756105974
 20
29.024034841761289
 30
0.0
 11
82.370075291299983
 21
29.099759897720059
 31
0.0
  0
LINE
  5
6B15
  8
0
 10
82.370075291299983
 20
29.099759897720059
 30
0.0
 11
82.458746852558264
 21
29.13601263639379
 31
0.0
  0
CIRCLE
  5
6B16
  8
0
 10
82.459226390261136
 20
29.054450010932221
 30
0.0
 40
0.0150144874244336
  0
LINE
  5
6B17
  8
0
 10
82.681576023904995
 20
29.04249900487045
 30
0.0
 11
82.770282399789835
 21
29.005391928186949
 31
0.0
  0
LINE
  5
6B18
  8
0
 10
82.770282399789835
 20
29.005391928186949
 30
0.0
 11
82.770315135889831
 21
28.931852498186949
 31
0.0
  0
LINE
  5
6B19
  8
0
 10
82.770315135889831
 20
28.931852498186949
 30
0.0
 11
82.681493563999055
 21
28.89266826598632
 31
0.0
  0
LINE
  5
6B1A
  8
0
 10
82.681493563999055
 20
28.89266826598632
 30
0.0
 11
82.593586927452733
 21
28.930521210237959
 31
0.0
  0
LINE
  5
6B1B
  8
0
 10
82.593586927452733
 20
28.930521210237959
 30
0.0
 11
82.592904462646729
 21
29.006246266196719
 31
0.0
  0
LINE
  5
6B1C
  8
0
 10
82.592904462646729
 20
29.006246266196719
 30
0.0
 11
82.681576023904995
 21
29.04249900487045
 31
0.0
  0
CIRCLE
  5
6B1D
  8
0
 10
82.682055561607882
 20
28.960936379408881
 30
0.0
 40
0.0150144874244336
  0
LINE
  5
6B1E
  8
0
 10
82.904028595533717
 20
28.953847070273412
 30
0.0
 11
82.992734971418543
 21
28.916739993589911
 31
0.0
  0
LINE
  5
6B1F
  8
0
 10
82.992734971418543
 20
28.916739993589911
 30
0.0
 11
82.992767707518539
 21
28.84320056358991
 31
0.0
  0
LINE
  5
6B20
  8
0
 10
82.992767707518539
 20
28.84320056358991
 30
0.0
 11
82.903946135627763
 21
28.804016331389281
 31
0.0
  0
LINE
  5
6B21
  8
0
 10
82.903946135627763
 20
28.804016331389281
 30
0.0
 11
82.816039499081427
 21
28.841869275640921
 31
0.0
  0
LINE
  5
6B22
  8
0
 10
82.816039499081427
 20
28.841869275640921
 30
0.0
 11
82.815357034275436
 21
28.91759433159968
 31
0.0
  0
LINE
  5
6B23
  8
0
 10
82.815357034275436
 20
28.91759433159968
 30
0.0
 11
82.904028595533717
 21
28.953847070273412
 31
0.0
  0
CIRCLE
  5
6B24
  8
0
 10
82.904508133236575
 20
28.87228444481185
 30
0.0
 40
0.0150144874244336
  0
LINE
  5
6B25
  8
0
 10
82.903418713212446
 20
28.77106366626856
 30
0.0
 11
82.992125089097271
 21
28.733956589585059
 31
0.0
  0
LINE
  5
6B26
  8
0
 10
82.992125089097271
 20
28.733956589585059
 30
0.0
 11
82.992157825197268
 21
28.660417159585059
 31
0.0
  0
LINE
  5
6B27
  8
0
 10
82.992157825197268
 20
28.660417159585059
 30
0.0
 11
82.903336253306492
 21
28.62123292738443
 31
0.0
  0
LINE
  5
6B28
  8
0
 10
82.903336253306492
 20
28.62123292738443
 30
0.0
 11
82.81542961676017
 21
28.659085871636069
 31
0.0
  0
LINE
  5
6B29
  8
0
 10
82.81542961676017
 20
28.659085871636069
 30
0.0
 11
82.814747151954165
 21
28.734810927594829
 31
0.0
  0
LINE
  5
6B2A
  8
0
 10
82.814747151954165
 20
28.734810927594829
 30
0.0
 11
82.903418713212446
 21
28.77106366626856
 31
0.0
  0
CIRCLE
  5
6B2B
  8
0
 10
82.903898250915319
 20
28.689501040806991
 30
0.0
 40
0.0150144874244336
  0
LINE
  5
6B2C
  8
0
 10
82.903417667102147
 20
28.590874450995098
 30
0.0
 11
82.992124042986987
 21
28.553767374311612
 31
0.0
  0
LINE
  5
6B2D
  8
0
 10
82.992124042986987
 20
28.553767374311612
 30
0.0
 11
82.992156779086955
 21
28.480227944311611
 31
0.0
  0
LINE
  5
6B2E
  8
0
 10
82.992156779086955
 20
28.480227944311611
 30
0.0
 11
82.903335207196179
 21
28.441043712110972
 31
0.0
  0
LINE
  5
6B2F
  8
0
 10
82.903335207196179
 20
28.441043712110972
 30
0.0
 11
82.815428570649871
 21
28.478896656362611
 31
0.0
  0
LINE
  5
6B30
  8
0
 10
82.815428570649871
 20
28.478896656362611
 30
0.0
 11
82.814746105843867
 21
28.554621712321371
 31
0.0
  0
LINE
  5
6B31
  8
0
 10
82.814746105843867
 20
28.554621712321371
 30
0.0
 11
82.903417667102147
 21
28.590874450995098
 31
0.0
  0
CIRCLE
  5
6B32
  8
0
 10
82.903897204805034
 20
28.50931182553353
 30
0.0
 40
0.0150144874244336
  0
LINE
  5
6B33
  8
0
 10
82.681592412966836
 20
28.498466354213949
 30
0.0
 11
82.770298788851676
 21
28.461359277530448
 31
0.0
  0
LINE
  5
6B34
  8
0
 10
82.770298788851676
 20
28.461359277530448
 30
0.0
 11
82.770331524951672
 21
28.387819847530452
 31
0.0
  0
LINE
  5
6B35
  8
0
 10
82.770331524951672
 20
28.387819847530452
 30
0.0
 11
82.681509953060896
 21
28.348635615329819
 31
0.0
  0
LINE
  5
6B36
  8
0
 10
82.681509953060896
 20
28.348635615329819
 30
0.0
 11
82.593603316514574
 21
28.386488559581451
 31
0.0
  0
LINE
  5
6B37
  8
0
 10
82.593603316514574
 20
28.386488559581451
 30
0.0
 11
82.59292085170857
 21
28.462213615540222
 31
0.0
  0
LINE
  5
6B38
  8
0
 10
82.59292085170857
 20
28.462213615540222
 30
0.0
 11
82.681592412966836
 21
28.498466354213949
 31
0.0
  0
CIRCLE
  5
6B39
  8
0
 10
82.682071950669723
 20
28.416903728752381
 30
0.0
 40
0.0150144874244336
  0
LINE
  5
6B3A
  8
0
 10
82.458974904609775
 20
28.40989509377377
 30
0.0
 11
82.547681280494615
 21
28.372788017090269
 31
0.0
  0
LINE
  5
6B3B
  8
0
 10
82.547681280494615
 20
28.372788017090269
 30
0.0
 11
82.547714016594597
 21
28.299248587090268
 31
0.0
  0
LINE
  5
6B3C
  8
0
 10
82.547714016594597
 20
28.299248587090268
 30
0.0
 11
82.458892444703807
 21
28.260064354889639
 31
0.0
  0
LINE
  5
6B3D
  8
0
 10
82.458892444703807
 20
28.260064354889639
 30
0.0
 11
82.370985808157499
 21
28.297917299141272
 31
0.0
  0
LINE
  5
6B3E
  8
0
 10
82.370985808157499
 20
28.297917299141272
 30
0.0
 11
82.370303343351495
 21
28.373642355100039
 31
0.0
  0
LINE
  5
6B3F
  8
0
 10
82.370303343351495
 20
28.373642355100039
 30
0.0
 11
82.458974904609775
 21
28.40989509377377
 31
0.0
  0
CIRCLE
  5
6B40
  8
0
 10
82.459454442312648
 20
28.328332468312201
 30
0.0
 40
0.0150144874244336
  0
LINE
  5
6B41
  8
0
 10
82.235398113081914
 20
28.498041071930231
 30
0.0
 11
82.324104488966725
 21
28.460933995246741
 31
0.0
  0
LINE
  5
6B42
  8
0
 10
82.324104488966725
 20
28.460933995246741
 30
0.0
 11
82.324137225066721
 21
28.387394565246741
 31
0.0
  0
LINE
  5
6B43
  8
0
 10
82.324137225066721
 20
28.387394565246741
 30
0.0
 11
82.235315653175945
 21
28.348210333046101
 31
0.0
  0
LINE
  5
6B44
  8
0
 10
82.235315653175945
 20
28.348210333046101
 30
0.0
 11
82.147409016629624
 21
28.38606327729774
 31
0.0
  0
LINE
  5
6B45
  8
0
 10
82.147409016629624
 20
28.38606327729774
 30
0.0
 11
82.146726551823605
 21
28.4617883332565
 31
0.0
  0
LINE
  5
6B46
  8
0
 10
82.146726551823605
 20
28.4617883332565
 30
0.0
 11
82.235398113081914
 21
28.498041071930231
 31
0.0
  0
CIRCLE
  5
6B47
  8
0
 10
82.235877650784772
 20
28.416478446468659
 30
0.0
 40
0.0150144874244336
  0
LINE
  5
6B48
  8
0
 10
82.014502153621265
 20
28.591550221555991
 30
0.0
 11
82.103208529506105
 21
28.55444314487249
 31
0.0
  0
LINE
  5
6B49
  8
0
 10
82.103208529506105
 20
28.55444314487249
 30
0.0
 11
82.103241265606101
 21
28.48090371487249
 31
0.0
  0
LINE
  5
6B4A
  8
0
 10
82.103241265606101
 20
28.48090371487249
 30
0.0
 11
82.014419693715325
 21
28.441719482671861
 31
0.0
  0
LINE
  5
6B4B
  8
0
 10
82.014419693715325
 20
28.441719482671861
 30
0.0
 11
81.926513057169004
 21
28.4795724269235
 31
0.0
  0
LINE
  5
6B4C
  8
0
 10
81.926513057169004
 20
28.4795724269235
 30
0.0
 11
81.925830592362999
 21
28.55529748288226
 31
0.0
  0
LINE
  5
6B4D
  8
0
 10
81.925830592362999
 20
28.55529748288226
 30
0.0
 11
82.014502153621265
 21
28.591550221555991
 31
0.0
  0
CIRCLE
  5
6B4E
  8
0
 10
82.014981691324152
 20
28.509987596094419
 30
0.0
 40
0.0150144874244336
  0
LINE
  5
6B4F
  8
0
 10
82.014501804917884
 20
28.771898461196258
 30
0.0
 11
82.10320818080271
 21
28.734791384512761
 31
0.0
  0
LINE
  5
6B50
  8
0
 10
82.10320818080271
 20
28.734791384512761
 30
0.0
 11
82.103240916902706
 21
28.66125195451276
 31
0.0
  0
LINE
  5
6B51
  8
0
 10
82.103240916902706
 20
28.66125195451276
 30
0.0
 11
82.01441934501193
 21
28.622067722312131
 31
0.0
  0
LINE
  5
6B52
  8
0
 10
82.01441934501193
 20
28.622067722312131
 30
0.0
 11
81.926512708465594
 21
28.659920666563771
 31
0.0
  0
LINE
  5
6B53
  8
0
 10
81.926512708465594
 20
28.659920666563771
 30
0.0
 11
81.925830243659604
 21
28.735645722522531
 31
0.0
  0
LINE
  5
6B54
  8
0
 10
81.925830243659604
 20
28.735645722522531
 30
0.0
 11
82.014501804917884
 21
28.771898461196258
 31
0.0
  0
CIRCLE
  5
6B55
  8
0
 10
82.014981342620757
 20
28.69033583573469
 30
0.0
 40
0.0150144874244336
  0
LINE
  5
6B56
  8
0
 10
82.015826180593152
 20
28.953552758997429
 30
0.0
 11
82.104532556477963
 21
28.916445682313942
 31
0.0
  0
LINE
  5
6B57
  8
0
 10
82.104532556477963
 20
28.916445682313942
 30
0.0
 11
82.104565292577973
 21
28.842906252313941
 31
0.0
  0
LINE
  5
6B58
  8
0
 10
82.104565292577973
 20
28.842906252313941
 30
0.0
 11
82.015743720687183
 21
28.803722020113302
 31
0.0
  0
LINE
  5
6B59
  8
0
 10
82.015743720687183
 20
28.803722020113302
 30
0.0
 11
81.927837084140876
 21
28.841574964364941
 31
0.0
  0
LINE
  5
6B5A
  8
0
 10
81.927837084140876
 20
28.841574964364941
 30
0.0
 11
81.927154619334857
 21
28.917300020323701
 31
0.0
  0
LINE
  5
6B5B
  8
0
 10
81.927154619334857
 20
28.917300020323701
 30
0.0
 11
82.015826180593152
 21
28.953552758997429
 31
0.0
  0
CIRCLE
  5
6B5C
  8
0
 10
82.016305718296024
 20
28.871990133535871
 30
0.0
 40
0.0150144874244336
  0
ARC
  5
6B5D
  8
0
 10
227.89785242054629
 20
-142.49929269403239
 30
0.0
 40
206.8527202982184
 50
135.18732257921221
 51
136.20672022964911
  0
ARC
  5
6B5E
  8
0
 10
177.94060557562099
 20
-93.231229096414594
 30
0.0
 40
136.1388560332073
 50
135.07952459967169
 51
136.679238356186
  0
ARC
  5
6B5F
  8
0
 10
84.425210388242078
 20
-3.999755491559112
 30
0.0
 40
7.4697554612974146
 50
141.45473570739881
 51
169.0832308638515
  0
ARC
  5
6B60
  8
0
 10
85.158086079122825
 20
-4.3254305277025544
 30
0.0
 40
7.7090638213110232
 50
144.3176914254779
 51
169.33874045917719
  0
ARC
  5
6B61
  8
0
 10
109.7907652042462
 20
-9.863073472397879
 30
0.0
 40
33.500259573089252
 50
167.45238396607621
 51
177.50991840673711
  0
ARC
  5
6B62
  8
0
 10
108.94416272305131
 20
-9.7025926565588243
 30
0.0
 40
32.0915086035698
 50
167.76049736786109
 51
178.04453884844779
  0
ARC
  5
6B63
  8
0
 10
92.012090052718563
 20
-7.8421244097834997
 30
0.0
 40
15.700139020917041
 50
182.06410521566619
 51
209.4236657639041
  0
ARC
  5
6B64
  8
0
 10
88.071899931813334
 20
-8.9491323596804389
 30
0.0
 40
11.205764951539569
 50
178.2531800580411
 51
214.99166100677189
  0
ARC
  5
6B65
  8
0
 10
81.640895618940661
 20
-13.43763681634899
 30
0.0
 40
3.924085090248596
 50
212.6556763593089
 51
267.30666242584232
  0
ARC
  5
6B66
  8
0
 10
81.751069834549327
 20
-13.2395132662877
 30
0.0
 40
3.5688589194868401
 50
216.75620546037709
 51
315.94614664214009
  0
ARC
  5
6B67
  8
0
 10
81.273326252591076
 20
-12.02984530577136
 30
0.0
 40
5.3306899495449311
 50
271.96920963349658
 51
307.2089440776117
  0
ARC
  5
6B68
  8
0
 10
79.589654306977707
 20
-10.38804554189765
 30
0.0
 40
7.1259418101716943
 50
311.54848446805261
 51
347.60251252694479
  0
ARC
  5
6B69
  8
0
 10
80.020889805090434
 20
-10.65624209203065
 30
0.0
 40
7.1839915134420878
 50
308.53965138048278
 51
347.12896084325422
  0
ARC
  5
6B6A
  8
0
 10
71.562128255833343
 20
-7.4377982167007568
 30
0.0
 40
15.64259719890082
 50
343.35709015410959
 51
2.9034083613483368
  0
ARC
  5
6B6B
  8
0
 10
64.985180122161509
 20
-6.4841633550860234
 30
0.0
 40
22.78258876809516
 50
345.32313098640481
 51
359.20526330585187
  0
ARC
  5
6B6C
  8
0
 10
74.238515141298166
 20
-8.0264030988223887
 30
0.0
 40
13.019573392251591
 50
6.0886095666635134
 51
21.093187901892449
  0
ARC
  5
6B6D
  8
0
 10
74.078075899933964
 20
-8.1292272624716908
 30
0.0
 40
13.751876203861769
 50
5.5460567803491081
 51
20.509471607354151
  0
ARC
  5
6B6E
  8
0
 10
112.23073305670781
 20
7.338174472756096
 30
0.0
 40
27.964363387390659
 50
189.59399553267141
 51
202.45015143748091
  0
ARC
  5
6B6F
  8
0
 10
113.8460179389574
 20
7.7862213333083581
 30
0.0
 40
29.08781153600469
 50
190.3356621437166
 51
202.4272890508154
  0
ARC
  5
6B70
  8
0
 10
125.77603600200931
 20
7.0619322343388511
 30
0.0
 40
41.351638187679832
 50
177.4253613615432
 51
186.08642306069541
  0
ARC
  5
6B71
  8
0
 10
122.6208316196614
 20
6.961217669074812
 30
0.0
 40
37.647904588105909
 50
177.3231218029394
 51
186.70209137606591
  0
LINE
  5
6B72
  8
0
 10
84.46614016902312
 20
8.9194809073499997
 30
0.0
 11
84.47905905772312
 21
10.113301719100001
 31
0.0
  0
LINE
  5
6B73
  8
0
 10
85.014008292973116
 20
8.7195006811002411
 30
0.0
 11
85.029091260436587
 21
10.113301719100001
 31
0.0
  0
ARC
  5
6F30
  8
0
 10
82.459050526164987
 20
4.7149627729071568
 30
0.0
 40
0.5000000001928422
 50
65.505351533377464
 51
114.49464846405181
  0
ARC
  5
6F31
  8
0
 10
82.284011429364369
 20
4.7952317688671471
 30
0.0
 40
0.0339321613725046
 50
198.03480488788901
 51
262.64921508167629
  0
ARC
  5
6F32
  8
0
 10
82.334451461162132
 20
4.9737613383151462
 30
0.0
 40
0.2191405276473733
 50
255.52348491501971
 51
271.77999003102917
  0
ARC
  5
6F33
  8
0
 10
82.632084480117186
 20
4.796936376308703
 30
0.0
 40
0.0363802745874937
 50
275.19600573880871
 51
340.38996333560311
  0
ARC
  5
6F34
  8
0
 10
82.475726678590831
 20
6.0342133871066013
 30
0.0
 40
1.283476144089106
 50
274.5186131229417
 51
277.14557165362521
  0
LINE
  5
6F44
  8
0
 10
82.51775145042312
 20
27.676652565882979
 30
0.0
 11
82.514705505616917
 21
27.676652565882979
 31
0.0
  0
LINE
  5
6F45
  8
0
 10
82.400349601923125
 20
27.676666637919741
 30
0.0
 11
82.403787642296464
 21
27.676666637919741
 31
0.0
  0
ARC
  5
6F46
  8
0
 10
70.526213067822198
 20
18.992067375677649
 30
0.0
 40
14.518133067960409
 50
349.4906129593121
 51
351.11790790138929
  0
ARC
  5
6F47
  8
0
 10
84.912964112199091
 20
16.023346362886191
 30
0.0
 40
0.0655795756239101
 50
277.6784007258708
 51
357.85541758120598
  0
ARC
  5
6F48
  8
0
 10
194.0606419960906
 20
15.60770133007167
 30
0.0
 40
109.0829267993812
 50
179.40701731788951
 51
179.78297103409631
  0
ARC
  5
6F49
  8
0
 10
84.929904965326116
 20
16.022955567360871
 30
0.0
 40
0.065052574100983
 50
174.73119009197609
 51
262.99592225961601
  0
ARC
  5
6F4A
  8
0
 10
150.05169243405601
 20
15.927135128595429
 30
0.0
 40
65.186644664782406
 50
179.27633322340679
 51
179.91052805495761
  0
LINE
  5
6F4B
  8
0
 10
84.870247188823114
 20
16.750444545099999
 30
0.0
 11
84.885661959194408
 21
16.750444545099999
 31
0.0
  0
ATTDEF
  5
7102
  8
DEFPOINTS
 10
82.45366025196688
 20
15.45493213950907
 30
0.0
 40
0.001
  1
METAL
  3

  2
MATERIAL
 70
     0
1001
AcDbAttr
1070
     0
1070
     1
  0
ATTDEF
  5
7103
  8
DEFPOINTS
 10
82.45366025196688
 20
15.45659880617573
 30
0.0
 40
0.001
  1
SHOWER COLUMN KIT
  3

  2
PRODUCT
 70
     0
1001
AcDbAttr
1070
     0
1070
     1
  0
ATTDEF
  5
7104
  8
DEFPOINTS
 10
82.45366025196688
 20
15.458265472842401
 30
0.0
 40
0.001
  1
HYDRORAIL-S
  3

  2
TRADENAME
 70
     0
1001
AcDbAttr
1070
     0
1070
     1
  0
ATTDEF
  5
7105
  8
DEFPOINTS
 10
82.45366025196688
 20
15.459932139509061
 30
0.0
 40
0.001
  1
K-76471
  3

  2
MODELNUMBER
 70
     0
1001
AcDbAttr
1070
     0
1070
     1
  0
ENDSEC
  0
EOF
