  0
SECTION
  2
HEADER
  9
$ACADVER
  1
AC1009
  9
$INSBASE
 10
49.380265991115841
 20
9.0361497745301591
 30
0.0
  9
$EXTMIN
 10
48.15979355016583
 20
9.0288255581345531
 30
0.0
  9
$EXTMAX
 10
51.094832920165842
 20
14.240874183970631
 30
0.0
  9
$LIMMIN
 10
0.0
 20
0.0
  9
$LIMMAX
 10
11.692913385800001
 20
8.2677165353999982
  9
$ORTHOMODE
 70
     0
  9
$REGENMODE
 70
     1
  9
$FILLMODE
 70
     1
  9
$QTEXTMODE
 70
     0
  9
$MIRRTEXT
 70
     0
  9
$DRAGMODE
 70
     2
  9
$LTSCALE
 40
0.6431102362
  9
$OSMODE
 70
  3071
  9
$ATTMODE
 70
     1
  9
$TEXTSIZE
 40
0.2
  9
$TRACEWID
 40
0.05
  9
$TEXTSTYLE
  7
STANDARD
  9
$CLAYER
  8
0
  9
$CELTYPE
  6
BYLAYER
  9
$CECOLOR
 62
   256
  9
$DIMSCALE
 40
1.0
  9
$DIMASZ
 40
0.1875
  9
$DIMEXO
 40
0.0625
  9
$DIMDLI
 40
0.4443307087
  9
$DIMRND
 40
0.0
  9
$DIMDLE
 40
0.0
  9
$DIMEXE
 40
0.125
  9
$DIMTP
 40
0.01
  9
$DIMTM
 40
0.01
  9
$DIMTXT
 40
2.0
  9
$DIMCEN
 40
0.1052362205
  9
$DIMTSZ
 40
0.0
  9
$DIMTOL
 70
     1
  9
$DIMLIM
 70
     0
  9
$DIMTIH
 70
     1
  9
$DIMTOH
 70
     1
  9
$DIMSE1
 70
     0
  9
$DIMSE2
 70
     0
  9
$DIMTAD
 70
     0
  9
$DIMZIN
 70
     0
  9
$DIMBLK
  1

  9
$DIMASO
 70
     1
  9
$DIMSHO
 70
     1
  9
$DIMPOST
  1
\X
  9
$DIMAPOST
  1

  9
$DIMALT
 70
     1
  9
$DIMALTD
 70
     2
  9
$DIMALTF
 40
25.399999999999999
  9
$DIMLFAC
 40
1.0
  9
$DIMTOFL
 70
     0
  9
$DIMTVP
 40
0.0
  9
$DIMTIX
 70
     0
  9
$DIMSOXD
 70
     0
  9
$DIMSAH
 70
     0
  9
$DIMBLK1
  1

  9
$DIMBLK2
  1

  9
$DIMSTYLE
  2
STANDARD
  9
$DIMCLRD
 70
     0
  9
$DIMCLRE
 70
     0
  9
$DIMCLRT
 70
     0
  9
$DIMTFAC
 40
1.0
  9
$DIMGAP
 40
0.09
  9
$LUNITS
 70
     2
  9
$LUPREC
 70
     4
  9
$SKETCHINC
 40
0.1
  9
$FILLETRAD
 40
0.0
  9
$AUNITS
 70
     0
  9
$AUPREC
 70
     0
  9
$MENU
  1
.
  9
$ELEVATION
 40
0.0
  9
$PELEVATION
 40
0.0
  9
$THICKNESS
 40
0.0
  9
$LIMCHECK
 70
     0
  9
$BLIPMODE
 70
     0
  9
$CHAMFERA
 40
0.0
  9
$CHAMFERB
 40
0.0
  9
$SKPOLY
 70
     0
  9
$TDCREATE
 40
2458066.4214215861
  9
$TDUPDATE
 40
2458068.4674129859
  9
$TDINDWG
 40
0.1093430324
  9
$TDUSRTIMER
 40
0.1093430324
  9
$USRTIMER
 70
     1
  9
$ANGBASE
 50
0.0
  9
$ANGDIR
 70
     0
  9
$PDMODE
 70
     0
  9
$PDSIZE
 40
0.3125
  9
$PLINEWID
 40
0.0
  9
$COORDS
 70
     2
  9
$SPLFRAME
 70
     0
  9
$SPLINETYPE
 70
     6
  9
$SPLINESEGS
 70
     8
  9
$ATTDIA
 70
     1
  9
$ATTREQ
 70
     1
  9
$HANDLING
 70
     1
  9
$HANDSEED
  5
228D
  9
$SURFTAB1
 70
     6
  9
$SURFTAB2
 70
     6
  9
$SURFTYPE
 70
     6
  9
$SURFU
 70
     6
  9
$SURFV
 70
     6
  9
$UCSNAME
  2

  9
$UCSORG
 10
0.0
 20
0.0
 30
0.0
  9
$UCSXDIR
 10
1.0
 20
0.0
 30
0.0
  9
$UCSYDIR
 10
0.0
 20
1.0
 30
0.0
  9
$PUCSNAME
  2

  9
$PUCSORG
 10
0.0
 20
0.0
 30
0.0
  9
$PUCSXDIR
 10
1.0
 20
0.0
 30
0.0
  9
$PUCSYDIR
 10
0.0
 20
1.0
 30
0.0
  9
$USERI1
 70
     0
  9
$USERI2
 70
     0
  9
$USERI3
 70
     0
  9
$USERI4
 70
     0
  9
$USERI5
 70
     0
  9
$USERR1
 40
0.0
  9
$USERR2
 40
0.0
  9
$USERR3
 40
0.0
  9
$USERR4
 40
0.0
  9
$USERR5
 40
0.0
  9
$WORLDVIEW
 70
     1
  9
$SHADEDGE
 70
     3
  9
$SHADEDIF
 70
    70
  9
$TILEMODE
 70
     1
  9
$MAXACTVP
 70
    64
  9
$PLIMCHECK
 70
     0
  9
$PEXTMIN
 10
1.0000000000000000E+020
 20
1.0000000000000000E+020
 30
1.0000000000000000E+020
  9
$PEXTMAX
 10
-1.0000000000000000E+020
 20
-1.0000000000000000E+020
 30
-1.0000000000000000E+020
  9
$PLIMMIN
 10
0.0
 20
0.0
  9
$PLIMMAX
 10
12.0
 20
9.0
  9
$UNITMODE
 70
     0
  9
$VISRETAIN
 70
     1
  9
$PLINEGEN
 70
     0
  9
$PSLTSCALE
 70
     1
  0
ENDSEC
  0
SECTION
  2
TABLES
  0
TABLE
  2
VPORT
 70
     1
  0
VPORT
  2
*ACTIVE
 70
     0
 10
0.0
 20
0.0
 11
1.0
 21
1.0
 12
0.0495973327724446
 22
-1.2811948991326501
 13
0.0
 23
0.0
 14
1.0
 24
1.0
 15
0.0
 25
0.0
 16
-0.0000000000000071
 26
0.0
 36
16.820239473261712
 17
49.627306508838672
 27
11.634849871052589
 37
0.0
 40
11.655571523337301
 41
2.1638418079096038
 42
50.0
 43
0.0
 44
0.0
 50
0.0
 51
0.0
 71
     0
 72
   100
 73
     1
 74
     1
 75
     0
 76
     0
 77
     0
 78
     0
  0
ENDTAB
  0
TABLE
  2
LTYPE
 70
     2
  0
LTYPE
  2
CONTINUOUS
 70
     0
  3
Solid line
 72
    65
 73
     0
 40
0.0
  0
LTYPE
  2
PHANTOM2
 70
     0
  3
___ _ _ ___ _ _ ___ _ _ ___ _ _
 72
    65
 73
     6
 40
1.25
 49
0.625
 49
-0.125
 49
0.125
 49
-0.125
 49
0.125
 49
-0.125
  0
ENDTAB
  0
TABLE
  2
LAYER
 70
     2
  0
LAYER
  2
0
 70
     0
 62
   255
  6
CONTINUOUS
  0
LAYER
  2
DEFPOINTS
 70
     0
 62
     7
  6
CONTINUOUS
  0
ENDTAB
  0
TABLE
  2
STYLE
 70
     1
  0
STYLE
  2
STANDARD
 70
     0
 40
0.0
 41
0.8
 50
0.0
 71
     0
 42
0.2
  3
txt
  4

  0
ENDTAB
  0
TABLE
  2
VIEW
 70
     0
  0
ENDTAB
  0
TABLE
  2
UCS
 70
     0
  0
ENDTAB
  0
TABLE
  2
APPID
 70
     9
  0
APPID
  2
ACAD
 70
     0
  0
APPID
  2
ACAD_MLEADERVER
 70
     0
  0
APPID
  2
ACAD_EXEMPT_FROM_CAD_STANDARDS
 70
     0
  0
APPID
  2
ACAD_NAV_VCDISPLAY
 70
     0
  0
APPID
  2
ACAD_DSTYLE_DIMJAG
 70
     0
  0
APPID
  2
ACAD_DSTYLE_DIMTALN
 70
     0
  0
APPID
  2
ACAECLAYERSTANDARD
 70
     0
  0
APPID
  2
ACCMTRANSPARENCY
 70
     0
  0
APPID
  2
ACDBATTR
 70
     0
  0
ENDTAB
  0
TABLE
  2
DIMSTYLE
 70
     2
  0
DIMSTYLE
  2
STANDARD
 70
     0
  3

  4

  5

  6

  7

 40
1.0
 41
0.1875
 42
0.0625
 43
0.38
 44
0.125
 45
0.0
 46
0.0
 47
0.01
 48
0.01
140
0.15625
141
0.09
142
0.0
143
25.399999999999999
144
1.0
145
0.0
146
1.0
147
0.09
 71
     1
 72
     0
 73
     1
 74
     1
 75
     0
 76
     0
 77
     0
 78
     4
170
     0
171
     2
172
     0
173
     0
174
     0
175
     0
176
     0
177
     0
178
     0
  0
ENDTAB
  0
ENDSEC
  0
SECTION
  2
BLOCKS
  0
BLOCK
  8
0
  2
$MODEL_SPACE
 70
     0
 10
0.0
 20
0.0
 30
0.0
  3
$MODEL_SPACE
  1

  0
ENDBLK
  5
21
  8
0
  0
BLOCK
 67
     1
  8
0
  2
$PAPER_SPACE
 70
     0
 10
0.0
 20
0.0
 30
0.0
  3
$PAPER_SPACE
  1

  0
ENDBLK
  5
1D
 67
     1
  8
0
  0
ENDSEC
  0
SECTION
  2
ENTITIES
  0
LINE
  5
1D42
  8
0
 10
48.15979355016583
 20
9.0361497745301591
 30
0.0
 11
50.600738432065839
 21
9.0361497745301591
 31
0.0
  0
LINE
  5
1D43
  8
0
 10
50.600738432065839
 20
9.0361497745301591
 30
0.0
 11
50.600738432065839
 21
14.19087418393015
 31
0.0
  0
LINE
  5
1D44
  8
0
 10
48.15979355016583
 20
9.0361497745301591
 30
0.0
 11
48.15979355016583
 21
14.19087418393015
 31
0.0
  0
ARC
  5
1D45
  8
0
 10
48.209793550868383
 20
14.1908741832681
 30
0.0
 40
0.0500000007025339
 50
90.000000805062001
 51
179.9999992413405
  0
ARC
  5
1D46
  8
0
 10
50.550738431996741
 20
14.19087418390153
 30
0.0
 40
0.0500000000690975
 50
0.0000000327988977
 51
89.999999920816904
  0
LINE
  5
1D47
  8
0
 10
48.209793550165827
 20
14.240874183970631
 30
0.0
 11
50.550738432065842
 21
14.240874183970631
 31
0.0
  0
ARC
  5
1D48
  8
0
 10
49.38133374164633
 20
9.9969954529564244
 30
0.0
 40
0.2157752916385024
 50
31.37770666850783
 51
90.283525750559207
  0
ARC
  5
1D49
  8
0
 10
49.379191927194
 20
9.9970176801312753
 30
0.0
 40
0.2157530960723339
 50
89.71476849189871
 51
148.6433212640145
  0
ARC
  5
1D4A
  8
0
 10
49.382917905334651
 20
9.9966509875637222
 30
0.0
 40
0.2315446307093987
 50
359.55550209828692
 51
93.747543483330787
  0
ARC
  5
1D4B
  8
0
 10
49.383236960019403
 20
10.00286707622025
 30
0.0
 40
0.2313573924882895
 50
269.26421777214318
 51
358.0153323501051
  0
ARC
  5
1D4C
  8
0
 10
49.376852770852423
 20
9.9970806671103691
 30
0.0
 40
0.2307980815856095
 50
92.251891314378696
 51
180.43162091778649
  0
ARC
  5
1D4D
  8
0
 10
49.377210693198847
 20
10.00277759456808
 30
0.0
 40
0.2312690169076994
 50
181.8424416459311
 51
270.75695727761831
  0
ARC
  5
1D4E
  8
0
 10
49.369532041839499
 20
10.00407851636688
 30
0.0
 40
0.2038323517067001
 50
148.92523150194111
 51
208.38274198795219
  0
ARC
  5
1D4F
  8
0
 10
49.391011745127919
 20
10.004088333833129
 30
0.0
 40
0.2038220939074416
 50
331.87210418783962
 51
31.091973604357889
  0
ARC
  5
1D50
  8
0
 10
49.379634017854592
 20
9.9905609703031395
 30
0.0
 40
0.2069687169315265
 50
203.7560726398828
 51
270.17495133841828
  0
ARC
  5
1D51
  8
0
 10
49.380835965256033
 20
9.9907720166256304
 30
0.0
 40
0.2071795824283099
 50
269.84237270709008
 51
336.45138749830198
  0
ARC
  5
1D52
  8
0
 10
49.377711291996647
 20
9.9871405678413385
 30
0.0
 40
0.2038446342970217
 50
89.788486928640964
 51
203.09383514867071
  0
ARC
  5
1D53
  8
0
 10
49.38255795778749
 20
9.986936633091263
 30
0.0
 40
0.2040882500142548
 50
337.24534504181128
 51
91.149470997028786
  0
ARC
  5
1D54
  8
0
 10
49.378976323975692
 20
10.66430647766218
 30
0.0
 40
0.2157752916385024
 50
31.37770666850783
 51
90.283525750559207
  0
ARC
  5
1D55
  8
0
 10
49.376834509523363
 20
10.664328704837031
 30
0.0
 40
0.2157530960723339
 50
89.71476849189871
 51
148.6433212640145
  0
ARC
  5
1D56
  8
0
 10
49.38056048766402
 20
10.663962012269479
 30
0.0
 40
0.2315446307093987
 50
359.55550209828692
 51
93.747543483330787
  0
ARC
  5
1D57
  8
0
 10
49.380879542348772
 20
10.670178100926011
 30
0.0
 40
0.2313573924882895
 50
269.26421777214318
 51
358.0153323501051
  0
ARC
  5
1D58
  8
0
 10
49.374495353181793
 20
10.664391691816119
 30
0.0
 40
0.2307980815856095
 50
92.251891314378696
 51
180.43162091778649
  0
ARC
  5
1D59
  8
0
 10
49.37485327552821
 20
10.670088619273839
 30
0.0
 40
0.2312690169076994
 50
181.8424416459311
 51
270.75695727761831
  0
ARC
  5
1D5A
  8
0
 10
49.367174624168861
 20
10.67138954107264
 30
0.0
 40
0.2038323517067001
 50
148.92523150194111
 51
208.38274198795219
  0
ARC
  5
1D5B
  8
0
 10
49.388654327457282
 20
10.67139935853889
 30
0.0
 40
0.2038220939074416
 50
331.87210418783962
 51
31.091973604357889
  0
ARC
  5
1D5C
  8
0
 10
49.377276600183947
 20
10.65787199500889
 30
0.0
 40
0.2069687169315265
 50
203.7560726398828
 51
270.17495133841828
  0
ARC
  5
1D5D
  8
0
 10
49.378478547585388
 20
10.658083041331389
 30
0.0
 40
0.2071795824283134
 50
269.84237270709178
 51
336.45138749830193
  0
ARC
  5
1D5E
  8
0
 10
49.375353874326017
 20
10.65445159254709
 30
0.0
 40
0.2038446342970217
 50
89.788486928640964
 51
203.09383514867071
  0
ARC
  5
1D5F
  8
0
 10
49.380200540116853
 20
10.65424765779702
 30
0.0
 40
0.2040882500142548
 50
337.24534504181128
 51
91.149470997028786
  0
LINE
  5
1D60
  8
0
 10
50.600738432065839
 20
10.07130853133016
 30
0.0
 11
50.716880164265838
 21
10.07130853133016
 31
0.0
  0
LINE
  5
1D61
  8
0
 10
50.600738432065839
 20
9.7169778226301595
 30
0.0
 11
50.716880164265838
 21
9.7169778226301595
 31
0.0
  0
LINE
  5
1D62
  8
0
 10
50.716880164265838
 20
10.099313300930151
 30
0.0
 11
50.716883226721478
 21
9.6904782263187048
 31
0.0
  0
ARC
  5
1D63
  8
0
 10
50.744486433180789
 20
10.099324314258
 30
0.0
 40
0.0276062711117946
 50
92.339797587605474
 51
180.02285774918181
  0
ARC
  5
1D64
  8
0
 10
50.744610328421771
 20
9.6905320008935103
 30
0.0
 40
0.0277271538460568
 50
180.11112060509569
 51
268.76468014546828
  0
ARC
  5
1D65
  8
0
 10
50.819988945957199
 20
11.004307249668759
 30
0.0
 40
1.3436457184147339
 50
266.7584840887418
 51
268.9545731654494
  0
ARC
  5
1D66
  8
0
 10
50.81305682208054
 20
10.030479772060721
 30
0.0
 40
0.3700125844254114
 50
267.27629955419582
 51
281.38221207700349
  0
ARC
  5
1D67
  8
0
 10
50.861441378423102
 20
9.8667259466490993
 30
0.0
 40
0.200501142446263
 50
277.05862018856368
 51
334.57913537680753
  0
ARC
  5
1D68
  8
0
 10
50.675762686214263
 20
9.966484788185852
 30
0.0
 40
0.4111565531450012
 50
333.1304228776533
 51
3.4133561169387292
  0
LINE
  5
1D69
  8
0
 10
51.086189837765829
 20
9.9909646669301484
 30
0.0
 11
51.084951196665841
 21
11.03682436593016
 31
0.0
  0
ARC
  5
1D6A
  8
0
 10
51.058896937318821
 20
11.036714894349171
 30
0.0
 40
0.0260544893281175
 50
0.2407369395393349
 51
91.740251126720366
  0
LINE
  5
1D6B
  8
0
 10
51.058105703065849
 20
11.06275736663016
 30
0.0
 11
50.928488673365841
 21
11.06276488083016
 31
0.0
  0
LINE
  5
1D6C
  8
0
 10
50.900854071965838
 20
10.17375464383016
 30
0.0
 11
50.900851778734612
 21
11.036846665759681
 31
0.0
  0
ARC
  5
1D6D
  8
0
 10
50.928228966978729
 20
11.03534792990741
 30
0.0
 40
0.0274181809263131
 50
89.45728338254095
 51
176.86652955229201
  0
ARC
  5
1D6E
  8
0
 10
50.842203712759762
 20
10.184545300718231
 30
0.0
 40
0.0596347458372772
 50
262.84696300892011
 51
349.57514508900141
  0
ARC
  5
1D6F
  8
0
 10
50.75603138492572
 20
8.1558511153878044
 30
0.0
 40
1.9710971880193211
 50
87.710387158815891
 51
90.368351773944184
  0
ARC
  5
1D70
  8
0
 10
51.040637546165861
 20
10.91053867233016
 30
0.0
 40
0.0541953739999887
 50
340.2366692221284
 51
34.940601265219406
  0
ARC
  5
1D71
  8
0
 10
51.040637546165861
 20
10.87388789213016
 30
0.0
 40
0.054195373999988
 50
325.27545460143853
 51
34.860259346130753
  0
LINE
  5
1D72
  8
0
 10
48.209793550165841
 20
13.96707805727215
 30
0.0
 11
50.550738432065842
 21
13.967078057230159
 31
0.0
  0
ARC
  5
1D73
  8
0
 10
48.204875340669133
 20
14.01261500471205
 30
0.0
 40
0.0458017725295219
 50
190.1725040176716
 51
276.16432503880208
  0
ARC
  5
1D74
  8
0
 10
50.555833575956761
 20
14.01237876314384
 30
0.0
 40
0.0455863406271868
 50
263.58269392482657
 51
350.08047710196553
  0
LINE
  5
1D75
  8
0
 10
48.174411861319072
 20
13.96718748976668
 30
0.0
 11
48.845620486965828
 21
13.29491688203016
 31
0.0
  0
ARC
  5
1D76
  8
0
 10
48.230596495168172
 20
14.010715073027029
 30
0.0
 40
0.0710729455225062
 50
184.9958036018792
 51
217.76580267682931
  0
LINE
  5
1D77
  8
0
 10
50.586121707365841
 20
13.967189078830151
 30
0.0
 11
49.914911495165832
 21
13.29491688203016
 31
0.0
  0
ARC
  5
1D78
  8
0
 10
50.543869278284447
 20
14.00525968979407
 30
0.0
 40
0.0568738884062274
 50
317.98027067569637
 51
359.2606893397404
  0
LINE
  5
1D79
  8
0
 10
49.914911495165832
 20
13.29491688213016
 30
0.0
 11
49.914911495165832
 21
9.0361497745301591
 31
0.0
  0
LINE
  5
1D7A
  8
0
 10
48.845620486935481
 20
13.29491688206056
 30
0.0
 11
48.845620486935488
 21
9.0361497745301591
 31
0.0
  0
LINE
  5
1D7B
  8
0
 10
48.881003762331538
 20
13.280244262730159
 30
0.0
 11
49.879528219767849
 21
13.280244262730159
 31
0.0
  0
ARC
  5
1D7C
  8
0
 10
49.879774179983777
 20
13.329651125346359
 30
0.0
 40
0.0494074748393895
 50
269.71476905725058
 51
315.33052170061882
  0
ARC
  5
1D7D
  8
0
 10
48.880753998737632
 20
13.329641953594709
 30
0.0
 40
0.0493983222853055
 50
224.66501415040059
 51
270.2896952794942
  0
LINE
  5
1D7E
  8
0
 10
50.928460284265817
 20
10.991371232430829
 30
0.0
 11
51.05740653306583
 21
10.99137123243016
 31
0.0
  0
ARC
  5
1D7F
  8
0
 10
51.059963695433261
 20
10.966431062814561
 30
0.0
 40
0.0250709221973911
 50
0.2030346459656708
 51
95.854186329602754
  0
ARC
  5
1D80
  8
0
 10
50.92585745661313
 20
10.96650156493271
 30
0.0
 40
0.0250055008599476
 50
84.025248213521635
 51
180.05110602485101
  0
ARC
  5
1D81
  8
0
 10
50.740809950513388
 20
9.9752632452726111
 30
0.0
 40
0.0252417048110463
 50
81.888042974124033
 51
161.44008481978841
  0
ARC
  5
1D82
  8
0
 10
50.77065625992401
 20
10.23561803486829
 30
0.0
 40
0.2368287636780251
 50
263.62788415219632
 51
291.07352033921819
  0
ARC
  5
1D83
  8
0
 10
50.797875662274478
 20
10.100913571373731
 30
0.0
 40
0.1039313010281939
 50
303.87934553571142
 51
6.6778639394062482
  0
ARC
  5
1D84
  8
0
 10
52.97562125966386
 20
10.151838299185419
 30
0.0
 40
2.0748829387006329
 50
179.39479120564289
 51
181.0725583915754
  0
ARC
  5
1D85
  8
0
 10
50.74267345879624
 20
9.7373858726044862
 30
0.0
 40
0.0259072265915527
 50
185.43943924887651
 51
273.60654959505752
  0
ARC
  5
1D86
  8
0
 10
50.81045268431334
 20
10.03178429778289
 30
0.0
 40
0.3270146884906196
 50
258.32950023487751
 51
310.42511786530878
  0
ARC
  5
1D87
  8
0
 10
50.709820561483767
 20
9.9994610770679486
 30
0.0
 40
0.3803891667246242
 50
325.28712126450478
 51
351.87847742134119
  0
ATTDEF
  5
1E9E
  8
DEFPOINTS
 10
49.37398773978078
 20
9.0288255581345567
 30
0.0
 40
0.001
  1
BRASS
  3

  2
MATERIAL
 70
     0
1001
ACDBATTR
1070
     0
1070
     1
  0
ATTDEF
  5
1E9F
  8
DEFPOINTS
 10
49.37398773978078
 20
9.0304922248012218
 30
0.0
 40
0.001
  1
BATHROOM SINK FAUCET
  3

  2
PRODUCT
 70
     0
1001
ACDBATTR
1070
     0
1070
     1
  0
ATTDEF
  5
1EA0
  8
DEFPOINTS
 10
49.37398773978078
 20
9.0321588914678852
 30
0.0
 40
0.001
  1
GEOMETRIC INSIGHT
  3

  2
TRADENAME
 70
     0
1001
ACDBATTR
1070
     0
1070
     1
  0
ATTDEF
  5
1EA1
  8
DEFPOINTS
 10
49.37398773978078
 20
9.0338255581345521
 30
0.0
 40
0.001
  1
K-7517
  3

  2
MODELNUMBER
 70
     0
1001
ACDBATTR
1070
     0
1070
     1
  0
ENDSEC
  0
EOF
